  0
SECTION
  2
HEADER
  9
$ACADVER
  1
AC1015
  9
$ACADMAINTVER
 70
     6
  9
$DWGCODEPAGE
  3
ANSI_1250
  9
$INSBASE
 10
0.0
 20
0.0
 30
0.0
  9
$EXTMIN
 10
-38.8601
 20
-35.4276
 30
0.0
  9
$EXTMAX
 10
38.9906
 20
35.4277
 30
0.0
  9
$LIMMIN
 10
0.0
 20
0.0
  9
$LIMMAX
 10
12.0
 20
9.0
  9
$ORTHOMODE
 70
     0
  9
$REGENMODE
 70
     1
  9
$FILLMODE
 70
     1
  9
$QTEXTMODE
 70
     0
  9
$MIRRTEXT
 70
     1
  9
$LTSCALE
 40
1.0
  9
$ATTMODE
 70
     1
  9
$TEXTSIZE
 40
0.2
  9
$TRACEWID
 40
0.05
  9
$TEXTSTYLE
  7
Standard
  9
$CLAYER
  8
0
  9
$CELTYPE
  6
ByLayer
  9
$CECOLOR
 62
   256
  9
$CELTSCALE
 40
1.0
  9
$DISPSILH
 70
     0
  9
$DIMSCALE
 40
1.0
  9
$DIMASZ
 40
0.18
  9
$DIMEXO
 40
0.0625
  9
$DIMDLI
 40
0.38
  9
$DIMRND
 40
0.0
  9
$DIMDLE
 40
0.0
  9
$DIMEXE
 40
0.18
  9
$DIMTP
 40
0.0
  9
$DIMTM
 40
0.0
  9
$DIMTXT
 40
0.18
  9
$DIMCEN
 40
0.09
  9
$DIMTSZ
 40
0.0
  9
$DIMTOL
 70
     0
  9
$DIMLIM
 70
     0
  9
$DIMTIH
 70
     1
  9
$DIMTOH
 70
     1
  9
$DIMSE1
 70
     0
  9
$DIMSE2
 70
     0
  9
$DIMTAD
 70
     0
  9
$DIMZIN
 70
     0
  9
$DIMBLK
  1

  9
$DIMASO
 70
     1
  9
$DIMSHO
 70
     1
  9
$DIMPOST
  1

  9
$DIMAPOST
  1

  9
$DIMALT
 70
     0
  9
$DIMALTD
 70
     2
  9
$DIMALTF
 40
25.4
  9
$DIMLFAC
 40
1.0
  9
$DIMTOFL
 70
     0
  9
$DIMTVP
 40
0.0
  9
$DIMTIX
 70
     0
  9
$DIMSOXD
 70
     0
  9
$DIMSAH
 70
     0
  9
$DIMBLK1
  1

  9
$DIMBLK2
  1

  9
$DIMSTYLE
  2
Standard
  9
$DIMCLRD
 70
     0
  9
$DIMCLRE
 70
     0
  9
$DIMCLRT
 70
     0
  9
$DIMTFAC
 40
1.0
  9
$DIMGAP
 40
0.09
  9
$DIMJUST
 70
     0
  9
$DIMSD1
 70
     0
  9
$DIMSD2
 70
     0
  9
$DIMTOLJ
 70
     1
  9
$DIMTZIN
 70
     0
  9
$DIMALTZ
 70
     0
  9
$DIMALTTZ
 70
     0
  9
$DIMUPT
 70
     0
  9
$DIMDEC
 70
     4
  9
$DIMTDEC
 70
     4
  9
$DIMALTU
 70
     2
  9
$DIMALTTD
 70
     2
  9
$DIMTXSTY
  7
Standard
  9
$DIMAUNIT
 70
     0
  9
$DIMADEC
 70
     0
  9
$DIMALTRND
 40
0.0
  9
$DIMAZIN
 70
     0
  9
$DIMDSEP
 70
    46
  9
$DIMATFIT
 70
     3
  9
$DIMFRAC
 70
     0
  9
$DIMLDRBLK
  1

  9
$DIMLUNIT
 70
     2
  9
$DIMLWD
 70
    -2
  9
$DIMLWE
 70
    -2
  9
$DIMTMOVE
 70
     0
  9
$LUNITS
 70
     2
  9
$LUPREC
 70
     4
  9
$SKETCHINC
 40
0.1
  9
$FILLETRAD
 40
0.5
  9
$AUNITS
 70
     0
  9
$AUPREC
 70
     0
  9
$MENU
  1
.
  9
$ELEVATION
 40
0.0
  9
$PELEVATION
 40
0.0
  9
$THICKNESS
 40
0.0
  9
$LIMCHECK
 70
     0
  9
$CHAMFERA
 40
0.5
  9
$CHAMFERB
 40
0.5
  9
$CHAMFERC
 40
1.0
  9
$CHAMFERD
 40
0.0
  9
$SKPOLY
 70
     0
  9
$TDCREATE
 40
2459373.545045185
  9
$TDUCREATE
 40
2459373.461711852
  9
$TDUPDATE
 40
2459373.545045197
  9
$TDUUPDATE
 40
2459373.461711864
  9
$TDINDWG
 40
0.0000000116
  9
$TDUSRTIMER
 40
0.0000000116
  9
$USRTIMER
 70
     1
  9
$ANGBASE
 50
0.0
  9
$ANGDIR
 70
     0
  9
$PDMODE
 70
     0
  9
$PDSIZE
 40
0.0
  9
$PLINEWID
 40
0.0
  9
$SPLFRAME
 70
     0
  9
$SPLINETYPE
 70
     6
  9
$SPLINESEGS
 70
     8
  9
$HANDSEED
  5
D9
  9
$SURFTAB1
 70
     6
  9
$SURFTAB2
 70
     6
  9
$SURFTYPE
 70
     6
  9
$SURFU
 70
     6
  9
$SURFV
 70
     6
  9
$UCSBASE
  2

  9
$UCSNAME
  2

  9
$UCSORG
 10
0.0
 20
0.0
 30
0.0
  9
$UCSXDIR
 10
1.0
 20
0.0
 30
0.0
  9
$UCSYDIR
 10
0.0
 20
1.0
 30
0.0
  9
$UCSORTHOREF
  2

  9
$UCSORTHOVIEW
 70
     0
  9
$UCSORGTOP
 10
0.0
 20
0.0
 30
0.0
  9
$UCSORGBOTTOM
 10
0.0
 20
0.0
 30
0.0
  9
$UCSORGLEFT
 10
0.0
 20
0.0
 30
0.0
  9
$UCSORGRIGHT
 10
0.0
 20
0.0
 30
0.0
  9
$UCSORGFRONT
 10
0.0
 20
0.0
 30
0.0
  9
$UCSORGBACK
 10
0.0
 20
0.0
 30
0.0
  9
$PUCSBASE
  2

  9
$PUCSNAME
  2

  9
$PUCSORG
 10
0.0
 20
0.0
 30
0.0
  9
$PUCSXDIR
 10
1.0
 20
0.0
 30
0.0
  9
$PUCSYDIR
 10
0.0
 20
1.0
 30
0.0
  9
$PUCSORTHOREF
  2

  9
$PUCSORTHOVIEW
 70
     0
  9
$PUCSORGTOP
 10
0.0
 20
0.0
 30
0.0
  9
$PUCSORGBOTTOM
 10
0.0
 20
0.0
 30
0.0
  9
$PUCSORGLEFT
 10
0.0
 20
0.0
 30
0.0
  9
$PUCSORGRIGHT
 10
0.0
 20
0.0
 30
0.0
  9
$PUCSORGFRONT
 10
0.0
 20
0.0
 30
0.0
  9
$PUCSORGBACK
 10
0.0
 20
0.0
 30
0.0
  9
$USERI1
 70
     0
  9
$USERI2
 70
     0
  9
$USERI3
 70
     0
  9
$USERI4
 70
     0
  9
$USERI5
 70
     0
  9
$USERR1
 40
0.0
  9
$USERR2
 40
0.0
  9
$USERR3
 40
0.0
  9
$USERR4
 40
0.0
  9
$USERR5
 40
0.0
  9
$WORLDVIEW
 70
     1
  9
$SHADEDGE
 70
     3
  9
$SHADEDIF
 70
    70
  9
$TILEMODE
 70
     1
  9
$MAXACTVP
 70
    64
  9
$PINSBASE
 10
0.0
 20
0.0
 30
0.0
  9
$PLIMCHECK
 70
     0
  9
$PEXTMIN
 10
1.000000000000000E+20
 20
1.000000000000000E+20
 30
1.000000000000000E+20
  9
$PEXTMAX
 10
-1.000000000000000E+20
 20
-1.000000000000000E+20
 30
-1.000000000000000E+20
  9
$PLIMMIN
 10
0.0
 20
0.0
  9
$PLIMMAX
 10
12.0
 20
9.0
  9
$UNITMODE
 70
     0
  9
$VISRETAIN
 70
     1
  9
$PLINEGEN
 70
     0
  9
$PSLTSCALE
 70
     1
  9
$TREEDEPTH
 70
  3020
  9
$CMLSTYLE
  2
Standard
  9
$CMLJUST
 70
     0
  9
$CMLSCALE
 40
1.0
  9
$PROXYGRAPHICS
 70
     1
  9
$MEASUREMENT
 70
     0
  9
$CELWEIGHT
370
    -1
  9
$ENDCAPS
280
     0
  9
$JOINSTYLE
280
     0
  9
$LWDISPLAY
290
     0
  9
$INSUNITS
 70
     4
  9
$HYPERLINKBASE
  1

  9
$STYLESHEET
  1

  9
$XEDIT
290
     1
  9
$CEPSNTYPE
380
     0
  9
$PSTYLEMODE
290
     1
  9
$FINGERPRINTGUID
  2
{C75A4170-B08A-47C6-8E1E-6F177A448DB5}
  9
$VERSIONGUID
  2
{FAEB1C32-E019-11D5-929B-00C0DF256EC4}
  9
$EXTNAMES
290
     1
  9
$PSVPSCALE
 40
0.0
  9
$OLESTARTUP
290
     0
  0
ENDSEC
  0
SECTION
  2
CLASSES
  0
CLASS
  1
ACDBDICTIONARYWDFLT
  2
AcDbDictionaryWithDefault
  3
ObjectDBX Classes
 90
        0
280
     0
281
     0
  0
CLASS
  1
VISUALSTYLE
  2
AcDbVisualStyle
  3
ObjectDBX Classes
 90
     4095
280
     0
281
     0
  0
CLASS
  1
MATERIAL
  2
AcDbMaterial
  3
ObjectDBX Classes
 90
     1153
280
     0
281
     0
  0
CLASS
  1
DICTIONARYVAR
  2
AcDbDictionaryVar
  3
ObjectDBX Classes
 90
        0
280
     0
281
     0
  0
CLASS
  1
ACDBPLACEHOLDER
  2
AcDbPlaceHolder
  3
ObjectDBX Classes
 90
        0
280
     0
281
     0
  0
CLASS
  1
LAYOUT
  2
AcDbLayout
  3
ObjectDBX Classes
 90
        0
280
     0
281
     0
  0
ENDSEC
  0
SECTION
  2
TABLES
  0
TABLE
  2
VPORT
  5
8
330
0
100
AcDbSymbolTable
 70
     1
  0
VPORT
  5
29
330
8
100
AcDbSymbolTableRecord
100
AcDbViewportTableRecord
  2
*Active
 70
     0
 10
0.0
 20
0.0
 11
1.0
 21
1.0
 12
10.42990654205607
 22
4.5
 13
0.0
 23
0.0
 14
0.5
 24
0.5
 15
0.5
 25
0.5
 16
0.0
 26
0.0
 36
1.0
 17
0.0
 27
0.0
 37
0.0
 40
9.0
 41
1.972972972850329
 42
50.0
 43
0.0
 44
0.0
 50
0.0
 51
0.0
 71
     0
 72
   100
 73
     1
 74
     3
 75
     0
 76
     0
 77
     0
 78
     0
281
     0
 65
     1
110
0.0
120
0.0
130
0.0
111
1.0
121
0.0
131
0.0
112
0.0
122
1.0
132
0.0
 79
     0
146
0.0
  0
ENDTAB
  0
TABLE
  2
LTYPE
  5
5
330
0
100
AcDbSymbolTable
 70
     3
  0
LTYPE
  5
14
330
5
100
AcDbSymbolTableRecord
100
AcDbLinetypeTableRecord
  2
ByBlock
 70
     0
  3

 72
    65
 73
     0
 40
0.0
  0
LTYPE
  5
15
330
5
100
AcDbSymbolTableRecord
100
AcDbLinetypeTableRecord
  2
ByLayer
 70
     0
  3

 72
    65
 73
     0
 40
0.0
  0
LTYPE
  5
16
330
5
100
AcDbSymbolTableRecord
100
AcDbLinetypeTableRecord
  2
Continuous
 70
     0
  3
Solid line
 72
    65
 73
     0
 40
0.0
  0
LTYPE
  5
6C
330
5
100
AcDbSymbolTableRecord
100
AcDbLinetypeTableRecord
  2
New Line1
 70
     0
  3

 72
    65
 73
     4
 40
1.2
 49
0.5
 74
     4
 75
     0
340
0
 46
1.0
 50
0.0
 44
0.0
 45
0.0
 49
-0.3
 74
     4
 75
     0
340
0
 46
1.0
 50
0.0
 44
0.0
 45
0.0
 49
0.1
 74
     4
 75
     0
340
0
 46
1.0
 50
0.0
 44
0.0
 45
0.0
 49
-0.3
 74
     4
 75
     0
340
0
 46
1.0
 50
0.0
 44
0.0
 45
0.0
  0
LTYPE
  5
6E
330
5
100
AcDbSymbolTableRecord
100
AcDbLinetypeTableRecord
  2
New Line2
 70
     0
  3

 72
    65
 73
     4
 40
1.2
 49
0.5
 74
     4
 75
     0
340
0
 46
1.0
 50
0.0
 44
0.0
 45
0.0
 49
-0.3
 74
     4
 75
     0
340
0
 46
1.0
 50
0.0
 44
0.0
 45
0.0
 49
0.1
 74
     4
 75
     0
340
0
 46
1.0
 50
0.0
 44
0.0
 45
0.0
 49
-0.3
 74
     4
 75
     0
340
0
 46
1.0
 50
0.0
 44
0.0
 45
0.0
  0
ENDTAB
  0
TABLE
  2
LAYER
  5
2
330
0
100
AcDbSymbolTable
 70
     2
  0
LAYER
  5
10
330
2
100
AcDbSymbolTableRecord
100
AcDbLayerTableRecord
  2
0
 70
     0
 62
     7
  6
Continuous
370
    -3
390
F
  0
LAYER
  5
40
330
2
100
AcDbSymbolTableRecord
100
AcDbLayerTableRecord
  2
Standard layer
 70
     0
 62
     7
  6
Continuous
370
    -3
390
F
  0
ENDTAB
  0
TABLE
  2
STYLE
  5
3
330
0
100
AcDbSymbolTable
 70
     1
  0
STYLE
  5
11
330
3
100
AcDbSymbolTableRecord
100
AcDbTextStyleTableRecord
  2
Standard
 70
     0
 40
0.0
 41
1.0
 50
0.0
 71
     0
 42
0.2
  3
txt
  4

  0
ENDTAB
  0
TABLE
  2
VIEW
  5
6
330
0
100
AcDbSymbolTable
 70
     0
  0
ENDTAB
  0
TABLE
  2
UCS
  5
7
330
0
100
AcDbSymbolTable
 70
     0
  0
ENDTAB
  0
TABLE
  2
APPID
  5
9
330
0
100
AcDbSymbolTable
 70
     2
  0
APPID
  5
12
330
9
100
AcDbSymbolTableRecord
100
AcDbRegAppTableRecord
  2
ACAD
 70
     0
  0
APPID
  5
3F
330
9
100
AcDbSymbolTableRecord
100
AcDbRegAppTableRecord
  2
ODA
 70
     0
  0
ENDTAB
  0
TABLE
  2
DIMSTYLE
  5
A
330
0
100
AcDbSymbolTable
 70
     1
100
AcDbDimStyleTable
  0
DIMSTYLE
105
27
330
A
100
AcDbSymbolTableRecord
100
AcDbDimStyleTableRecord
  2
Standard
 70
     0
340
11
  0
ENDTAB
  0
TABLE
  2
BLOCK_RECORD
  5
1
330
0
100
AcDbSymbolTable
 70
     1
  0
BLOCK_RECORD
  5
1F
330
1
100
AcDbSymbolTableRecord
100
AcDbBlockTableRecord
  2
*Model_Space
340
22
  0
BLOCK_RECORD
  5
1B
330
1
100
AcDbSymbolTableRecord
100
AcDbBlockTableRecord
  2
*Paper_Space
340
1E
  0
BLOCK_RECORD
  5
23
330
1
100
AcDbSymbolTableRecord
100
AcDbBlockTableRecord
  2
*Paper_Space0
340
26
  0
ENDTAB
  0
ENDSEC
  0
SECTION
  2
BLOCKS
  0
BLOCK
  5
20
330
1F
100
AcDbEntity
  8
0
100
AcDbBlockBegin
  2
*Model_Space
 70
     0
 10
0.0
 20
0.0
 30
0.0
  3
*Model_Space
  1

  0
ENDBLK
  5
21
330
1F
100
AcDbEntity
  8
0
100
AcDbBlockEnd
  0
BLOCK
  5
1C
330
1B
100
AcDbEntity
 67
     1
  8
0
100
AcDbBlockBegin
  2
*Paper_Space
 70
     0
 10
0.0
 20
0.0
 30
0.0
  3
*Paper_Space
  1

  0
ENDBLK
  5
1D
330
1B
100
AcDbEntity
 67
     1
  8
0
100
AcDbBlockEnd
  0
BLOCK
  5
24
330
23
100
AcDbEntity
  8
0
100
AcDbBlockBegin
  2
*Paper_Space0
 70
     0
 10
0.0
 20
0.0
 30
0.0
  3
*Paper_Space0
  1

  0
ENDBLK
  5
25
330
23
100
AcDbEntity
  8
0
100
AcDbBlockEnd
  0
ENDSEC
  0
SECTION
  2
ENTITIES
  0
SPLINE
  5
41
330
1F
100
AcDbEntity
  8
Standard layer
 62
   250
100
AcDbSpline
210
0.0
220
0.0
230
1.0
 70
    11
 71
     3
 72
    36
 73
    32
 74
     0
 42
0.0000000001
 43
0.0000000001
 40
0.0
 40
0.0
 40
0.0
 40
0.0
 40
0.1111111111111111
 40
0.1111111111111111
 40
0.1111111111111111
 40
0.1111111111111111
 40
0.2222222222222222
 40
0.2222222222222222
 40
0.2222222222222222
 40
0.2222222222222222
 40
0.3333333333333333
 40
0.3333333333333333
 40
0.3333333333333333
 40
0.3333333333333333
 40
0.4444444444444444
 40
0.4444444444444444
 40
0.4444444444444444
 40
0.4444444444444444
 40
0.5555555555555556
 40
0.5555555555555556
 40
0.5555555555555556
 40
0.5555555555555556
 40
0.6666666666666666
 40
0.6666666666666666
 40
0.6666666666666666
 40
0.6666666666666666
 40
0.7777777777777778
 40
0.7777777777777778
 40
0.7777777777777778
 40
0.7777777777777778
 40
1.0
 40
1.0
 40
1.0
 40
1.0
 10
2.2221
 20
-19.1246
 30
0.0
 10
2.2221
 20
-19.1246
 30
0.0
 10
2.2221
 20
-19.4079
 30
0.0
 10
2.2221
 20
-19.4079
 30
0.0
 10
2.2221
 20
-19.4079
 30
0.0
 10
2.2221
 20
-19.4079
 30
0.0
 10
3.4561
 20
-19.4079
 30
0.0
 10
3.4561
 20
-19.4079
 30
0.0
 10
3.4561
 20
-19.4079
 30
0.0
 10
3.4561
 20
-19.4079
 30
0.0
 10
3.4561
 20
-19.4156
 30
0.0
 10
3.4561
 20
-19.4156
 30
0.0
 10
3.4561
 20
-19.4156
 30
0.0
 10
3.4561
 20
-19.4156
 30
0.0
 10
2.3618
 20
-21.6469
 30
0.0
 10
2.3618
 20
-21.6469
 30
0.0
 10
2.3618
 20
-21.6469
 30
0.0
 10
2.3618
 20
-21.6469
 30
0.0
 10
2.7149
 20
-21.6469
 30
0.0
 10
2.7149
 20
-21.6469
 30
0.0
 10
2.7149
 20
-21.6469
 30
0.0
 10
2.7149
 20
-21.6469
 30
0.0
 10
3.8131
 20
-19.3496
 30
0.0
 10
3.8131
 20
-19.3496
 30
0.0
 10
3.8131
 20
-19.3496
 30
0.0
 10
3.8131
 20
-19.3496
 30
0.0
 10
3.8131
 20
-19.1246
 30
0.0
 10
3.8131
 20
-19.1246
 30
0.0
 10
3.8131
 20
-19.1246
 30
0.0
 10
3.8131
 20
-19.1246
 30
0.0
 10
2.2221
 20
-19.1246
 30
0.0
 10
2.2221
 20
-19.1246
 30
0.0
  0
SPLINE
  5
42
330
1F
100
AcDbEntity
  8
Standard layer
 62
   250
100
AcDbSpline
210
0.0
220
0.0
230
1.0
 70
    11
 71
     3
 72
    56
 73
    52
 74
     0
 42
0.0000000001
 43
0.0000000001
 40
0.0
 40
0.0
 40
0.0
 40
0.0
 40
0.0714285714285714
 40
0.0714285714285714
 40
0.0714285714285714
 40
0.0714285714285714
 40
0.1428571428571428
 40
0.1428571428571428
 40
0.1428571428571428
 40
0.1428571428571428
 40
0.2142857142857143
 40
0.2142857142857143
 40
0.2142857142857143
 40
0.2142857142857143
 40
0.2857142857142857
 40
0.2857142857142857
 40
0.2857142857142857
 40
0.2857142857142857
 40
0.3571428571428572
 40
0.3571428571428572
 40
0.3571428571428572
 40
0.3571428571428572
 40
0.4285714285714285
 40
0.4285714285714285
 40
0.4285714285714285
 40
0.4285714285714285
 40
0.5
 40
0.5
 40
0.5
 40
0.5
 40
0.5714285714285714
 40
0.5714285714285714
 40
0.5714285714285714
 40
0.5714285714285714
 40
0.6428571428571429
 40
0.6428571428571429
 40
0.6428571428571429
 40
0.6428571428571429
 40
0.7142857142857143
 40
0.7142857142857143
 40
0.7142857142857143
 40
0.7142857142857143
 40
0.7857142857142857
 40
0.7857142857142857
 40
0.7857142857142857
 40
0.7857142857142857
 40
0.8571428571428571
 40
0.8571428571428571
 40
0.8571428571428571
 40
0.8571428571428571
 40
1.0
 40
1.0
 40
1.0
 40
1.0
 10
5.0122
 20
-19.0819
 30
0.0
 10
4.8835
 20
-19.0819
 30
0.0
 10
4.7658
 20
-19.1103
 30
0.0
 10
4.6584
 20
-19.1673
 30
0.0
 10
4.6584
 20
-19.1673
 30
0.0
 10
4.551
 20
-19.2242
 30
0.0
 10
4.4586
 20
-19.3076
 30
0.0
 10
4.3797
 20
-19.4188
 30
0.0
 10
4.3797
 20
-19.4188
 30
0.0
 10
4.3007
 20
-19.5301
 30
0.0
 10
4.24
 20
-19.6672
 30
0.0
 10
4.1966
 20
-19.8302
 30
0.0
 10
4.1966
 20
-19.8302
 30
0.0
 10
4.1539
 20
-19.9932
 30
0.0
 10
4.1319
 20
-20.1807
 30
0.0
 10
4.1313
 20
-20.3935
 30
0.0
 10
4.1313
 20
-20.3935
 30
0.0
 10
4.1352
 20
-20.6722
 30
0.0
 10
4.172
 20
-20.9077
 30
0.0
 10
4.2425
 20
-21.1004
 30
0.0
 10
4.2425
 20
-21.1004
 30
0.0
 10
4.313
 20
-21.2931
 30
0.0
 10
4.4107
 20
-21.4393
 30
0.0
 10
4.5349
 20
-21.5389
 30
0.0
 10
4.5349
 20
-21.5389
 30
0.0
 10
4.659
 20
-21.6385
 30
0.0
 10
4.8039
 20
-21.6889
 30
0.0
 10
4.9695
 20
-21.6896
 30
0.0
 10
4.9695
 20
-21.6896
 30
0.0
 10
5.1551
 20
-21.6889
 30
0.0
 10
5.3129
 20
-21.6372
 30
0.0
 10
5.4436
 20
-21.535
 30
0.0
 10
5.4436
 20
-21.535
 30
0.0
 10
5.5742
 20
-21.4328
 30
0.0
 10
5.6738
 20
-21.2828
 30
0.0
 10
5.7424
 20
-21.0849
 30
0.0
 10
5.7424
 20
-21.0849
 30
0.0
 10
5.8116
 20
-20.887
 30
0.0
 10
5.8458
 20
-20.6451
 30
0.0
 10
5.8465
 20
-20.3586
 30
0.0
 10
5.8465
 20
-20.3586
 30
0.0
 10
5.8458
 20
-20.0902
 30
0.0
 10
5.8128
 20
-19.8606
 30
0.0
 10
5.7475
 20
-19.6704
 30
0.0
 10
5.7475
 20
-19.6704
 30
0.0
 10
5.6822
 20
-19.4803
 30
0.0
 10
5.5871
 20
-19.3348
 30
0.0
 10
5.463
 20
-19.2345
 30
0.0
 10
5.463
 20
-19.2345
 30
0.0
 10
5.3388
 20
-19.1336
 30
0.0
 10
5.1887
 20
-19.0825
 30
0.0
 10
5.0122
 20
-19.0819
 30
0.0
  0
SPLINE
  5
43
330
1F
100
AcDbEntity
  8
Standard layer
 62
   250
100
AcDbSpline
210
0.0
220
0.0
230
1.0
 70
    11
 71
     3
 72
    56
 73
    52
 74
     0
 42
0.0000000001
 43
0.0000000001
 40
0.0
 40
0.0
 40
0.0
 40
0.0
 40
0.0714285714285714
 40
0.0714285714285714
 40
0.0714285714285714
 40
0.0714285714285714
 40
0.1428571428571428
 40
0.1428571428571428
 40
0.1428571428571428
 40
0.1428571428571428
 40
0.2142857142857143
 40
0.2142857142857143
 40
0.2142857142857143
 40
0.2142857142857143
 40
0.2857142857142857
 40
0.2857142857142857
 40
0.2857142857142857
 40
0.2857142857142857
 40
0.3571428571428572
 40
0.3571428571428572
 40
0.3571428571428572
 40
0.3571428571428572
 40
0.4285714285714285
 40
0.4285714285714285
 40
0.4285714285714285
 40
0.4285714285714285
 40
0.5
 40
0.5
 40
0.5
 40
0.5
 40
0.5714285714285714
 40
0.5714285714285714
 40
0.5714285714285714
 40
0.5714285714285714
 40
0.6428571428571429
 40
0.6428571428571429
 40
0.6428571428571429
 40
0.6428571428571429
 40
0.7142857142857143
 40
0.7142857142857143
 40
0.7142857142857143
 40
0.7142857142857143
 40
0.7857142857142857
 40
0.7857142857142857
 40
0.7857142857142857
 40
0.7857142857142857
 40
0.8571428571428571
 40
0.8571428571428571
 40
0.8571428571428571
 40
0.8571428571428571
 40
1.0
 40
1.0
 40
1.0
 40
1.0
 10
4.9889
 20
-19.3458
 30
0.0
 10
5.0781
 20
-19.3464
 30
0.0
 10
5.1551
 20
-19.3703
 30
0.0
 10
5.2198
 20
-19.4188
 30
0.0
 10
5.2198
 20
-19.4188
 30
0.0
 10
5.2845
 20
-19.4674
 30
0.0
 10
5.3375
 20
-19.5366
 30
0.0
 10
5.3789
 20
-19.6271
 30
0.0
 10
5.3789
 20
-19.6271
 30
0.0
 10
5.4203
 20
-19.717
 30
0.0
 10
5.4513
 20
-19.8257
 30
0.0
 10
5.4714
 20
-19.9511
 30
0.0
 10
5.4714
 20
-19.9511
 30
0.0
 10
5.4914
 20
-20.0772
 30
0.0
 10
5.5011
 20
-20.2182
 30
0.0
 10
5.5011
 20
-20.3741
 30
0.0
 10
5.5011
 20
-20.3741
 30
0.0
 10
5.5011
 20
-20.5901
 30
0.0
 10
5.4824
 20
-20.7764
 30
0.0
 10
5.4448
 20
-20.9329
 30
0.0
 10
5.4448
 20
-20.9329
 30
0.0
 10
5.408
 20
-21.09
 30
0.0
 10
5.3511
 20
-21.211
 30
0.0
 10
5.2754
 20
-21.2964
 30
0.0
 10
5.2754
 20
-21.2964
 30
0.0
 10
5.1997
 20
-21.3817
 30
0.0
 10
5.104
 20
-21.4244
 30
0.0
 10
4.9889
 20
-21.4257
 30
0.0
 10
4.9889
 20
-21.4257
 30
0.0
 10
4.8848
 20
-21.4251
 30
0.0
 10
4.7949
 20
-21.385
 30
0.0
 10
4.7179
 20
-21.3048
 30
0.0
 10
4.7179
 20
-21.3048
 30
0.0
 10
4.6416
 20
-21.2246
 30
0.0
 10
4.5827
 20
-21.1082
 30
0.0
 10
4.5407
 20
-20.9555
 30
0.0
 10
4.5407
 20
-20.9555
 30
0.0
 10
4.4987
 20
-20.8022
 30
0.0
 10
4.4773
 20
-20.6166
 30
0.0
 10
4.4767
 20
-20.3974
 30
0.0
 10
4.4767
 20
-20.3974
 30
0.0
 10
4.4773
 20
-20.1678
 30
0.0
 10
4.4999
 20
-19.9757
 30
0.0
 10
4.5439
 20
-19.8192
 30
0.0
 10
4.5439
 20
-19.8192
 30
0.0
 10
4.5879
 20
-19.6633
 30
0.0
 10
4.6481
 20
-19.5456
 30
0.0
 10
4.725
 20
-19.4654
 30
0.0
 10
4.725
 20
-19.4654
 30
0.0
 10
4.802
 20
-19.3859
 30
0.0
 10
4.8899
 20
-19.3458
 30
0.0
 10
4.9889
 20
-19.3458
 30
0.0
  0
SPLINE
  5
44
330
1F
100
AcDbEntity
  8
Standard layer
 62
   250
100
AcDbSpline
210
0.0
220
0.0
230
1.0
 70
    11
 71
     3
 72
   124
 73
   120
 74
     0
 42
0.0000000001
 43
0.0000000001
 40
0.0
 40
0.0
 40
0.0
 40
0.0
 40
0.032258064516129
 40
0.032258064516129
 40
0.032258064516129
 40
0.032258064516129
 40
0.0645161290322581
 40
0.0645161290322581
 40
0.0645161290322581
 40
0.0645161290322581
 40
0.0967741935483871
 40
0.0967741935483871
 40
0.0967741935483871
 40
0.0967741935483871
 40
0.1290322580645161
 40
0.1290322580645161
 40
0.1290322580645161
 40
0.1290322580645161
 40
0.1612903225806452
 40
0.1612903225806452
 40
0.1612903225806452
 40
0.1612903225806452
 40
0.1935483870967742
 40
0.1935483870967742
 40
0.1935483870967742
 40
0.1935483870967742
 40
0.2258064516129032
 40
0.2258064516129032
 40
0.2258064516129032
 40
0.2258064516129032
 40
0.2580645161290323
 40
0.2580645161290323
 40
0.2580645161290323
 40
0.2580645161290323
 40
0.2903225806451613
 40
0.2903225806451613
 40
0.2903225806451613
 40
0.2903225806451613
 40
0.3225806451612903
 40
0.3225806451612903
 40
0.3225806451612903
 40
0.3225806451612903
 40
0.3548387096774194
 40
0.3548387096774194
 40
0.3548387096774194
 40
0.3548387096774194
 40
0.3870967741935484
 40
0.3870967741935484
 40
0.3870967741935484
 40
0.3870967741935484
 40
0.4193548387096774
 40
0.4193548387096774
 40
0.4193548387096774
 40
0.4193548387096774
 40
0.4516129032258064
 40
0.4516129032258064
 40
0.4516129032258064
 40
0.4516129032258064
 40
0.4838709677419355
 40
0.4838709677419355
 40
0.4838709677419355
 40
0.4838709677419355
 40
0.5161290322580645
 40
0.5161290322580645
 40
0.5161290322580645
 40
0.5161290322580645
 40
0.5483870967741935
 40
0.5483870967741935
 40
0.5483870967741935
 40
0.5483870967741935
 40
0.5806451612903226
 40
0.5806451612903226
 40
0.5806451612903226
 40
0.5806451612903226
 40
0.6129032258064516
 40
0.6129032258064516
 40
0.6129032258064516
 40
0.6129032258064516
 40
0.6451612903225806
 40
0.6451612903225806
 40
0.6451612903225806
 40
0.6451612903225806
 40
0.6774193548387096
 40
0.6774193548387096
 40
0.6774193548387096
 40
0.6774193548387096
 40
0.7096774193548387
 40
0.7096774193548387
 40
0.7096774193548387
 40
0.7096774193548387
 40
0.7419354838709677
 40
0.7419354838709677
 40
0.7419354838709677
 40
0.7419354838709677
 40
0.7741935483870968
 40
0.7741935483870968
 40
0.7741935483870968
 40
0.7741935483870968
 40
0.8064516129032258
 40
0.8064516129032258
 40
0.8064516129032258
 40
0.8064516129032258
 40
0.8387096774193549
 40
0.8387096774193549
 40
0.8387096774193549
 40
0.8387096774193549
 40
0.8709677419354839
 40
0.8709677419354839
 40
0.8709677419354839
 40
0.8709677419354839
 40
0.9032258064516129
 40
0.9032258064516129
 40
0.9032258064516129
 40
0.9032258064516129
 40
0.9354838709677419
 40
0.9354838709677419
 40
0.9354838709677419
 40
0.9354838709677419
 40
1.0
 40
1.0
 40
1.0
 40
1.0
 10
30.3858
 20
14.3482
 30
0.0
 10
30.3858
 20
14.3482
 30
0.0
 10
30.1993
 20
14.5615
 30
0.0
 10
30.1993
 20
14.5615
 30
0.0
 10
30.1993
 20
14.5615
 30
0.0
 10
30.1993
 20
14.5615
 30
0.0
 10
29.3492
 20
13.8183
 30
0.0
 10
29.3492
 20
13.8183
 30
0.0
 10
29.3492
 20
13.8183
 30
0.0
 10
29.3492
 20
13.8183
 30
0.0
 10
29.3441
 20
13.8241
 30
0.0
 10
29.3441
 20
13.8241
 30
0.0
 10
29.3441
 20
13.8241
 30
0.0
 10
29.3441
 20
13.8241
 30
0.0
 10
29.3705
 20
14.0946
 30
0.0
 10
29.3705
 20
14.0946
 30
0.0
 10
29.3705
 20
14.0946
 30
0.0
 10
29.3869
 20
14.2782
 30
0.0
 10
29.3979
 20
14.4485
 30
0.0
 10
29.4033
 20
14.6044
 30
0.0
 10
29.4033
 20
14.6044
 30
0.0
 10
29.4088
 20
14.7604
 30
0.0
 10
29.4042
 20
14.9042
 30
0.0
 10
29.3905
 20
15.0347
 30
0.0
 10
29.3905
 20
15.0347
 30
0.0
 10
29.3773
 20
15.1658
 30
0.0
 10
29.3496
 20
15.285
 30
0.0
 10
29.3088
 20
15.3936
 30
0.0
 10
29.3088
 20
15.3936
 30
0.0
 10
29.2679
 20
15.5013
 30
0.0
 10
29.2094
 20
15.5988
 30
0.0
 10
29.1336
 20
15.6863
 30
0.0
 10
29.1336
 20
15.6863
 30
0.0
 10
29.0736
 20
15.755
 30
0.0
 10
29.0042
 20
15.8128
 30
0.0
 10
28.9248
 20
15.8586
 30
0.0
 10
28.9248
 20
15.8586
 30
0.0
 10
28.8453
 20
15.9042
 30
0.0
 10
28.7587
 20
15.9324
 30
0.0
 10
28.666
 20
15.9443
 30
0.0
 10
28.666
 20
15.9443
 30
0.0
 10
28.5729
 20
15.9565
 30
0.0
 10
28.4759
 20
15.9455
 30
0.0
 10
28.3751
 20
15.9124
 30
0.0
 10
28.3751
 20
15.9124
 30
0.0
 10
28.274
 20
15.8798
 30
0.0
 10
28.1722
 20
15.8192
 30
0.0
 10
28.0695
 20
15.7303
 30
0.0
 10
28.0695
 20
15.7303
 30
0.0
 10
27.9979
 20
15.6669
 30
0.0
 10
27.9365
 20
15.5986
 30
0.0
 10
27.8861
 20
15.5244
 30
0.0
 10
27.8861
 20
15.5244
 30
0.0
 10
27.8358
 20
15.4504
 30
0.0
 10
27.7954
 20
15.3748
 30
0.0
 10
27.7655
 20
15.297
 30
0.0
 10
27.7655
 20
15.297
 30
0.0
 10
27.7356
 20
15.2202
 30
0.0
 10
27.7149
 20
15.1446
 30
0.0
 10
27.7034
 20
15.0702
 30
0.0
 10
27.7034
 20
15.0702
 30
0.0
 10
27.7034
 20
15.0702
 30
0.0
 10
27.9436
 20
14.9605
 30
0.0
 10
27.9436
 20
14.9605
 30
0.0
 10
27.9436
 20
14.9605
 30
0.0
 10
27.9511
 20
15.0109
 30
0.0
 10
27.9644
 20
15.0664
 30
0.0
 10
27.984
 20
15.1264
 30
0.0
 10
27.984
 20
15.1264
 30
0.0
 10
28.0033
 20
15.1871
 30
0.0
 10
28.0311
 20
15.2466
 30
0.0
 10
28.0668
 20
15.307
 30
0.0
 10
28.0668
 20
15.307
 30
0.0
 10
28.1029
 20
15.3669
 30
0.0
 10
28.1492
 20
15.4229
 30
0.0
 10
28.2064
 20
15.4737
 30
0.0
 10
28.2064
 20
15.4737
 30
0.0
 10
28.2773
 20
15.5349
 30
0.0
 10
28.3457
 20
15.5766
 30
0.0
 10
28.4114
 20
15.5988
 30
0.0
 10
28.4114
 20
15.5988
 30
0.0
 10
28.4769
 20
15.62
 30
0.0
 10
28.5392
 20
15.6263
 30
0.0
 10
28.5982
 20
15.6169
 30
0.0
 10
28.5982
 20
15.6169
 30
0.0
 10
28.6576
 20
15.607
 30
0.0
 10
28.713
 20
15.5858
 30
0.0
 10
28.7644
 20
15.5526
 30
0.0
 10
28.7644
 20
15.5526
 30
0.0
 10
28.8158
 20
15.5193
 30
0.0
 10
28.8625
 20
15.4786
 30
0.0
 10
28.9047
 20
15.4295
 30
0.0
 10
28.9047
 20
15.4295
 30
0.0
 10
28.9668
 20
15.3584
 30
0.0
 10
29.0139
 20
15.276
 30
0.0
 10
29.0466
 20
15.1816
 30
0.0
 10
29.0466
 20
15.1816
 30
0.0
 10
29.0797
 20
15.0868
 30
0.0
 10
29.1007
 20
14.9763
 30
0.0
 10
29.1099
 20
14.8487
 30
0.0
 10
29.1099
 20
14.8487
 30
0.0
 10
29.1192
 20
14.7211
 30
0.0
 10
29.1193
 20
14.5727
 30
0.0
 10
29.1102
 20
14.4032
 30
0.0
 10
29.1102
 20
14.4032
 30
0.0
 10
29.1016
 20
14.2342
 30
0.0
 10
29.0867
 20
14.039
 30
0.0
 10
29.0659
 20
13.8181
 30
0.0
 10
29.0659
 20
13.8181
 30
0.0
 10
29.0659
 20
13.8181
 30
0.0
 10
29.0354
 20
13.4461
 30
0.0
 10
29.0354
 20
13.4461
 30
0.0
 10
29.0354
 20
13.4461
 30
0.0
 10
29.0354
 20
13.4461
 30
0.0
 10
29.1733
 20
13.2883
 30
0.0
 10
29.1733
 20
13.2883
 30
0.0
 10
29.1733
 20
13.2883
 30
0.0
 10
29.1733
 20
13.2883
 30
0.0
 10
30.3858
 20
14.3482
 30
0.0
 10
30.3858
 20
14.3482
 30
0.0
  0
SPLINE
  5
45
330
1F
100
AcDbEntity
  8
Standard layer
 62
   250
100
AcDbSpline
210
0.0
220
0.0
230
1.0
 70
    11
 71
     3
 72
    92
 73
    88
 74
     0
 42
0.0000000001
 43
0.0000000001
 40
0.0
 40
0.0
 40
0.0
 40
0.0
 40
0.0434782608695652
 40
0.0434782608695652
 40
0.0434782608695652
 40
0.0434782608695652
 40
0.0869565217391304
 40
0.0869565217391304
 40
0.0869565217391304
 40
0.0869565217391304
 40
0.1304347826086956
 40
0.1304347826086956
 40
0.1304347826086956
 40
0.1304347826086956
 40
0.1739130434782609
 40
0.1739130434782609
 40
0.1739130434782609
 40
0.1739130434782609
 40
0.2173913043478261
 40
0.2173913043478261
 40
0.2173913043478261
 40
0.2173913043478261
 40
0.2608695652173913
 40
0.2608695652173913
 40
0.2608695652173913
 40
0.2608695652173913
 40
0.3043478260869565
 40
0.3043478260869565
 40
0.3043478260869565
 40
0.3043478260869565
 40
0.3478260869565217
 40
0.3478260869565217
 40
0.3478260869565217
 40
0.3478260869565217
 40
0.391304347826087
 40
0.391304347826087
 40
0.391304347826087
 40
0.391304347826087
 40
0.4347826086956522
 40
0.4347826086956522
 40
0.4347826086956522
 40
0.4347826086956522
 40
0.4782608695652174
 40
0.4782608695652174
 40
0.4782608695652174
 40
0.4782608695652174
 40
0.5217391304347826
 40
0.5217391304347826
 40
0.5217391304347826
 40
0.5217391304347826
 40
0.5652173913043478
 40
0.5652173913043478
 40
0.5652173913043478
 40
0.5652173913043478
 40
0.6086956521739131
 40
0.6086956521739131
 40
0.6086956521739131
 40
0.6086956521739131
 40
0.6521739130434783
 40
0.6521739130434783
 40
0.6521739130434783
 40
0.6521739130434783
 40
0.6956521739130435
 40
0.6956521739130435
 40
0.6956521739130435
 40
0.6956521739130435
 40
0.7391304347826086
 40
0.7391304347826086
 40
0.7391304347826086
 40
0.7391304347826086
 40
0.782608695652174
 40
0.782608695652174
 40
0.782608695652174
 40
0.782608695652174
 40
0.8260869565217391
 40
0.8260869565217391
 40
0.8260869565217391
 40
0.8260869565217391
 40
0.8695652173913043
 40
0.8695652173913043
 40
0.8695652173913043
 40
0.8695652173913043
 40
0.9130434782608695
 40
0.9130434782608695
 40
0.9130434782608695
 40
0.9130434782608695
 40
1.0
 40
1.0
 40
1.0
 40
1.0
 10
29.9707
 20
16.48
 30
0.0
 10
29.9707
 20
16.48
 30
0.0
 10
31.0552
 20
16.2064
 30
0.0
 10
31.0552
 20
16.2064
 30
0.0
 10
31.0552
 20
16.2064
 30
0.0
 10
31.0552
 20
16.2064
 30
0.0
 10
31.1834
 20
15.0454
 30
0.0
 10
31.1834
 20
15.0454
 30
0.0
 10
31.1834
 20
15.0454
 30
0.0
 10
31.1834
 20
15.0454
 30
0.0
 10
31.4669
 20
15.2932
 30
0.0
 10
31.4669
 20
15.2932
 30
0.0
 10
31.4669
 20
15.2932
 30
0.0
 10
31.4669
 20
15.2932
 30
0.0
 10
31.393
 20
15.7904
 30
0.0
 10
31.393
 20
15.7904
 30
0.0
 10
31.393
 20
15.7904
 30
0.0
 10
31.3842
 20
15.8566
 30
0.0
 10
31.3742
 20
15.92
 30
0.0
 10
31.3636
 20
15.9813
 30
0.0
 10
31.3636
 20
15.9813
 30
0.0
 10
31.3531
 20
16.0424
 30
0.0
 10
31.3407
 20
16.1037
 30
0.0
 10
31.3275
 20
16.166
 30
0.0
 10
31.3275
 20
16.166
 30
0.0
 10
31.3275
 20
16.166
 30
0.0
 10
31.3334
 20
16.1712
 30
0.0
 10
31.3334
 20
16.1712
 30
0.0
 10
31.3334
 20
16.1712
 30
0.0
 10
31.3951
 20
16.1505
 30
0.0
 10
31.4553
 20
16.1309
 30
0.0
 10
31.5155
 20
16.1122
 30
0.0
 10
31.5155
 20
16.1122
 30
0.0
 10
31.5751
 20
16.0931
 30
0.0
 10
31.6367
 20
16.0756
 30
0.0
 10
31.6997
 20
16.0585
 30
0.0
 10
31.6997
 20
16.0585
 30
0.0
 10
31.6997
 20
16.0585
 30
0.0
 10
32.1885
 20
15.9239
 30
0.0
 10
32.1885
 20
15.9239
 30
0.0
 10
32.1885
 20
15.9239
 30
0.0
 10
32.1885
 20
15.9239
 30
0.0
 10
32.4777
 20
16.1768
 30
0.0
 10
32.4777
 20
16.1768
 30
0.0
 10
32.4777
 20
16.1768
 30
0.0
 10
32.4777
 20
16.1768
 30
0.0
 10
31.3455
 20
16.4756
 30
0.0
 10
31.3455
 20
16.4756
 30
0.0
 10
31.3455
 20
16.4756
 30
0.0
 10
31.3455
 20
16.4756
 30
0.0
 10
31.23
 20
17.5807
 30
0.0
 10
31.23
 20
17.5807
 30
0.0
 10
31.23
 20
17.5807
 30
0.0
 10
31.23
 20
17.5807
 30
0.0
 10
30.9495
 20
17.3356
 30
0.0
 10
30.9495
 20
17.3356
 30
0.0
 10
30.9495
 20
17.3356
 30
0.0
 10
30.9495
 20
17.3356
 30
0.0
 10
31.0168
 20
16.8635
 30
0.0
 10
31.0168
 20
16.8635
 30
0.0
 10
31.0168
 20
16.8635
 30
0.0
 10
31.0247
 20
16.8043
 30
0.0
 10
31.0336
 20
16.7449
 30
0.0
 10
31.043
 20
16.687
 30
0.0
 10
31.043
 20
16.687
 30
0.0
 10
31.0523
 20
16.6282
 30
0.0
 10
31.0635
 20
16.5684
 30
0.0
 10
31.0754
 20
16.5075
 30
0.0
 10
31.0754
 20
16.5075
 30
0.0
 10
31.0754
 20
16.5075
 30
0.0
 10
31.0696
 20
16.5024
 30
0.0
 10
31.0696
 20
16.5024
 30
0.0
 10
31.0696
 20
16.5024
 30
0.0
 10
31.0126
 20
16.5214
 30
0.0
 10
30.956
 20
16.5389
 30
0.0
 10
30.9003
 20
16.5555
 30
0.0
 10
30.9003
 20
16.5555
 30
0.0
 10
30.8446
 20
16.572
 30
0.0
 10
30.7855
 20
16.5875
 30
0.0
 10
30.7242
 20
16.6026
 30
0.0
 10
30.7242
 20
16.6026
 30
0.0
 10
30.7242
 20
16.6026
 30
0.0
 10
30.2571
 20
16.7303
 30
0.0
 10
30.2571
 20
16.7303
 30
0.0
 10
30.2571
 20
16.7303
 30
0.0
 10
30.2571
 20
16.7303
 30
0.0
 10
29.9707
 20
16.48
 30
0.0
 10
29.9707
 20
16.48
 30
0.0
  0
SPLINE
  5
46
330
1F
100
AcDbEntity
  8
Standard layer
 62
   250
100
AcDbSpline
210
0.0
220
0.0
230
1.0
 70
    11
 71
     3
 72
   104
 73
   100
 74
     0
 42
0.0000000001
 43
0.0000000001
 40
0.0
 40
0.0
 40
0.0
 40
0.0
 40
0.0384615384615385
 40
0.0384615384615385
 40
0.0384615384615385
 40
0.0384615384615385
 40
0.0769230769230769
 40
0.0769230769230769
 40
0.0769230769230769
 40
0.0769230769230769
 40
0.1153846153846154
 40
0.1153846153846154
 40
0.1153846153846154
 40
0.1153846153846154
 40
0.1538461538461539
 40
0.1538461538461539
 40
0.1538461538461539
 40
0.1538461538461539
 40
0.1923076923076923
 40
0.1923076923076923
 40
0.1923076923076923
 40
0.1923076923076923
 40
0.2307692307692308
 40
0.2307692307692308
 40
0.2307692307692308
 40
0.2307692307692308
 40
0.2692307692307692
 40
0.2692307692307692
 40
0.2692307692307692
 40
0.2692307692307692
 40
0.3076923076923077
 40
0.3076923076923077
 40
0.3076923076923077
 40
0.3076923076923077
 40
0.3461538461538461
 40
0.3461538461538461
 40
0.3461538461538461
 40
0.3461538461538461
 40
0.3846153846153846
 40
0.3846153846153846
 40
0.3846153846153846
 40
0.3846153846153846
 40
0.4230769230769231
 40
0.4230769230769231
 40
0.4230769230769231
 40
0.4230769230769231
 40
0.4615384615384616
 40
0.4615384615384616
 40
0.4615384615384616
 40
0.4615384615384616
 40
0.5
 40
0.5
 40
0.5
 40
0.5
 40
0.5384615384615384
 40
0.5384615384615384
 40
0.5384615384615384
 40
0.5384615384615384
 40
0.5769230769230769
 40
0.5769230769230769
 40
0.5769230769230769
 40
0.5769230769230769
 40
0.6153846153846154
 40
0.6153846153846154
 40
0.6153846153846154
 40
0.6153846153846154
 40
0.6538461538461539
 40
0.6538461538461539
 40
0.6538461538461539
 40
0.6538461538461539
 40
0.6923076923076923
 40
0.6923076923076923
 40
0.6923076923076923
 40
0.6923076923076923
 40
0.7307692307692307
 40
0.7307692307692307
 40
0.7307692307692307
 40
0.7307692307692307
 40
0.7692307692307693
 40
0.7692307692307693
 40
0.7692307692307693
 40
0.7692307692307693
 40
0.8076923076923077
 40
0.8076923076923077
 40
0.8076923076923077
 40
0.8076923076923077
 40
0.8461538461538461
 40
0.8461538461538461
 40
0.8461538461538461
 40
0.8461538461538461
 40
0.8846153846153846
 40
0.8846153846153846
 40
0.8846153846153846
 40
0.8846153846153846
 40
0.9230769230769231
 40
0.9230769230769231
 40
0.9230769230769231
 40
0.9230769230769231
 40
1.0
 40
1.0
 40
1.0
 40
1.0
 10
33.5693
 20
16.9093
 30
0.0
 10
33.5693
 20
16.9093
 30
0.0
 10
33.5337
 20
17.3215
 30
0.0
 10
33.5337
 20
17.3215
 30
0.0
 10
33.5337
 20
17.3215
 30
0.0
 10
33.649
 20
17.3321
 30
0.0
 10
33.7609
 20
17.3603
 30
0.0
 10
33.868
 20
17.4067
 30
0.0
 10
33.868
 20
17.4067
 30
0.0
 10
33.9757
 20
17.4535
 30
0.0
 10
34.0758
 20
17.517
 30
0.0
 10
34.1683
 20
17.5979
 30
0.0
 10
34.1683
 20
17.5979
 30
0.0
 10
34.2633
 20
17.6808
 30
0.0
 10
34.3429
 20
17.7754
 30
0.0
 10
34.4069
 20
17.8802
 30
0.0
 10
34.4069
 20
17.8802
 30
0.0
 10
34.4707
 20
17.985
 30
0.0
 10
34.5163
 20
18.0979
 30
0.0
 10
34.5428
 20
18.219
 30
0.0
 10
34.5428
 20
18.219
 30
0.0
 10
34.5701
 20
18.3399
 30
0.0
 10
34.5755
 20
18.4666
 30
0.0
 10
34.5596
 20
18.5988
 30
0.0
 10
34.5596
 20
18.5988
 30
0.0
 10
34.5433
 20
18.7305
 30
0.0
 10
34.5028
 20
18.8652
 30
0.0
 10
34.4378
 20
19.0034
 30
0.0
 10
34.4378
 20
19.0034
 30
0.0
 10
34.3728
 20
19.1407
 30
0.0
 10
34.2807
 20
19.2784
 30
0.0
 10
34.1612
 20
19.4161
 30
0.0
 10
34.1612
 20
19.4161
 30
0.0
 10
34.0765
 20
19.513
 30
0.0
 10
33.9863
 20
19.5966
 30
0.0
 10
33.8897
 20
19.6668
 30
0.0
 10
33.8897
 20
19.6668
 30
0.0
 10
33.7932
 20
19.7379
 30
0.0
 10
33.6929
 20
19.7946
 30
0.0
 10
33.5895
 20
19.8372
 30
0.0
 10
33.5895
 20
19.8372
 30
0.0
 10
33.4856
 20
19.8796
 30
0.0
 10
33.3805
 20
19.9063
 30
0.0
 10
33.2736
 20
19.9186
 30
0.0
 10
33.2736
 20
19.9186
 30
0.0
 10
33.2736
 20
19.9186
 30
0.0
 10
33.2352
 20
20.3282
 30
0.0
 10
33.2352
 20
20.3282
 30
0.0
 10
33.2352
 20
20.3282
 30
0.0
 10
33.2352
 20
20.3282
 30
0.0
 10
32.9884
 20
20.298
 30
0.0
 10
32.9884
 20
20.298
 30
0.0
 10
32.9884
 20
20.298
 30
0.0
 10
32.9884
 20
20.298
 30
0.0
 10
33.0229
 20
19.9107
 30
0.0
 10
33.0229
 20
19.9107
 30
0.0
 10
33.0229
 20
19.9107
 30
0.0
 10
32.9063
 20
19.9015
 30
0.0
 10
32.7953
 20
19.8741
 30
0.0
 10
32.6896
 20
19.828
 30
0.0
 10
32.6896
 20
19.828
 30
0.0
 10
32.5833
 20
19.7816
 30
0.0
 10
32.4852
 20
19.7189
 30
0.0
 10
32.3941
 20
19.6393
 30
0.0
 10
32.3941
 20
19.6393
 30
0.0
 10
32.2645
 20
19.5253
 30
0.0
 10
32.1661
 20
19.3962
 30
0.0
 10
32.0976
 20
19.2513
 30
0.0
 10
32.0976
 20
19.2513
 30
0.0
 10
32.0297
 20
19.107
 30
0.0
 10
31.9947
 20
18.9535
 30
0.0
 10
31.9916
 20
18.7918
 30
0.0
 10
31.9916
 20
18.7918
 30
0.0
 10
31.988
 20
18.6298
 30
0.0
 10
32.0192
 20
18.4664
 30
0.0
 10
32.0837
 20
18.3002
 30
0.0
 10
32.0837
 20
18.3002
 30
0.0
 10
32.1487
 20
18.1346
 30
0.0
 10
32.2483
 20
17.9734
 30
0.0
 10
32.3844
 20
17.8167
 30
0.0
 10
32.3844
 20
17.8167
 30
0.0
 10
32.4704
 20
17.7183
 30
0.0
 10
32.5633
 20
17.6337
 30
0.0
 10
32.6612
 20
17.5629
 30
0.0
 10
32.6612
 20
17.5629
 30
0.0
 10
32.7592
 20
17.4922
 30
0.0
 10
32.8607
 20
17.4359
 30
0.0
 10
32.9652
 20
17.3941
 30
0.0
 10
32.9652
 20
17.3941
 30
0.0
 10
33.0701
 20
17.3526
 30
0.0
 10
33.176
 20
17.3258
 30
0.0
 10
33.2829
 20
17.3136
 30
0.0
 10
33.2829
 20
17.3136
 30
0.0
 10
33.2829
 20
17.3136
 30
0.0
 10
33.324
 20
16.9011
 30
0.0
 10
33.324
 20
16.9011
 30
0.0
 10
33.324
 20
16.9011
 30
0.0
 10
33.324
 20
16.9011
 30
0.0
 10
33.5693
 20
16.9093
 30
0.0
 10
33.5693
 20
16.9093
 30
0.0
  0
SPLINE
  5
47
330
1F
100
AcDbEntity
  8
Standard layer
 62
   250
100
AcDbSpline
210
0.0
220
0.0
230
1.0
 70
    11
 71
     3
 72
    52
 73
    48
 74
     0
 42
0.0000000001
 43
0.0000000001
 40
0.0
 40
0.0
 40
0.0
 40
0.0
 40
0.0769230769230769
 40
0.0769230769230769
 40
0.0769230769230769
 40
0.0769230769230769
 40
0.1538461538461539
 40
0.1538461538461539
 40
0.1538461538461539
 40
0.1538461538461539
 40
0.2307692307692308
 40
0.2307692307692308
 40
0.2307692307692308
 40
0.2307692307692308
 40
0.3076923076923077
 40
0.3076923076923077
 40
0.3076923076923077
 40
0.3076923076923077
 40
0.3846153846153846
 40
0.3846153846153846
 40
0.3846153846153846
 40
0.3846153846153846
 40
0.4615384615384616
 40
0.4615384615384616
 40
0.4615384615384616
 40
0.4615384615384616
 40
0.5384615384615384
 40
0.5384615384615384
 40
0.5384615384615384
 40
0.5384615384615384
 40
0.6153846153846154
 40
0.6153846153846154
 40
0.6153846153846154
 40
0.6153846153846154
 40
0.6923076923076923
 40
0.6923076923076923
 40
0.6923076923076923
 40
0.6923076923076923
 40
0.7692307692307693
 40
0.7692307692307693
 40
0.7692307692307693
 40
0.7692307692307693
 40
0.8461538461538461
 40
0.8461538461538461
 40
0.8461538461538461
 40
0.8461538461538461
 40
1.0
 40
1.0
 40
1.0
 40
1.0
 10
33.243
 20
17.66
 30
0.0
 10
33.243
 20
17.66
 30
0.0
 10
33.2397
 20
17.6519
 30
0.0
 10
33.2397
 20
17.6519
 30
0.0
 10
33.2397
 20
17.6519
 30
0.0
 10
33.1666
 20
17.6766
 30
0.0
 10
33.0957
 20
17.7066
 30
0.0
 10
33.0275
 20
17.7414
 30
0.0
 10
33.0275
 20
17.7414
 30
0.0
 10
32.9588
 20
17.7768
 30
0.0
 10
32.8925
 20
17.8193
 30
0.0
 10
32.8271
 20
17.8703
 30
0.0
 10
32.8271
 20
17.8703
 30
0.0
 10
32.7622
 20
17.921
 30
0.0
 10
32.6977
 20
17.9831
 30
0.0
 10
32.6343
 20
18.0557
 30
0.0
 10
32.6343
 20
18.0557
 30
0.0
 10
32.561
 20
18.1395
 30
0.0
 10
32.4991
 20
18.2279
 30
0.0
 10
32.4468
 20
18.3221
 30
0.0
 10
32.4468
 20
18.3221
 30
0.0
 10
32.3954
 20
18.4164
 30
0.0
 10
32.3565
 20
18.5129
 30
0.0
 10
32.331
 20
18.611
 30
0.0
 10
32.331
 20
18.611
 30
0.0
 10
32.3056
 20
18.7098
 30
0.0
 10
32.2956
 20
18.8076
 30
0.0
 10
32.3021
 20
18.9044
 30
0.0
 10
32.3021
 20
18.9044
 30
0.0
 10
32.3082
 20
19.0016
 30
0.0
 10
32.3328
 20
19.0944
 30
0.0
 10
32.3754
 20
19.1832
 30
0.0
 10
32.3754
 20
19.1832
 30
0.0
 10
32.4181
 20
19.2729
 30
0.0
 10
32.4823
 20
19.3547
 30
0.0
 10
32.5671
 20
19.4298
 30
0.0
 10
32.5671
 20
19.4298
 30
0.0
 10
32.642
 20
19.4943
 30
0.0
 10
32.7208
 20
19.5418
 30
0.0
 10
32.8035
 20
19.5711
 30
0.0
 10
32.8035
 20
19.5711
 30
0.0
 10
32.8861
 20
19.6012
 30
0.0
 10
32.971
 20
19.6162
 30
0.0
 10
33.0581
 20
19.6167
 30
0.0
 10
33.0581
 20
19.6167
 30
0.0
 10
33.0581
 20
19.6167
 30
0.0
 10
33.243
 20
17.66
 30
0.0
 10
33.243
 20
17.66
 30
0.0
  0
SPLINE
  5
48
330
1F
100
AcDbEntity
  8
Standard layer
 62
   250
100
AcDbSpline
210
0.0
220
0.0
230
1.0
 70
    11
 71
     3
 72
    48
 73
    44
 74
     0
 42
0.0000000001
 43
0.0000000001
 40
0.0
 40
0.0
 40
0.0
 40
0.0
 40
0.0833333333333333
 40
0.0833333333333333
 40
0.0833333333333333
 40
0.0833333333333333
 40
0.1666666666666667
 40
0.1666666666666667
 40
0.1666666666666667
 40
0.1666666666666667
 40
0.25
 40
0.25
 40
0.25
 40
0.25
 40
0.3333333333333333
 40
0.3333333333333333
 40
0.3333333333333333
 40
0.3333333333333333
 40
0.4166666666666667
 40
0.4166666666666667
 40
0.4166666666666667
 40
0.4166666666666667
 40
0.5
 40
0.5
 40
0.5
 40
0.5
 40
0.5833333333333334
 40
0.5833333333333334
 40
0.5833333333333334
 40
0.5833333333333334
 40
0.6666666666666666
 40
0.6666666666666666
 40
0.6666666666666666
 40
0.6666666666666666
 40
0.75
 40
0.75
 40
0.75
 40
0.75
 40
0.8333333333333334
 40
0.8333333333333334
 40
0.8333333333333334
 40
0.8333333333333334
 40
1.0
 40
1.0
 40
1.0
 40
1.0
 10
33.3133
 20
19.5666
 30
0.0
 10
33.3133
 20
19.5666
 30
0.0
 10
33.322
 20
19.5742
 30
0.0
 10
33.322
 20
19.5742
 30
0.0
 10
33.322
 20
19.5742
 30
0.0
 10
33.4467
 20
19.5338
 30
0.0
 10
33.5572
 20
19.4792
 30
0.0
 10
33.6538
 20
19.4108
 30
0.0
 10
33.6538
 20
19.4108
 30
0.0
 10
33.7501
 20
19.3429
 30
0.0
 10
33.8353
 20
19.2662
 30
0.0
 10
33.9088
 20
19.1801
 30
0.0
 10
33.9088
 20
19.1801
 30
0.0
 10
33.9863
 20
19.0915
 30
0.0
 10
34.0511
 20
18.9986
 30
0.0
 10
34.1042
 20
18.9016
 30
0.0
 10
34.1042
 20
18.9016
 30
0.0
 10
34.1573
 20
18.8045
 30
0.0
 10
34.196
 20
18.7061
 30
0.0
 10
34.2209
 20
18.6068
 30
0.0
 10
34.2209
 20
18.6068
 30
0.0
 10
34.2454
 20
18.507
 30
0.0
 10
34.2545
 20
18.4093
 30
0.0
 10
34.2471
 20
18.3135
 30
0.0
 10
34.2471
 20
18.3135
 30
0.0
 10
34.2397
 20
18.2169
 30
0.0
 10
34.2152
 20
18.125
 30
0.0
 10
34.1727
 20
18.0381
 30
0.0
 10
34.1727
 20
18.0381
 30
0.0
 10
34.1301
 20
17.9511
 30
0.0
 10
34.068
 20
17.8718
 30
0.0
 10
33.9867
 20
17.7998
 30
0.0
 10
33.9867
 20
17.7998
 30
0.0
 10
33.9073
 20
17.7304
 30
0.0
 10
33.827
 20
17.6817
 30
0.0
 10
33.7472
 20
17.6541
 30
0.0
 10
33.7472
 20
17.6541
 30
0.0
 10
33.6669
 20
17.626
 30
0.0
 10
33.5832
 20
17.6147
 30
0.0
 10
33.4959
 20
17.6182
 30
0.0
 10
33.4959
 20
17.6182
 30
0.0
 10
33.4959
 20
17.6182
 30
0.0
 10
33.3133
 20
19.5666
 30
0.0
 10
33.3133
 20
19.5666
 30
0.0
  0
SPLINE
  5
49
330
1F
100
AcDbEntity
  8
Standard layer
 62
   250
100
AcDbSpline
210
0.0
220
0.0
230
1.0
 70
    11
 71
     3
 72
   132
 73
   128
 74
     0
 42
0.0000000001
 43
0.0000000001
 40
0.0
 40
0.0
 40
0.0
 40
0.0
 40
0.0303030303030303
 40
0.0303030303030303
 40
0.0303030303030303
 40
0.0303030303030303
 40
0.0606060606060606
 40
0.0606060606060606
 40
0.0606060606060606
 40
0.0606060606060606
 40
0.0909090909090909
 40
0.0909090909090909
 40
0.0909090909090909
 40
0.0909090909090909
 40
0.1212121212121212
 40
0.1212121212121212
 40
0.1212121212121212
 40
0.1212121212121212
 40
0.1515151515151515
 40
0.1515151515151515
 40
0.1515151515151515
 40
0.1515151515151515
 40
0.1818181818181818
 40
0.1818181818181818
 40
0.1818181818181818
 40
0.1818181818181818
 40
0.2121212121212121
 40
0.2121212121212121
 40
0.2121212121212121
 40
0.2121212121212121
 40
0.2424242424242424
 40
0.2424242424242424
 40
0.2424242424242424
 40
0.2424242424242424
 40
0.2727272727272727
 40
0.2727272727272727
 40
0.2727272727272727
 40
0.2727272727272727
 40
0.303030303030303
 40
0.303030303030303
 40
0.303030303030303
 40
0.303030303030303
 40
0.3333333333333333
 40
0.3333333333333333
 40
0.3333333333333333
 40
0.3333333333333333
 40
0.3636363636363636
 40
0.3636363636363636
 40
0.3636363636363636
 40
0.3636363636363636
 40
0.3939393939393939
 40
0.3939393939393939
 40
0.3939393939393939
 40
0.3939393939393939
 40
0.4242424242424243
 40
0.4242424242424243
 40
0.4242424242424243
 40
0.4242424242424243
 40
0.4545454545454545
 40
0.4545454545454545
 40
0.4545454545454545
 40
0.4545454545454545
 40
0.4848484848484849
 40
0.4848484848484849
 40
0.4848484848484849
 40
0.4848484848484849
 40
0.5151515151515151
 40
0.5151515151515151
 40
0.5151515151515151
 40
0.5151515151515151
 40
0.5454545454545454
 40
0.5454545454545454
 40
0.5454545454545454
 40
0.5454545454545454
 40
0.5757575757575758
 40
0.5757575757575758
 40
0.5757575757575758
 40
0.5757575757575758
 40
0.6060606060606061
 40
0.6060606060606061
 40
0.6060606060606061
 40
0.6060606060606061
 40
0.6363636363636364
 40
0.6363636363636364
 40
0.6363636363636364
 40
0.6363636363636364
 40
0.6666666666666666
 40
0.6666666666666666
 40
0.6666666666666666
 40
0.6666666666666666
 40
0.696969696969697
 40
0.696969696969697
 40
0.696969696969697
 40
0.696969696969697
 40
0.7272727272727273
 40
0.7272727272727273
 40
0.7272727272727273
 40
0.7272727272727273
 40
0.7575757575757576
 40
0.7575757575757576
 40
0.7575757575757576
 40
0.7575757575757576
 40
0.7878787878787878
 40
0.7878787878787878
 40
0.7878787878787878
 40
0.7878787878787878
 40
0.8181818181818182
 40
0.8181818181818182
 40
0.8181818181818182
 40
0.8181818181818182
 40
0.8484848484848485
 40
0.8484848484848485
 40
0.8484848484848485
 40
0.8484848484848485
 40
0.8787878787878788
 40
0.8787878787878788
 40
0.8787878787878788
 40
0.8787878787878788
 40
0.9090909090909091
 40
0.9090909090909091
 40
0.9090909090909091
 40
0.9090909090909091
 40
0.9393939393939394
 40
0.9393939393939394
 40
0.9393939393939394
 40
0.9393939393939394
 40
1.0
 40
1.0
 40
1.0
 40
1.0
 10
34.7504
 20
21.5134
 30
0.0
 10
34.7504
 20
21.5134
 30
0.0
 10
33.8417
 20
20.7192
 30
0.0
 10
33.8417
 20
20.7192
 30
0.0
 10
33.8417
 20
20.7192
 30
0.0
 10
33.8417
 20
20.7192
 30
0.0
 10
34.5158
 20
19.7003
 30
0.0
 10
34.5158
 20
19.7003
 30
0.0
 10
34.5158
 20
19.7003
 30
0.0
 10
34.5466
 20
19.7359
 30
0.0
 10
34.5821
 20
19.7738
 30
0.0
 10
34.623
 20
19.8156
 30
0.0
 10
34.623
 20
19.8156
 30
0.0
 10
34.6634
 20
19.8568
 30
0.0
 10
34.7114
 20
19.9022
 30
0.0
 10
34.7664
 20
19.9503
 30
0.0
 10
34.7664
 20
19.9503
 30
0.0
 10
34.8924
 20
20.0596
 30
0.0
 10
35.0109
 20
20.1314
 30
0.0
 10
35.1215
 20
20.1662
 30
0.0
 10
35.1215
 20
20.1662
 30
0.0
 10
35.2329
 20
20.2008
 30
0.0
 10
35.3348
 20
20.2041
 30
0.0
 10
35.4278
 20
20.1754
 30
0.0
 10
35.4278
 20
20.1754
 30
0.0
 10
35.5212
 20
20.1462
 30
0.0
 10
35.6036
 20
20.0903
 30
0.0
 10
35.675
 20
20.0075
 30
0.0
 10
35.675
 20
20.0075
 30
0.0
 10
35.7312
 20
19.9442
 30
0.0
 10
35.7694
 20
19.877
 30
0.0
 10
35.7898
 20
19.8055
 30
0.0
 10
35.7898
 20
19.8055
 30
0.0
 10
35.8111
 20
19.7339
 30
0.0
 10
35.8159
 20
19.6625
 30
0.0
 10
35.806
 20
19.5903
 30
0.0
 10
35.806
 20
19.5903
 30
0.0
 10
35.7957
 20
19.5185
 30
0.0
 10
35.7719
 20
19.4496
 30
0.0
 10
35.7344
 20
19.3834
 30
0.0
 10
35.7344
 20
19.3834
 30
0.0
 10
35.6969
 20
19.3172
 30
0.0
 10
35.6485
 20
19.2576
 30
0.0
 10
35.5881
 20
19.2048
 30
0.0
 10
35.5881
 20
19.2048
 30
0.0
 10
35.5287
 20
19.1538
 30
0.0
 10
35.4685
 20
19.1106
 30
0.0
 10
35.4066
 20
19.0763
 30
0.0
 10
35.4066
 20
19.0763
 30
0.0
 10
35.3452
 20
19.0414
 30
0.0
 10
35.2869
 20
19.0138
 30
0.0
 10
35.2315
 20
18.9937
 30
0.0
 10
35.2315
 20
18.9937
 30
0.0
 10
35.1761
 20
18.9735
 30
0.0
 10
35.1279
 20
18.9598
 30
0.0
 10
35.0872
 20
18.9525
 30
0.0
 10
35.0872
 20
18.9525
 30
0.0
 10
35.0872
 20
18.9525
 30
0.0
 10
35.194
 20
18.7005
 30
0.0
 10
35.194
 20
18.7005
 30
0.0
 10
35.194
 20
18.7005
 30
0.0
 10
35.243
 20
18.7082
 30
0.0
 10
35.2987
 20
18.7242
 30
0.0
 10
35.3616
 20
18.7474
 30
0.0
 10
35.3616
 20
18.7474
 30
0.0
 10
35.4242
 20
18.7712
 30
0.0
 10
35.4901
 20
18.8039
 30
0.0
 10
35.5598
 20
18.8451
 30
0.0
 10
35.5598
 20
18.8451
 30
0.0
 10
35.63
 20
18.8867
 30
0.0
 10
35.6998
 20
18.9375
 30
0.0
 10
35.7694
 20
18.9974
 30
0.0
 10
35.7694
 20
18.9974
 30
0.0
 10
35.8727
 20
19.0886
 30
0.0
 10
35.9526
 20
19.1877
 30
0.0
 10
36.0108
 20
19.2951
 30
0.0
 10
36.0108
 20
19.2951
 30
0.0
 10
36.0689
 20
19.4026
 30
0.0
 10
36.1038
 20
19.5131
 30
0.0
 10
36.1155
 20
19.6264
 30
0.0
 10
36.1155
 20
19.6264
 30
0.0
 10
36.1278
 20
19.7402
 30
0.0
 10
36.1164
 20
19.8513
 30
0.0
 10
36.0825
 20
19.96
 30
0.0
 10
36.0825
 20
19.96
 30
0.0
 10
36.0481
 20
20.0691
 30
0.0
 10
35.9903
 20
20.1707
 30
0.0
 10
35.9095
 20
20.264
 30
0.0
 10
35.9095
 20
20.264
 30
0.0
 10
35.8401
 20
20.3425
 30
0.0
 10
35.7652
 20
20.4025
 30
0.0
 10
35.686
 20
20.444
 30
0.0
 10
35.686
 20
20.444
 30
0.0
 10
35.6068
 20
20.4856
 30
0.0
 10
35.5274
 20
20.5115
 30
0.0
 10
35.4465
 20
20.5216
 30
0.0
 10
35.4465
 20
20.5216
 30
0.0
 10
35.3655
 20
20.5315
 30
0.0
 10
35.2878
 20
20.528
 30
0.0
 10
35.2139
 20
20.5115
 30
0.0
 10
35.2139
 20
20.5115
 30
0.0
 10
35.1235
 20
20.4961
 30
0.0
 10
35.0366
 20
20.4665
 30
0.0
 10
34.953
 20
20.4218
 30
0.0
 10
34.953
 20
20.4218
 30
0.0
 10
34.8693
 20
20.377
 30
0.0
 10
34.79
 20
20.3222
 30
0.0
 10
34.7154
 20
20.2562
 30
0.0
 10
34.7154
 20
20.2562
 30
0.0
 10
34.6813
 20
20.2265
 30
0.0
 10
34.6526
 20
20.2004
 30
0.0
 10
34.63
 20
20.1781
 30
0.0
 10
34.63
 20
20.1781
 30
0.0
 10
34.6074
 20
20.1558
 30
0.0
 10
34.5871
 20
20.1337
 30
0.0
 10
34.5683
 20
20.1121
 30
0.0
 10
34.5683
 20
20.1121
 30
0.0
 10
34.5683
 20
20.1121
 30
0.0
 10
34.2148
 20
20.6639
 30
0.0
 10
34.2148
 20
20.6639
 30
0.0
 10
34.2148
 20
20.6639
 30
0.0
 10
34.2148
 20
20.6639
 30
0.0
 10
34.9394
 20
21.2973
 30
0.0
 10
34.9394
 20
21.2973
 30
0.0
 10
34.9394
 20
21.2973
 30
0.0
 10
34.9394
 20
21.2973
 30
0.0
 10
34.7504
 20
21.5134
 30
0.0
 10
34.7504
 20
21.5134
 30
0.0
  0
SPLINE
  5
4A
330
1F
100
AcDbEntity
  8
Standard layer
 62
   250
100
AcDbSpline
210
0.0
220
0.0
230
1.0
 70
    11
 71
     3
 72
   104
 73
   100
 74
     0
 42
0.0000000001
 43
0.0000000001
 40
0.0
 40
0.0
 40
0.0
 40
0.0
 40
0.0384615384615385
 40
0.0384615384615385
 40
0.0384615384615385
 40
0.0384615384615385
 40
0.0769230769230769
 40
0.0769230769230769
 40
0.0769230769230769
 40
0.0769230769230769
 40
0.1153846153846154
 40
0.1153846153846154
 40
0.1153846153846154
 40
0.1153846153846154
 40
0.1538461538461539
 40
0.1538461538461539
 40
0.1538461538461539
 40
0.1538461538461539
 40
0.1923076923076923
 40
0.1923076923076923
 40
0.1923076923076923
 40
0.1923076923076923
 40
0.2307692307692308
 40
0.2307692307692308
 40
0.2307692307692308
 40
0.2307692307692308
 40
0.2692307692307692
 40
0.2692307692307692
 40
0.2692307692307692
 40
0.2692307692307692
 40
0.3076923076923077
 40
0.3076923076923077
 40
0.3076923076923077
 40
0.3076923076923077
 40
0.3461538461538461
 40
0.3461538461538461
 40
0.3461538461538461
 40
0.3461538461538461
 40
0.3846153846153846
 40
0.3846153846153846
 40
0.3846153846153846
 40
0.3846153846153846
 40
0.4230769230769231
 40
0.4230769230769231
 40
0.4230769230769231
 40
0.4230769230769231
 40
0.4615384615384616
 40
0.4615384615384616
 40
0.4615384615384616
 40
0.4615384615384616
 40
0.5
 40
0.5
 40
0.5
 40
0.5
 40
0.5384615384615384
 40
0.5384615384615384
 40
0.5384615384615384
 40
0.5384615384615384
 40
0.5769230769230769
 40
0.5769230769230769
 40
0.5769230769230769
 40
0.5769230769230769
 40
0.6153846153846154
 40
0.6153846153846154
 40
0.6153846153846154
 40
0.6153846153846154
 40
0.6538461538461539
 40
0.6538461538461539
 40
0.6538461538461539
 40
0.6538461538461539
 40
0.6923076923076923
 40
0.6923076923076923
 40
0.6923076923076923
 40
0.6923076923076923
 40
0.7307692307692307
 40
0.7307692307692307
 40
0.7307692307692307
 40
0.7307692307692307
 40
0.7692307692307693
 40
0.7692307692307693
 40
0.7692307692307693
 40
0.7692307692307693
 40
0.8076923076923077
 40
0.8076923076923077
 40
0.8076923076923077
 40
0.8076923076923077
 40
0.8461538461538461
 40
0.8461538461538461
 40
0.8461538461538461
 40
0.8461538461538461
 40
0.8846153846153846
 40
0.8846153846153846
 40
0.8846153846153846
 40
0.8846153846153846
 40
0.9230769230769231
 40
0.9230769230769231
 40
0.9230769230769231
 40
0.9230769230769231
 40
1.0
 40
1.0
 40
1.0
 40
1.0
 10
20.6111
 20
25.0357
 30
0.0
 10
20.6111
 20
25.0357
 30
0.0
 10
20.5308
 20
25.4416
 30
0.0
 10
20.5308
 20
25.4416
 30
0.0
 10
20.5308
 20
25.4416
 30
0.0
 10
20.6442
 20
25.4647
 30
0.0
 10
20.7524
 20
25.505
 30
0.0
 10
20.8538
 20
25.5628
 30
0.0
 10
20.8538
 20
25.5628
 30
0.0
 10
20.9558
 20
25.6211
 30
0.0
 10
21.0483
 20
25.695
 30
0.0
 10
21.1315
 20
25.7855
 30
0.0
 10
21.1315
 20
25.7855
 30
0.0
 10
21.2168
 20
25.8784
 30
0.0
 10
21.2857
 20
25.9811
 30
0.0
 10
21.3378
 20
26.0922
 30
0.0
 10
21.3378
 20
26.0922
 30
0.0
 10
21.3898
 20
26.2033
 30
0.0
 10
21.4229
 20
26.3205
 30
0.0
 10
21.436
 20
26.4437
 30
0.0
 10
21.436
 20
26.4437
 30
0.0
 10
21.45
 20
26.567
 30
0.0
 10
21.4415
 20
26.6935
 30
0.0
 10
21.4113
 20
26.8231
 30
0.0
 10
21.4113
 20
26.8231
 30
0.0
 10
21.3807
 20
26.9523
 30
0.0
 10
21.3258
 20
27.0818
 30
0.0
 10
21.2461
 20
27.2121
 30
0.0
 10
21.2461
 20
27.2121
 30
0.0
 10
21.1665
 20
27.3415
 30
0.0
 10
21.06
 20
27.4683
 30
0.0
 10
20.9262
 20
27.5922
 30
0.0
 10
20.9262
 20
27.5922
 30
0.0
 10
20.8314
 20
27.6793
 30
0.0
 10
20.7327
 20
27.7525
 30
0.0
 10
20.6289
 20
27.8117
 30
0.0
 10
20.6289
 20
27.8117
 30
0.0
 10
20.5253
 20
27.8719
 30
0.0
 10
20.4195
 20
27.9173
 30
0.0
 10
20.312
 20
27.9485
 30
0.0
 10
20.312
 20
27.9485
 30
0.0
 10
20.204
 20
27.9792
 30
0.0
 10
20.0967
 20
27.9943
 30
0.0
 10
19.9891
 20
27.9949
 30
0.0
 10
19.9891
 20
27.9949
 30
0.0
 10
19.9891
 20
27.9949
 30
0.0
 10
19.9063
 20
28.3978
 30
0.0
 10
19.9063
 20
28.3978
 30
0.0
 10
19.9063
 20
28.3978
 30
0.0
 10
19.9063
 20
28.3978
 30
0.0
 10
19.6642
 20
28.3409
 30
0.0
 10
19.6642
 20
28.3409
 30
0.0
 10
19.6642
 20
28.3409
 30
0.0
 10
19.6642
 20
28.3409
 30
0.0
 10
19.7407
 20
27.9597
 30
0.0
 10
19.7407
 20
27.9597
 30
0.0
 10
19.7407
 20
27.9597
 30
0.0
 10
19.6259
 20
27.9379
 30
0.0
 10
19.5185
 20
27.8985
 30
0.0
 10
19.4185
 20
27.8412
 30
0.0
 10
19.4185
 20
27.8412
 30
0.0
 10
19.3179
 20
27.7835
 30
0.0
 10
19.2272
 20
27.7105
 30
0.0
 10
19.1453
 20
27.6214
 30
0.0
 10
19.1453
 20
27.6214
 30
0.0
 10
19.0289
 20
27.4939
 30
0.0
 10
18.9451
 20
27.3548
 30
0.0
 10
18.8928
 20
27.2034
 30
0.0
 10
18.8928
 20
27.2034
 30
0.0
 10
18.8411
 20
27.0525
 30
0.0
 10
18.823
 20
26.8961
 30
0.0
 10
18.8376
 20
26.7351
 30
0.0
 10
18.8376
 20
26.7351
 30
0.0
 10
18.8517
 20
26.5737
 30
0.0
 10
18.9005
 20
26.4146
 30
0.0
 10
18.9827
 20
26.2565
 30
0.0
 10
18.9827
 20
26.2565
 30
0.0
 10
19.0653
 20
26.0989
 30
0.0
 10
19.1819
 20
25.9495
 30
0.0
 10
19.3343
 20
25.8086
 30
0.0
 10
19.3343
 20
25.8086
 30
0.0
 10
19.4306
 20
25.7201
 30
0.0
 10
19.5321
 20
25.6461
 30
0.0
 10
19.6371
 20
25.5865
 30
0.0
 10
19.6371
 20
25.5865
 30
0.0
 10
19.7422
 20
25.5269
 30
0.0
 10
19.8493
 20
25.482
 30
0.0
 10
19.9577
 20
25.4518
 30
0.0
 10
19.9577
 20
25.4518
 30
0.0
 10
20.0665
 20
25.422
 30
0.0
 10
20.1747
 20
25.4069
 30
0.0
 10
20.2823
 20
25.4064
 30
0.0
 10
20.2823
 20
25.4064
 30
0.0
 10
20.2823
 20
25.4064
 30
0.0
 10
20.3681
 20
25.0009
 30
0.0
 10
20.3681
 20
25.0009
 30
0.0
 10
20.3681
 20
25.0009
 30
0.0
 10
20.3681
 20
25.0009
 30
0.0
 10
20.6111
 20
25.0357
 30
0.0
 10
20.6111
 20
25.0357
 30
0.0
  0
SPLINE
  5
4B
330
1F
100
AcDbEntity
  8
Standard layer
 62
   250
100
AcDbSpline
210
0.0
220
0.0
230
1.0
 70
    11
 71
     3
 72
    52
 73
    48
 74
     0
 42
0.0000000001
 43
0.0000000001
 40
0.0
 40
0.0
 40
0.0
 40
0.0
 40
0.0769230769230769
 40
0.0769230769230769
 40
0.0769230769230769
 40
0.0769230769230769
 40
0.1538461538461539
 40
0.1538461538461539
 40
0.1538461538461539
 40
0.1538461538461539
 40
0.2307692307692308
 40
0.2307692307692308
 40
0.2307692307692308
 40
0.2307692307692308
 40
0.3076923076923077
 40
0.3076923076923077
 40
0.3076923076923077
 40
0.3076923076923077
 40
0.3846153846153846
 40
0.3846153846153846
 40
0.3846153846153846
 40
0.3846153846153846
 40
0.4615384615384616
 40
0.4615384615384616
 40
0.4615384615384616
 40
0.4615384615384616
 40
0.5384615384615384
 40
0.5384615384615384
 40
0.5384615384615384
 40
0.5384615384615384
 40
0.6153846153846154
 40
0.6153846153846154
 40
0.6153846153846154
 40
0.6153846153846154
 40
0.6923076923076923
 40
0.6923076923076923
 40
0.6923076923076923
 40
0.6923076923076923
 40
0.7692307692307693
 40
0.7692307692307693
 40
0.7692307692307693
 40
0.7692307692307693
 40
0.8461538461538461
 40
0.8461538461538461
 40
0.8461538461538461
 40
0.8461538461538461
 40
1.0
 40
1.0
 40
1.0
 40
1.0
 10
20.2049
 20
25.7464
 30
0.0
 10
20.2049
 20
25.7464
 30
0.0
 10
20.2025
 20
25.738
 30
0.0
 10
20.2025
 20
25.738
 30
0.0
 10
20.2025
 20
25.738
 30
0.0
 10
20.1271
 20
25.7546
 30
0.0
 10
20.0534
 20
25.7767
 30
0.0
 10
19.9818
 20
25.8038
 30
0.0
 10
19.9818
 20
25.8038
 30
0.0
 10
19.9097
 20
25.8315
 30
0.0
 10
19.8391
 20
25.8665
 30
0.0
 10
19.7686
 20
25.9101
 30
0.0
 10
19.7686
 20
25.9101
 30
0.0
 10
19.6985
 20
25.9535
 30
0.0
 10
19.6276
 20
26.0081
 30
0.0
 10
19.5567
 20
26.0734
 30
0.0
 10
19.5567
 20
26.0734
 30
0.0
 10
19.4747
 20
26.1487
 30
0.0
 10
19.4036
 20
26.2298
 30
0.0
 10
19.3413
 20
26.3178
 30
0.0
 10
19.3413
 20
26.3178
 30
0.0
 10
19.2799
 20
26.4059
 30
0.0
 10
19.2307
 20
26.4976
 30
0.0
 10
19.1946
 20
26.5923
 30
0.0
 10
19.1946
 20
26.5923
 30
0.0
 10
19.1586
 20
26.6877
 30
0.0
 10
19.1381
 20
26.7839
 30
0.0
 10
19.134
 20
26.8808
 30
0.0
 10
19.134
 20
26.8808
 30
0.0
 10
19.1294
 20
26.9781
 30
0.0
 10
19.1437
 20
27.073
 30
0.0
 10
19.1764
 20
27.1659
 30
0.0
 10
19.1764
 20
27.1659
 30
0.0
 10
19.2091
 20
27.2597
 30
0.0
 10
19.264
 20
27.3481
 30
0.0
 10
19.34
 20
27.4319
 30
0.0
 10
19.34
 20
27.4319
 30
0.0
 10
19.4075
 20
27.5043
 30
0.0
 10
19.4806
 20
27.5601
 30
0.0
 10
19.5596
 20
27.5982
 30
0.0
 10
19.5596
 20
27.5982
 30
0.0
 10
19.6385
 20
27.6372
 30
0.0
 10
19.7213
 20
27.6613
 30
0.0
 10
19.8078
 20
27.6714
 30
0.0
 10
19.8078
 20
27.6714
 30
0.0
 10
19.8078
 20
27.6714
 30
0.0
 10
20.2049
 20
25.7464
 30
0.0
 10
20.2049
 20
25.7464
 30
0.0
  0
SPLINE
  5
4C
330
1F
100
AcDbEntity
  8
Standard layer
 62
   250
100
AcDbSpline
210
0.0
220
0.0
230
1.0
 70
    11
 71
     3
 72
    48
 73
    44
 74
     0
 42
0.0000000001
 43
0.0000000001
 40
0.0
 40
0.0
 40
0.0
 40
0.0
 40
0.0833333333333333
 40
0.0833333333333333
 40
0.0833333333333333
 40
0.0833333333333333
 40
0.1666666666666667
 40
0.1666666666666667
 40
0.1666666666666667
 40
0.1666666666666667
 40
0.25
 40
0.25
 40
0.25
 40
0.25
 40
0.3333333333333333
 40
0.3333333333333333
 40
0.3333333333333333
 40
0.3333333333333333
 40
0.4166666666666667
 40
0.4166666666666667
 40
0.4166666666666667
 40
0.4166666666666667
 40
0.5
 40
0.5
 40
0.5
 40
0.5
 40
0.5833333333333334
 40
0.5833333333333334
 40
0.5833333333333334
 40
0.5833333333333334
 40
0.6666666666666666
 40
0.6666666666666666
 40
0.6666666666666666
 40
0.6666666666666666
 40
0.75
 40
0.75
 40
0.75
 40
0.75
 40
0.8333333333333334
 40
0.8333333333333334
 40
0.8333333333333334
 40
0.8333333333333334
 40
1.0
 40
1.0
 40
1.0
 40
1.0
 10
20.0669
 20
27.6493
 30
0.0
 10
20.0669
 20
27.6493
 30
0.0
 10
20.0748
 20
27.6578
 30
0.0
 10
20.0748
 20
27.6578
 30
0.0
 10
20.0748
 20
27.6578
 30
0.0
 10
20.2031
 20
27.6313
 30
0.0
 10
20.3189
 20
27.589
 30
0.0
 10
20.4224
 20
27.5316
 30
0.0
 10
20.4224
 20
27.5316
 30
0.0
 10
20.5255
 20
27.4746
 30
0.0
 10
20.6185
 20
27.4076
 30
0.0
 10
20.701
 20
27.33
 30
0.0
 10
20.701
 20
27.33
 30
0.0
 10
20.7877
 20
27.2504
 30
0.0
 10
20.8622
 20
27.1651
 30
0.0
 10
20.9256
 20
27.0745
 30
0.0
 10
20.9256
 20
27.0745
 30
0.0
 10
20.9889
 20
26.9838
 30
0.0
 10
21.0382
 20
26.8902
 30
0.0
 10
21.0738
 20
26.7942
 30
0.0
 10
21.0738
 20
26.7942
 30
0.0
 10
21.109
 20
26.6977
 30
0.0
 10
21.1286
 20
26.6016
 30
0.0
 10
21.1318
 20
26.5055
 30
0.0
 10
21.1318
 20
26.5055
 30
0.0
 10
21.1349
 20
26.4086
 30
0.0
 10
21.1206
 20
26.3147
 30
0.0
 10
21.0878
 20
26.2236
 30
0.0
 10
21.0878
 20
26.2236
 30
0.0
 10
21.055
 20
26.1325
 30
0.0
 10
21.0018
 20
26.0469
 30
0.0
 10
20.9289
 20
25.9664
 30
0.0
 10
20.9289
 20
25.9664
 30
0.0
 10
20.8576
 20
25.8888
 30
0.0
 10
20.783
 20
25.8317
 30
0.0
 10
20.7067
 20
25.7955
 30
0.0
 10
20.7067
 20
25.7955
 30
0.0
 10
20.63
 20
25.7588
 30
0.0
 10
20.548
 20
25.7385
 30
0.0
 10
20.4608
 20
25.7325
 30
0.0
 10
20.4608
 20
25.7325
 30
0.0
 10
20.4608
 20
25.7325
 30
0.0
 10
20.0669
 20
27.6493
 30
0.0
 10
20.0669
 20
27.6493
 30
0.0
  0
SPLINE
  5
4D
330
1F
100
AcDbEntity
  8
Standard layer
 62
   250
100
AcDbSpline
210
0.0
220
0.0
230
1.0
 70
    11
 71
     3
 72
    48
 73
    44
 74
     0
 42
0.0000000001
 43
0.0000000001
 40
0.0
 40
0.0
 40
0.0
 40
0.0
 40
0.0833333333333333
 40
0.0833333333333333
 40
0.0833333333333333
 40
0.0833333333333333
 40
0.1666666666666667
 40
0.1666666666666667
 40
0.1666666666666667
 40
0.1666666666666667
 40
0.25
 40
0.25
 40
0.25
 40
0.25
 40
0.3333333333333333
 40
0.3333333333333333
 40
0.3333333333333333
 40
0.3333333333333333
 40
0.4166666666666667
 40
0.4166666666666667
 40
0.4166666666666667
 40
0.4166666666666667
 40
0.5
 40
0.5
 40
0.5
 40
0.5
 40
0.5833333333333334
 40
0.5833333333333334
 40
0.5833333333333334
 40
0.5833333333333334
 40
0.6666666666666666
 40
0.6666666666666666
 40
0.6666666666666666
 40
0.6666666666666666
 40
0.75
 40
0.75
 40
0.75
 40
0.75
 40
0.8333333333333334
 40
0.8333333333333334
 40
0.8333333333333334
 40
0.8333333333333334
 40
1.0
 40
1.0
 40
1.0
 40
1.0
 10
23.0537
 20
27.9401
 30
0.0
 10
23.0537
 20
27.9401
 30
0.0
 10
22.5451
 20
28.4075
 30
0.0
 10
22.5451
 20
28.4075
 30
0.0
 10
22.5451
 20
28.4075
 30
0.0
 10
22.5451
 20
28.4075
 30
0.0
 10
22.7841
 20
28.6675
 30
0.0
 10
22.7841
 20
28.6675
 30
0.0
 10
22.7841
 20
28.6675
 30
0.0
 10
22.7841
 20
28.6675
 30
0.0
 10
22.5898
 20
28.8461
 30
0.0
 10
22.5898
 20
28.8461
 30
0.0
 10
22.5898
 20
28.8461
 30
0.0
 10
22.5898
 20
28.8461
 30
0.0
 10
22.3508
 20
28.5861
 30
0.0
 10
22.3508
 20
28.5861
 30
0.0
 10
22.3508
 20
28.5861
 30
0.0
 10
22.3508
 20
28.5861
 30
0.0
 10
21.1966
 20
29.6469
 30
0.0
 10
21.1966
 20
29.6469
 30
0.0
 10
21.1966
 20
29.6469
 30
0.0
 10
21.1966
 20
29.6469
 30
0.0
 10
20.9471
 20
29.3755
 30
0.0
 10
20.9471
 20
29.3755
 30
0.0
 10
20.9471
 20
29.3755
 30
0.0
 10
20.9471
 20
29.3755
 30
0.0
 10
21.3713
 20
27.4572
 30
0.0
 10
21.3713
 20
27.4572
 30
0.0
 10
21.3713
 20
27.4572
 30
0.0
 10
21.3713
 20
27.4572
 30
0.0
 10
21.5342
 20
27.3075
 30
0.0
 10
21.5342
 20
27.3075
 30
0.0
 10
21.5342
 20
27.3075
 30
0.0
 10
21.5342
 20
27.3075
 30
0.0
 10
22.3272
 20
28.1703
 30
0.0
 10
22.3272
 20
28.1703
 30
0.0
 10
22.3272
 20
28.1703
 30
0.0
 10
22.3272
 20
28.1703
 30
0.0
 10
22.8357
 20
27.703
 30
0.0
 10
22.8357
 20
27.703
 30
0.0
 10
22.8357
 20
27.703
 30
0.0
 10
22.8357
 20
27.703
 30
0.0
 10
23.0537
 20
27.9401
 30
0.0
 10
23.0537
 20
27.9401
 30
0.0
  0
SPLINE
  5
4E
330
1F
100
AcDbEntity
  8
Standard layer
 62
   250
100
AcDbSpline
210
0.0
220
0.0
230
1.0
 70
    11
 71
     3
 72
    36
 73
    32
 74
     0
 42
0.0000000001
 43
0.0000000001
 40
0.0
 40
0.0
 40
0.0
 40
0.0
 40
0.1111111111111111
 40
0.1111111111111111
 40
0.1111111111111111
 40
0.1111111111111111
 40
0.2222222222222222
 40
0.2222222222222222
 40
0.2222222222222222
 40
0.2222222222222222
 40
0.3333333333333333
 40
0.3333333333333333
 40
0.3333333333333333
 40
0.3333333333333333
 40
0.4444444444444444
 40
0.4444444444444444
 40
0.4444444444444444
 40
0.4444444444444444
 40
0.5555555555555556
 40
0.5555555555555556
 40
0.5555555555555556
 40
0.5555555555555556
 40
0.6666666666666666
 40
0.6666666666666666
 40
0.6666666666666666
 40
0.6666666666666666
 40
0.7777777777777778
 40
0.7777777777777778
 40
0.7777777777777778
 40
0.7777777777777778
 40
1.0
 40
1.0
 40
1.0
 40
1.0
 10
21.5736
 20
27.7404
 30
0.0
 10
21.5736
 20
27.7404
 30
0.0
 10
21.5679
 20
27.7457
 30
0.0
 10
21.5679
 20
27.7457
 30
0.0
 10
21.5679
 20
27.7457
 30
0.0
 10
21.5679
 20
27.7457
 30
0.0
 10
21.3539
 20
28.7803
 30
0.0
 10
21.3539
 20
28.7803
 30
0.0
 10
21.3539
 20
28.7803
 30
0.0
 10
21.3347
 20
28.8444
 30
0.0
 10
21.3151
 20
28.909
 30
0.0
 10
21.2945
 20
28.9737
 30
0.0
 10
21.2945
 20
28.9737
 30
0.0
 10
21.273
 20
29.0382
 30
0.0
 10
21.249
 20
29.1095
 30
0.0
 10
21.2214
 20
29.1866
 30
0.0
 10
21.2214
 20
29.1866
 30
0.0
 10
21.2214
 20
29.1866
 30
0.0
 10
21.2294
 20
29.1952
 30
0.0
 10
21.2294
 20
29.1952
 30
0.0
 10
21.2294
 20
29.1952
 30
0.0
 10
21.3213
 20
29.1001
 30
0.0
 10
21.4157
 20
29.008
 30
0.0
 10
21.5129
 20
28.9188
 30
0.0
 10
21.5129
 20
28.9188
 30
0.0
 10
21.5129
 20
28.9188
 30
0.0
 10
22.1329
 20
28.3489
 30
0.0
 10
22.1329
 20
28.3489
 30
0.0
 10
22.1329
 20
28.3489
 30
0.0
 10
22.1329
 20
28.3489
 30
0.0
 10
21.5736
 20
27.7404
 30
0.0
 10
21.5736
 20
27.7404
 30
0.0
  0
SPLINE
  5
4F
330
1F
100
AcDbEntity
  8
Standard layer
 62
   250
100
AcDbSpline
210
0.0
220
0.0
230
1.0
 70
    11
 71
     3
 72
   124
 73
   120
 74
     0
 42
0.0000000001
 43
0.0000000001
 40
0.0
 40
0.0
 40
0.0
 40
0.0
 40
0.032258064516129
 40
0.032258064516129
 40
0.032258064516129
 40
0.032258064516129
 40
0.0645161290322581
 40
0.0645161290322581
 40
0.0645161290322581
 40
0.0645161290322581
 40
0.0967741935483871
 40
0.0967741935483871
 40
0.0967741935483871
 40
0.0967741935483871
 40
0.1290322580645161
 40
0.1290322580645161
 40
0.1290322580645161
 40
0.1290322580645161
 40
0.1612903225806452
 40
0.1612903225806452
 40
0.1612903225806452
 40
0.1612903225806452
 40
0.1935483870967742
 40
0.1935483870967742
 40
0.1935483870967742
 40
0.1935483870967742
 40
0.2258064516129032
 40
0.2258064516129032
 40
0.2258064516129032
 40
0.2258064516129032
 40
0.2580645161290323
 40
0.2580645161290323
 40
0.2580645161290323
 40
0.2580645161290323
 40
0.2903225806451613
 40
0.2903225806451613
 40
0.2903225806451613
 40
0.2903225806451613
 40
0.3225806451612903
 40
0.3225806451612903
 40
0.3225806451612903
 40
0.3225806451612903
 40
0.3548387096774194
 40
0.3548387096774194
 40
0.3548387096774194
 40
0.3548387096774194
 40
0.3870967741935484
 40
0.3870967741935484
 40
0.3870967741935484
 40
0.3870967741935484
 40
0.4193548387096774
 40
0.4193548387096774
 40
0.4193548387096774
 40
0.4193548387096774
 40
0.4516129032258064
 40
0.4516129032258064
 40
0.4516129032258064
 40
0.4516129032258064
 40
0.4838709677419355
 40
0.4838709677419355
 40
0.4838709677419355
 40
0.4838709677419355
 40
0.5161290322580645
 40
0.5161290322580645
 40
0.5161290322580645
 40
0.5161290322580645
 40
0.5483870967741935
 40
0.5483870967741935
 40
0.5483870967741935
 40
0.5483870967741935
 40
0.5806451612903226
 40
0.5806451612903226
 40
0.5806451612903226
 40
0.5806451612903226
 40
0.6129032258064516
 40
0.6129032258064516
 40
0.6129032258064516
 40
0.6129032258064516
 40
0.6451612903225806
 40
0.6451612903225806
 40
0.6451612903225806
 40
0.6451612903225806
 40
0.6774193548387096
 40
0.6774193548387096
 40
0.6774193548387096
 40
0.6774193548387096
 40
0.7096774193548387
 40
0.7096774193548387
 40
0.7096774193548387
 40
0.7096774193548387
 40
0.7419354838709677
 40
0.7419354838709677
 40
0.7419354838709677
 40
0.7419354838709677
 40
0.7741935483870968
 40
0.7741935483870968
 40
0.7741935483870968
 40
0.7741935483870968
 40
0.8064516129032258
 40
0.8064516129032258
 40
0.8064516129032258
 40
0.8064516129032258
 40
0.8387096774193549
 40
0.8387096774193549
 40
0.8387096774193549
 40
0.8387096774193549
 40
0.8709677419354839
 40
0.8709677419354839
 40
0.8709677419354839
 40
0.8709677419354839
 40
0.9032258064516129
 40
0.9032258064516129
 40
0.9032258064516129
 40
0.9032258064516129
 40
0.9354838709677419
 40
0.9354838709677419
 40
0.9354838709677419
 40
0.9354838709677419
 40
1.0
 40
1.0
 40
1.0
 40
1.0
 10
22.5571
 20
31.1846
 30
0.0
 10
22.536
 20
31.1617
 30
0.0
 10
22.5121
 20
31.1337
 30
0.0
 10
22.486
 20
31.1015
 30
0.0
 10
22.486
 20
31.1015
 30
0.0
 10
22.4593
 20
31.0688
 30
0.0
 10
22.4317
 20
31.031
 30
0.0
 10
22.4033
 20
30.9886
 30
0.0
 10
22.4033
 20
30.9886
 30
0.0
 10
22.3095
 20
30.8579
 30
0.0
 10
22.2398
 20
30.7208
 30
0.0
 10
22.1936
 20
30.5779
 30
0.0
 10
22.1936
 20
30.5779
 30
0.0
 10
22.1474
 20
30.435
 30
0.0
 10
22.1265
 20
30.2899
 30
0.0
 10
22.1314
 20
30.1423
 30
0.0
 10
22.1314
 20
30.1423
 30
0.0
 10
22.135
 20
30.0239
 30
0.0
 10
22.1571
 20
29.9026
 30
0.0
 10
22.198
 20
29.7789
 30
0.0
 10
22.198
 20
29.7789
 30
0.0
 10
22.238
 20
29.6552
 30
0.0
 10
22.2981
 20
29.5323
 30
0.0
 10
22.3774
 20
29.4102
 30
0.0
 10
22.3774
 20
29.4102
 30
0.0
 10
22.4572
 20
29.2886
 30
0.0
 10
22.5582
 20
29.1711
 30
0.0
 10
22.6797
 20
29.0586
 30
0.0
 10
22.6797
 20
29.0586
 30
0.0
 10
22.8011
 20
28.9479
 30
0.0
 10
22.9246
 20
28.8634
 30
0.0
 10
23.0497
 20
28.8046
 30
0.0
 10
23.0497
 20
28.8046
 30
0.0
 10
23.1758
 20
28.7459
 30
0.0
 10
23.2993
 20
28.714
 30
0.0
 10
23.4214
 20
28.7082
 30
0.0
 10
23.4214
 20
28.7082
 30
0.0
 10
23.5429
 20
28.7018
 30
0.0
 10
23.6597
 20
28.7219
 30
0.0
 10
23.7699
 20
28.7682
 30
0.0
 10
23.7699
 20
28.7682
 30
0.0
 10
23.8801
 20
28.8145
 30
0.0
 10
23.9809
 20
28.8869
 30
0.0
 10
24.0725
 20
28.9855
 30
0.0
 10
24.0725
 20
28.9855
 30
0.0
 10
24.1608
 20
29.0835
 30
0.0
 10
24.2228
 20
29.1873
 30
0.0
 10
24.258
 20
29.2963
 30
0.0
 10
24.258
 20
29.2963
 30
0.0
 10
24.2923
 20
29.4054
 30
0.0
 10
24.3037
 20
29.5153
 30
0.0
 10
24.2913
 20
29.625
 30
0.0
 10
24.2913
 20
29.625
 30
0.0
 10
24.2788
 20
29.7348
 30
0.0
 10
24.2465
 20
29.8402
 30
0.0
 10
24.1933
 20
29.94
 30
0.0
 10
24.1933
 20
29.94
 30
0.0
 10
24.141
 20
30.0398
 30
0.0
 10
24.0718
 20
30.1298
 30
0.0
 10
23.9851
 20
30.2094
 30
0.0
 10
23.9851
 20
30.2094
 30
0.0
 10
23.8942
 20
30.2921
 30
0.0
 10
23.7995
 20
30.3536
 30
0.0
 10
23.7013
 20
30.3939
 30
0.0
 10
23.7013
 20
30.3939
 30
0.0
 10
23.603
 20
30.4341
 30
0.0
 10
23.5042
 20
30.4538
 30
0.0
 10
23.4059
 20
30.4529
 30
0.0
 10
23.4059
 20
30.4529
 30
0.0
 10
23.3076
 20
30.451
 30
0.0
 10
23.2124
 20
30.4296
 30
0.0
 10
23.1217
 20
30.3873
 30
0.0
 10
23.1217
 20
30.3873
 30
0.0
 10
23.0305
 20
30.3454
 30
0.0
 10
22.9466
 20
30.2828
 30
0.0
 10
22.8705
 20
30.2009
 30
0.0
 10
22.8705
 20
30.2009
 30
0.0
 10
22.8079
 20
30.1319
 30
0.0
 10
22.7602
 20
30.0599
 30
0.0
 10
22.7267
 20
29.9851
 30
0.0
 10
22.7267
 20
29.9851
 30
0.0
 10
22.6937
 20
29.9101
 30
0.0
 10
22.6725
 20
29.8355
 30
0.0
 10
22.6647
 20
29.7611
 30
0.0
 10
22.6647
 20
29.7611
 30
0.0
 10
22.6568
 20
29.6875
 30
0.0
 10
22.6593
 20
29.6166
 30
0.0
 10
22.6727
 20
29.5499
 30
0.0
 10
22.6727
 20
29.5499
 30
0.0
 10
22.6727
 20
29.5499
 30
0.0
 10
22.6675
 20
29.5442
 30
0.0
 10
22.6675
 20
29.5442
 30
0.0
 10
22.6675
 20
29.5442
 30
0.0
 10
22.5995
 20
29.626
 30
0.0
 10
22.544
 20
29.7157
 30
0.0
 10
22.5014
 20
29.8136
 30
0.0
 10
22.5014
 20
29.8136
 30
0.0
 10
22.4589
 20
29.9107
 30
0.0
 10
22.4316
 20
30.013
 30
0.0
 10
22.4211
 20
30.121
 30
0.0
 10
22.4211
 20
30.121
 30
0.0
 10
22.4111
 20
30.2287
 30
0.0
 10
22.4197
 20
30.3394
 30
0.0
 10
22.4483
 20
30.4527
 30
0.0
 10
22.4483
 20
30.4527
 30
0.0
 10
22.4769
 20
30.566
 30
0.0
 10
22.529
 20
30.6799
 30
0.0
 10
22.6038
 20
30.7938
 30
0.0
 10
22.6038
 20
30.7938
 30
0.0
 10
22.6309
 20
30.8348
 30
0.0
 10
22.6581
 20
30.873
 30
0.0
 10
22.6851
 20
30.9071
 30
0.0
 10
22.6851
 20
30.9071
 30
0.0
 10
22.7115
 20
30.9416
 30
0.0
 10
22.7377
 20
30.9712
 30
0.0
 10
22.7628
 20
30.9955
 30
0.0
 10
22.7628
 20
30.9955
 30
0.0
 10
22.7628
 20
30.9955
 30
0.0
 10
22.5571
 20
31.1846
 30
0.0
 10
22.5571
 20
31.1846
 30
0.0
  0
SPLINE
  5
50
330
1F
100
AcDbEntity
  8
Standard layer
 62
   250
100
AcDbSpline
210
0.0
220
0.0
230
1.0
 70
    11
 71
     3
 72
    64
 73
    60
 74
     0
 42
0.0000000001
 43
0.0000000001
 40
0.0
 40
0.0
 40
0.0
 40
0.0
 40
0.0625
 40
0.0625
 40
0.0625
 40
0.0625
 40
0.125
 40
0.125
 40
0.125
 40
0.125
 40
0.1875
 40
0.1875
 40
0.1875
 40
0.1875
 40
0.25
 40
0.25
 40
0.25
 40
0.25
 40
0.3125
 40
0.3125
 40
0.3125
 40
0.3125
 40
0.375
 40
0.375
 40
0.375
 40
0.375
 40
0.4375
 40
0.4375
 40
0.4375
 40
0.4375
 40
0.5
 40
0.5
 40
0.5
 40
0.5
 40
0.5625
 40
0.5625
 40
0.5625
 40
0.5625
 40
0.625
 40
0.625
 40
0.625
 40
0.625
 40
0.6875
 40
0.6875
 40
0.6875
 40
0.6875
 40
0.75
 40
0.75
 40
0.75
 40
0.75
 40
0.8125
 40
0.8125
 40
0.8125
 40
0.8125
 40
0.875
 40
0.875
 40
0.875
 40
0.875
 40
1.0
 40
1.0
 40
1.0
 40
1.0
 10
23.8834
 20
29.1698
 30
0.0
 10
23.8217
 20
29.1035
 30
0.0
 10
23.7545
 20
29.0572
 30
0.0
 10
23.6809
 20
29.0308
 30
0.0
 10
23.6809
 20
29.0308
 30
0.0
 10
23.6079
 20
29.0049
 30
0.0
 10
23.5314
 20
28.9961
 30
0.0
 10
23.4514
 20
29.0055
 30
0.0
 10
23.4514
 20
29.0055
 30
0.0
 10
23.3713
 20
29.015
 30
0.0
 10
23.2906
 20
29.0409
 30
0.0
 10
23.2092
 20
29.0823
 30
0.0
 10
23.2092
 20
29.0823
 30
0.0
 10
23.1278
 20
29.1237
 30
0.0
 10
23.0485
 20
29.1799
 30
0.0
 10
22.971
 20
29.2493
 30
0.0
 10
22.971
 20
29.2493
 30
0.0
 10
22.9481
 20
29.2704
 30
0.0
 10
22.9308
 20
29.2916
 30
0.0
 10
22.9171
 20
29.313
 30
0.0
 10
22.9171
 20
29.313
 30
0.0
 10
22.9038
 20
29.3341
 30
0.0
 10
22.8938
 20
29.3547
 30
0.0
 10
22.8861
 20
29.3749
 30
0.0
 10
22.8861
 20
29.3749
 30
0.0
 10
22.8614
 20
29.4407
 30
0.0
 10
22.8489
 20
29.5075
 30
0.0
 10
22.8492
 20
29.5766
 30
0.0
 10
22.8492
 20
29.5766
 30
0.0
 10
22.8495
 20
29.6447
 30
0.0
 10
22.8613
 20
29.7113
 30
0.0
 10
22.8852
 20
29.7753
 30
0.0
 10
22.8852
 20
29.7753
 30
0.0
 10
22.9095
 20
29.8391
 30
0.0
 10
22.9442
 20
29.8968
 30
0.0
 10
22.991
 20
29.9478
 30
0.0
 10
22.991
 20
29.9478
 30
0.0
 10
23.0628
 20
30.025
 30
0.0
 10
23.1416
 20
30.0764
 30
0.0
 10
23.2284
 20
30.103
 30
0.0
 10
23.2284
 20
30.103
 30
0.0
 10
23.3147
 20
30.129
 30
0.0
 10
23.404
 20
30.1286
 30
0.0
 10
23.4962
 20
30.1019
 30
0.0
 10
23.4962
 20
30.1019
 30
0.0
 10
23.5884
 20
30.0751
 30
0.0
 10
23.679
 20
30.0208
 30
0.0
 10
23.7686
 20
29.9394
 30
0.0
 10
23.7686
 20
29.9394
 30
0.0
 10
23.8571
 20
29.8571
 30
0.0
 10
23.9213
 20
29.77
 30
0.0
 10
23.9603
 20
29.6788
 30
0.0
 10
23.9603
 20
29.6788
 30
0.0
 10
23.9994
 20
29.5875
 30
0.0
 10
24.0123
 20
29.4984
 30
0.0
 10
24.0
 20
29.4104
 30
0.0
 10
24.0
 20
29.4104
 30
0.0
 10
23.9878
 20
29.3225
 30
0.0
 10
23.949
 20
29.2421
 30
0.0
 10
23.8834
 20
29.1698
 30
0.0
  0
SPLINE
  5
51
330
1F
100
AcDbEntity
  8
Standard layer
 62
   250
100
AcDbSpline
210
0.0
220
0.0
230
1.0
 70
    11
 71
     3
 72
   104
 73
   100
 74
     0
 42
0.0000000001
 43
0.0000000001
 40
0.0
 40
0.0
 40
0.0
 40
0.0
 40
0.0384615384615385
 40
0.0384615384615385
 40
0.0384615384615385
 40
0.0384615384615385
 40
0.0769230769230769
 40
0.0769230769230769
 40
0.0769230769230769
 40
0.0769230769230769
 40
0.1153846153846154
 40
0.1153846153846154
 40
0.1153846153846154
 40
0.1153846153846154
 40
0.1538461538461539
 40
0.1538461538461539
 40
0.1538461538461539
 40
0.1538461538461539
 40
0.1923076923076923
 40
0.1923076923076923
 40
0.1923076923076923
 40
0.1923076923076923
 40
0.2307692307692308
 40
0.2307692307692308
 40
0.2307692307692308
 40
0.2307692307692308
 40
0.2692307692307692
 40
0.2692307692307692
 40
0.2692307692307692
 40
0.2692307692307692
 40
0.3076923076923077
 40
0.3076923076923077
 40
0.3076923076923077
 40
0.3076923076923077
 40
0.3461538461538461
 40
0.3461538461538461
 40
0.3461538461538461
 40
0.3461538461538461
 40
0.3846153846153846
 40
0.3846153846153846
 40
0.3846153846153846
 40
0.3846153846153846
 40
0.4230769230769231
 40
0.4230769230769231
 40
0.4230769230769231
 40
0.4230769230769231
 40
0.4615384615384616
 40
0.4615384615384616
 40
0.4615384615384616
 40
0.4615384615384616
 40
0.5
 40
0.5
 40
0.5
 40
0.5
 40
0.5384615384615384
 40
0.5384615384615384
 40
0.5384615384615384
 40
0.5384615384615384
 40
0.5769230769230769
 40
0.5769230769230769
 40
0.5769230769230769
 40
0.5769230769230769
 40
0.6153846153846154
 40
0.6153846153846154
 40
0.6153846153846154
 40
0.6153846153846154
 40
0.6538461538461539
 40
0.6538461538461539
 40
0.6538461538461539
 40
0.6538461538461539
 40
0.6923076923076923
 40
0.6923076923076923
 40
0.6923076923076923
 40
0.6923076923076923
 40
0.7307692307692307
 40
0.7307692307692307
 40
0.7307692307692307
 40
0.7307692307692307
 40
0.7692307692307693
 40
0.7692307692307693
 40
0.7692307692307693
 40
0.7692307692307693
 40
0.8076923076923077
 40
0.8076923076923077
 40
0.8076923076923077
 40
0.8076923076923077
 40
0.8461538461538461
 40
0.8461538461538461
 40
0.8461538461538461
 40
0.8461538461538461
 40
0.8846153846153846
 40
0.8846153846153846
 40
0.8846153846153846
 40
0.8846153846153846
 40
0.9230769230769231
 40
0.9230769230769231
 40
0.9230769230769231
 40
0.9230769230769231
 40
1.0
 40
1.0
 40
1.0
 40
1.0
 10
9.7796
 20
30.6251
 30
0.0
 10
9.7796
 20
30.6251
 30
0.0
 10
9.6993
 20
31.031
 30
0.0
 10
9.6993
 20
31.031
 30
0.0
 10
9.6993
 20
31.031
 30
0.0
 10
9.8127
 20
31.0541
 30
0.0
 10
9.9209
 20
31.0944
 30
0.0
 10
10.0223
 20
31.1522
 30
0.0
 10
10.0223
 20
31.1522
 30
0.0
 10
10.1243
 20
31.2105
 30
0.0
 10
10.2168
 20
31.2844
 30
0.0
 10
10.3
 20
31.3749
 30
0.0
 10
10.3
 20
31.3749
 30
0.0
 10
10.3853
 20
31.4678
 30
0.0
 10
10.4542
 20
31.5705
 30
0.0
 10
10.5063
 20
31.6816
 30
0.0
 10
10.5063
 20
31.6816
 30
0.0
 10
10.5583
 20
31.7927
 30
0.0
 10
10.5914
 20
31.9099
 30
0.0
 10
10.6045
 20
32.0331
 30
0.0
 10
10.6045
 20
32.0331
 30
0.0
 10
10.6185
 20
32.1564
 30
0.0
 10
10.61
 20
32.2829
 30
0.0
 10
10.5798
 20
32.4125
 30
0.0
 10
10.5798
 20
32.4125
 30
0.0
 10
10.5492
 20
32.5417
 30
0.0
 10
10.4943
 20
32.6712
 30
0.0
 10
10.4146
 20
32.8015
 30
0.0
 10
10.4146
 20
32.8015
 30
0.0
 10
10.335
 20
32.9309
 30
0.0
 10
10.2285
 20
33.0577
 30
0.0
 10
10.0947
 20
33.1816
 30
0.0
 10
10.0947
 20
33.1816
 30
0.0
 10
9.9999
 20
33.2687
 30
0.0
 10
9.9012
 20
33.3419
 30
0.0
 10
9.7974
 20
33.4011
 30
0.0
 10
9.7974
 20
33.4011
 30
0.0
 10
9.6938
 20
33.4613
 30
0.0
 10
9.588
 20
33.5067
 30
0.0
 10
9.4805
 20
33.5379
 30
0.0
 10
9.4805
 20
33.5379
 30
0.0
 10
9.3725
 20
33.5686
 30
0.0
 10
9.2652
 20
33.5837
 30
0.0
 10
9.1576
 20
33.5843
 30
0.0
 10
9.1576
 20
33.5843
 30
0.0
 10
9.1576
 20
33.5843
 30
0.0
 10
9.0748
 20
33.9872
 30
0.0
 10
9.0748
 20
33.9872
 30
0.0
 10
9.0748
 20
33.9872
 30
0.0
 10
9.0748
 20
33.9872
 30
0.0
 10
8.8327
 20
33.9303
 30
0.0
 10
8.8327
 20
33.9303
 30
0.0
 10
8.8327
 20
33.9303
 30
0.0
 10
8.8327
 20
33.9303
 30
0.0
 10
8.9092
 20
33.5491
 30
0.0
 10
8.9092
 20
33.5491
 30
0.0
 10
8.9092
 20
33.5491
 30
0.0
 10
8.7944
 20
33.5273
 30
0.0
 10
8.687
 20
33.4879
 30
0.0
 10
8.587
 20
33.4306
 30
0.0
 10
8.587
 20
33.4306
 30
0.0
 10
8.4864
 20
33.3729
 30
0.0
 10
8.3957
 20
33.2999
 30
0.0
 10
8.3138
 20
33.2108
 30
0.0
 10
8.3138
 20
33.2108
 30
0.0
 10
8.1974
 20
33.0833
 30
0.0
 10
8.1136
 20
32.9442
 30
0.0
 10
8.0613
 20
32.7928
 30
0.0
 10
8.0613
 20
32.7928
 30
0.0
 10
8.0096
 20
32.6419
 30
0.0
 10
7.9915
 20
32.4855
 30
0.0
 10
8.0061
 20
32.3245
 30
0.0
 10
8.0061
 20
32.3245
 30
0.0
 10
8.0202
 20
32.1631
 30
0.0
 10
8.069
 20
32.004
 30
0.0
 10
8.1512
 20
31.8459
 30
0.0
 10
8.1512
 20
31.8459
 30
0.0
 10
8.2338
 20
31.6883
 30
0.0
 10
8.3504
 20
31.5389
 30
0.0
 10
8.5028
 20
31.398
 30
0.0
 10
8.5028
 20
31.398
 30
0.0
 10
8.5991
 20
31.3095
 30
0.0
 10
8.7006
 20
31.2355
 30
0.0
 10
8.8056
 20
31.1759
 30
0.0
 10
8.8056
 20
31.1759
 30
0.0
 10
8.9107
 20
31.1163
 30
0.0
 10
9.0178
 20
31.0714
 30
0.0
 10
9.1262
 20
31.0412
 30
0.0
 10
9.1262
 20
31.0412
 30
0.0
 10
9.235
 20
31.0114
 30
0.0
 10
9.3432
 20
30.9963
 30
0.0
 10
9.4508
 20
30.9958
 30
0.0
 10
9.4508
 20
30.9958
 30
0.0
 10
9.4508
 20
30.9958
 30
0.0
 10
9.5366
 20
30.5903
 30
0.0
 10
9.5366
 20
30.5903
 30
0.0
 10
9.5366
 20
30.5903
 30
0.0
 10
9.5366
 20
30.5903
 30
0.0
 10
9.7796
 20
30.6251
 30
0.0
 10
9.7796
 20
30.6251
 30
0.0
  0
SPLINE
  5
52
330
1F
100
AcDbEntity
  8
Standard layer
 62
   250
100
AcDbSpline
210
0.0
220
0.0
230
1.0
 70
    11
 71
     3
 72
    52
 73
    48
 74
     0
 42
0.0000000001
 43
0.0000000001
 40
0.0
 40
0.0
 40
0.0
 40
0.0
 40
0.0769230769230769
 40
0.0769230769230769
 40
0.0769230769230769
 40
0.0769230769230769
 40
0.1538461538461539
 40
0.1538461538461539
 40
0.1538461538461539
 40
0.1538461538461539
 40
0.2307692307692308
 40
0.2307692307692308
 40
0.2307692307692308
 40
0.2307692307692308
 40
0.3076923076923077
 40
0.3076923076923077
 40
0.3076923076923077
 40
0.3076923076923077
 40
0.3846153846153846
 40
0.3846153846153846
 40
0.3846153846153846
 40
0.3846153846153846
 40
0.4615384615384616
 40
0.4615384615384616
 40
0.4615384615384616
 40
0.4615384615384616
 40
0.5384615384615384
 40
0.5384615384615384
 40
0.5384615384615384
 40
0.5384615384615384
 40
0.6153846153846154
 40
0.6153846153846154
 40
0.6153846153846154
 40
0.6153846153846154
 40
0.6923076923076923
 40
0.6923076923076923
 40
0.6923076923076923
 40
0.6923076923076923
 40
0.7692307692307693
 40
0.7692307692307693
 40
0.7692307692307693
 40
0.7692307692307693
 40
0.8461538461538461
 40
0.8461538461538461
 40
0.8461538461538461
 40
0.8461538461538461
 40
1.0
 40
1.0
 40
1.0
 40
1.0
 10
9.3734
 20
31.3358
 30
0.0
 10
9.3734
 20
31.3358
 30
0.0
 10
9.371
 20
31.3274
 30
0.0
 10
9.371
 20
31.3274
 30
0.0
 10
9.371
 20
31.3274
 30
0.0
 10
9.2956
 20
31.344
 30
0.0
 10
9.2219
 20
31.3661
 30
0.0
 10
9.1503
 20
31.3932
 30
0.0
 10
9.1503
 20
31.3932
 30
0.0
 10
9.0782
 20
31.4209
 30
0.0
 10
9.0076
 20
31.4559
 30
0.0
 10
8.9371
 20
31.4995
 30
0.0
 10
8.9371
 20
31.4995
 30
0.0
 10
8.867
 20
31.5429
 30
0.0
 10
8.7961
 20
31.5975
 30
0.0
 10
8.7252
 20
31.6628
 30
0.0
 10
8.7252
 20
31.6628
 30
0.0
 10
8.6432
 20
31.7381
 30
0.0
 10
8.5721
 20
31.8192
 30
0.0
 10
8.5098
 20
31.9072
 30
0.0
 10
8.5098
 20
31.9072
 30
0.0
 10
8.4484
 20
31.9953
 30
0.0
 10
8.3992
 20
32.087
 30
0.0
 10
8.3631
 20
32.1817
 30
0.0
 10
8.3631
 20
32.1817
 30
0.0
 10
8.3271
 20
32.2771
 30
0.0
 10
8.3066
 20
32.3733
 30
0.0
 10
8.3025
 20
32.4702
 30
0.0
 10
8.3025
 20
32.4702
 30
0.0
 10
8.2979
 20
32.5675
 30
0.0
 10
8.3122
 20
32.6624
 30
0.0
 10
8.3449
 20
32.7553
 30
0.0
 10
8.3449
 20
32.7553
 30
0.0
 10
8.3776
 20
32.8491
 30
0.0
 10
8.4325
 20
32.9375
 30
0.0
 10
8.5085
 20
33.0213
 30
0.0
 10
8.5085
 20
33.0213
 30
0.0
 10
8.576
 20
33.0937
 30
0.0
 10
8.6491
 20
33.1495
 30
0.0
 10
8.7281
 20
33.1876
 30
0.0
 10
8.7281
 20
33.1876
 30
0.0
 10
8.807
 20
33.2266
 30
0.0
 10
8.8898
 20
33.2507
 30
0.0
 10
8.9763
 20
33.2608
 30
0.0
 10
8.9763
 20
33.2608
 30
0.0
 10
8.9763
 20
33.2608
 30
0.0
 10
9.3734
 20
31.3358
 30
0.0
 10
9.3734
 20
31.3358
 30
0.0
  0
SPLINE
  5
53
330
1F
100
AcDbEntity
  8
Standard layer
 62
   250
100
AcDbSpline
210
0.0
220
0.0
230
1.0
 70
    11
 71
     3
 72
    48
 73
    44
 74
     0
 42
0.0000000001
 43
0.0000000001
 40
0.0
 40
0.0
 40
0.0
 40
0.0
 40
0.0833333333333333
 40
0.0833333333333333
 40
0.0833333333333333
 40
0.0833333333333333
 40
0.1666666666666667
 40
0.1666666666666667
 40
0.1666666666666667
 40
0.1666666666666667
 40
0.25
 40
0.25
 40
0.25
 40
0.25
 40
0.3333333333333333
 40
0.3333333333333333
 40
0.3333333333333333
 40
0.3333333333333333
 40
0.4166666666666667
 40
0.4166666666666667
 40
0.4166666666666667
 40
0.4166666666666667
 40
0.5
 40
0.5
 40
0.5
 40
0.5
 40
0.5833333333333334
 40
0.5833333333333334
 40
0.5833333333333334
 40
0.5833333333333334
 40
0.6666666666666666
 40
0.6666666666666666
 40
0.6666666666666666
 40
0.6666666666666666
 40
0.75
 40
0.75
 40
0.75
 40
0.75
 40
0.8333333333333334
 40
0.8333333333333334
 40
0.8333333333333334
 40
0.8333333333333334
 40
1.0
 40
1.0
 40
1.0
 40
1.0
 10
9.2354
 20
33.2387
 30
0.0
 10
9.2354
 20
33.2387
 30
0.0
 10
9.2433
 20
33.2472
 30
0.0
 10
9.2433
 20
33.2472
 30
0.0
 10
9.2433
 20
33.2472
 30
0.0
 10
9.3716
 20
33.2207
 30
0.0
 10
9.4874
 20
33.1784
 30
0.0
 10
9.5909
 20
33.121
 30
0.0
 10
9.5909
 20
33.121
 30
0.0
 10
9.694
 20
33.064
 30
0.0
 10
9.787
 20
32.997
 30
0.0
 10
9.8695
 20
32.9194
 30
0.0
 10
9.8695
 20
32.9194
 30
0.0
 10
9.9562
 20
32.8398
 30
0.0
 10
10.0307
 20
32.7545
 30
0.0
 10
10.0941
 20
32.6639
 30
0.0
 10
10.0941
 20
32.6639
 30
0.0
 10
10.1574
 20
32.5732
 30
0.0
 10
10.2067
 20
32.4796
 30
0.0
 10
10.2423
 20
32.3836
 30
0.0
 10
10.2423
 20
32.3836
 30
0.0
 10
10.2775
 20
32.2871
 30
0.0
 10
10.2971
 20
32.191
 30
0.0
 10
10.3003
 20
32.0949
 30
0.0
 10
10.3003
 20
32.0949
 30
0.0
 10
10.3034
 20
31.998
 30
0.0
 10
10.2891
 20
31.9041
 30
0.0
 10
10.2563
 20
31.813
 30
0.0
 10
10.2563
 20
31.813
 30
0.0
 10
10.2235
 20
31.7219
 30
0.0
 10
10.1703
 20
31.6363
 30
0.0
 10
10.0974
 20
31.5558
 30
0.0
 10
10.0974
 20
31.5558
 30
0.0
 10
10.0261
 20
31.4782
 30
0.0
 10
9.9515
 20
31.4211
 30
0.0
 10
9.8752
 20
31.3849
 30
0.0
 10
9.8752
 20
31.3849
 30
0.0
 10
9.7985
 20
31.3482
 30
0.0
 10
9.7165
 20
31.3279
 30
0.0
 10
9.6293
 20
31.3219
 30
0.0
 10
9.6293
 20
31.3219
 30
0.0
 10
9.6293
 20
31.3219
 30
0.0
 10
9.2354
 20
33.2387
 30
0.0
 10
9.2354
 20
33.2387
 30
0.0
  0
SPLINE
  5
54
330
1F
100
AcDbEntity
  8
Standard layer
 62
   250
100
AcDbSpline
210
0.0
220
0.0
230
1.0
 70
    11
 71
     3
 72
    36
 73
    32
 74
     0
 42
0.0000000001
 43
0.0000000001
 40
0.0
 40
0.0
 40
0.0
 40
0.0
 40
0.1111111111111111
 40
0.1111111111111111
 40
0.1111111111111111
 40
0.1111111111111111
 40
0.2222222222222222
 40
0.2222222222222222
 40
0.2222222222222222
 40
0.2222222222222222
 40
0.3333333333333333
 40
0.3333333333333333
 40
0.3333333333333333
 40
0.3333333333333333
 40
0.4444444444444444
 40
0.4444444444444444
 40
0.4444444444444444
 40
0.4444444444444444
 40
0.5555555555555556
 40
0.5555555555555556
 40
0.5555555555555556
 40
0.5555555555555556
 40
0.6666666666666666
 40
0.6666666666666666
 40
0.6666666666666666
 40
0.6666666666666666
 40
0.7777777777777778
 40
0.7777777777777778
 40
0.7777777777777778
 40
0.7777777777777778
 40
1.0
 40
1.0
 40
1.0
 40
1.0
 10
9.4644
 20
34.2563
 30
0.0
 10
9.4644
 20
34.2563
 30
0.0
 10
9.673
 20
34.0646
 30
0.0
 10
9.673
 20
34.0646
 30
0.0
 10
9.673
 20
34.0646
 30
0.0
 10
9.673
 20
34.0646
 30
0.0
 10
10.508
 20
34.9732
 30
0.0
 10
10.508
 20
34.9732
 30
0.0
 10
10.508
 20
34.9732
 30
0.0
 10
10.508
 20
34.9732
 30
0.0
 10
10.5137
 20
34.968
 30
0.0
 10
10.5137
 20
34.968
 30
0.0
 10
10.5137
 20
34.968
 30
0.0
 10
10.5137
 20
34.968
 30
0.0
 10
11.4161
 20
32.6524
 30
0.0
 10
11.4161
 20
32.6524
 30
0.0
 10
11.4161
 20
32.6524
 30
0.0
 10
11.4161
 20
32.6524
 30
0.0
 10
11.655
 20
32.9124
 30
0.0
 10
11.655
 20
32.9124
 30
0.0
 10
11.655
 20
32.9124
 30
0.0
 10
11.655
 20
32.9124
 30
0.0
 10
10.7067
 20
35.2755
 30
0.0
 10
10.7067
 20
35.2755
 30
0.0
 10
10.7067
 20
35.2755
 30
0.0
 10
10.7067
 20
35.2755
 30
0.0
 10
10.541
 20
35.4277
 30
0.0
 10
10.541
 20
35.4277
 30
0.0
 10
10.541
 20
35.4277
 30
0.0
 10
10.541
 20
35.4277
 30
0.0
 10
9.4644
 20
34.2563
 30
0.0
 10
9.4644
 20
34.2563
 30
0.0
  0
SPLINE
  5
55
330
1F
100
AcDbEntity
  8
Standard layer
 62
   250
370
     9
100
AcDbSpline
210
0.0
220
0.0
230
1.0
 70
    11
 71
     3
 72
    32
 73
    28
 74
     0
 42
0.0000000001
 43
0.0000000001
 40
0.0
 40
0.0
 40
0.0
 40
0.0
 40
0.125
 40
0.125
 40
0.125
 40
0.125
 40
0.25
 40
0.25
 40
0.25
 40
0.25
 40
0.375
 40
0.375
 40
0.375
 40
0.375
 40
0.5
 40
0.5
 40
0.5
 40
0.5
 40
0.625
 40
0.625
 40
0.625
 40
0.625
 40
0.75
 40
0.75
 40
0.75
 40
0.75
 40
1.0
 40
1.0
 40
1.0
 40
1.0
 10
-29.7785
 20
-21.6627
 30
0.0
 10
-29.7785
 20
-21.6627
 30
0.0
 10
-29.7785
 20
-21.6627
 30
0.0
 10
-29.7785
 20
-21.6627
 30
0.0
 10
-29.7785
 20
-21.6627
 30
0.0
 10
-29.7785
 20
-21.6627
 30
0.0
 10
-29.7785
 20
-21.6627
 30
0.0
 10
-29.7785
 20
-21.6627
 30
0.0
 10
-29.7785
 20
-21.6627
 30
0.0
 10
-29.7785
 20
-21.6627
 30
0.0
 10
-31.0513
 20
-22.1061
 30
0.0
 10
-31.0513
 20
-22.1061
 30
0.0
 10
-31.0513
 20
-22.1061
 30
0.0
 10
-31.0513
 20
-22.1061
 30
0.0
 10
-29.7785
 20
-22.5495
 30
0.0
 10
-29.7785
 20
-22.5495
 30
0.0
 10
-29.7785
 20
-22.5495
 30
0.0
 10
-29.7785
 20
-22.5495
 30
0.0
 10
-29.7785
 20
-22.5495
 30
0.0
 10
-29.7785
 20
-22.5495
 30
0.0
 10
-29.7785
 20
-22.5495
 30
0.0
 10
-29.7785
 20
-22.5495
 30
0.0
 10
-29.7785
 20
-22.5495
 30
0.0
 10
-29.7785
 20
-22.5495
 30
0.0
 10
-29.7785
 20
-22.5495
 30
0.0
 10
-29.7785
 20
-22.5495
 30
0.0
 10
-29.7785
 20
-21.6627
 30
0.0
 10
-29.7785
 20
-21.6627
 30
0.0
  0
SPLINE
  5
56
330
1F
100
AcDbEntity
  8
Standard layer
 62
   250
370
     9
100
AcDbSpline
210
0.0
220
0.0
230
1.0
 70
    11
 71
     3
 72
    32
 73
    28
 74
     0
 42
0.0000000001
 43
0.0000000001
 40
0.0
 40
0.0
 40
0.0
 40
0.0
 40
0.125
 40
0.125
 40
0.125
 40
0.125
 40
0.25
 40
0.25
 40
0.25
 40
0.25
 40
0.375
 40
0.375
 40
0.375
 40
0.375
 40
0.5
 40
0.5
 40
0.5
 40
0.5
 40
0.625
 40
0.625
 40
0.625
 40
0.625
 40
0.75
 40
0.75
 40
0.75
 40
0.75
 40
1.0
 40
1.0
 40
1.0
 40
1.0
 10
25.0648
 20
9.1872
 30
0.0
 10
25.0648
 20
9.1872
 30
0.0
 10
25.0648
 20
9.1872
 30
0.0
 10
25.0648
 20
9.1872
 30
0.0
 10
25.0648
 20
9.1872
 30
0.0
 10
25.0648
 20
9.1872
 30
0.0
 10
25.0648
 20
9.1872
 30
0.0
 10
25.0648
 20
9.1872
 30
0.0
 10
25.0648
 20
9.1872
 30
0.0
 10
25.0648
 20
9.1872
 30
0.0
 10
24.3143
 20
8.0676
 30
0.0
 10
24.3143
 20
8.0676
 30
0.0
 10
24.3143
 20
8.0676
 30
0.0
 10
24.3143
 20
8.0676
 30
0.0
 10
25.5979
 20
8.4785
 30
0.0
 10
25.5979
 20
8.4785
 30
0.0
 10
25.5979
 20
8.4785
 30
0.0
 10
25.5979
 20
8.4785
 30
0.0
 10
25.5979
 20
8.4785
 30
0.0
 10
25.5979
 20
8.4785
 30
0.0
 10
25.5979
 20
8.4785
 30
0.0
 10
25.5979
 20
8.4785
 30
0.0
 10
25.5979
 20
8.4785
 30
0.0
 10
25.5979
 20
8.4785
 30
0.0
 10
25.5979
 20
8.4785
 30
0.0
 10
25.5979
 20
8.4785
 30
0.0
 10
25.0648
 20
9.1872
 30
0.0
 10
25.0648
 20
9.1872
 30
0.0
  0
SPLINE
  5
57
330
1F
100
AcDbEntity
  8
Standard layer
 62
   250
370
     9
100
AcDbSpline
210
0.0
220
0.0
230
1.0
 70
    11
 71
     3
 72
    32
 73
    28
 74
     0
 42
0.0000000001
 43
0.0000000001
 40
0.0
 40
0.0
 40
0.0
 40
0.0
 40
0.125
 40
0.125
 40
0.125
 40
0.125
 40
0.25
 40
0.25
 40
0.25
 40
0.25
 40
0.375
 40
0.375
 40
0.375
 40
0.375
 40
0.5
 40
0.5
 40
0.5
 40
0.5
 40
0.625
 40
0.625
 40
0.625
 40
0.625
 40
0.75
 40
0.75
 40
0.75
 40
0.75
 40
1.0
 40
1.0
 40
1.0
 40
1.0
 10
20.4016
 20
24.3607
 30
0.0
 10
20.4016
 20
24.3607
 30
0.0
 10
20.4016
 20
24.3607
 30
0.0
 10
20.4016
 20
24.3607
 30
0.0
 10
20.4016
 20
24.3607
 30
0.0
 10
20.4016
 20
24.3607
 30
0.0
 10
20.4016
 20
24.3607
 30
0.0
 10
20.4016
 20
24.3607
 30
0.0
 10
20.4016
 20
24.3607
 30
0.0
 10
20.4016
 20
24.3607
 30
0.0
 10
19.802
 20
23.1536
 30
0.0
 10
19.802
 20
23.1536
 30
0.0
 10
19.802
 20
23.1536
 30
0.0
 10
19.802
 20
23.1536
 30
0.0
 10
21.0218
 20
23.7269
 30
0.0
 10
21.0218
 20
23.7269
 30
0.0
 10
21.0218
 20
23.7269
 30
0.0
 10
21.0218
 20
23.7269
 30
0.0
 10
21.0218
 20
23.7269
 30
0.0
 10
21.0218
 20
23.7269
 30
0.0
 10
21.0218
 20
23.7269
 30
0.0
 10
21.0218
 20
23.7269
 30
0.0
 10
21.0218
 20
23.7269
 30
0.0
 10
21.0218
 20
23.7269
 30
0.0
 10
21.0218
 20
23.7269
 30
0.0
 10
21.0218
 20
23.7269
 30
0.0
 10
20.4016
 20
24.3607
 30
0.0
 10
20.4016
 20
24.3607
 30
0.0
  0
SPLINE
  5
58
330
1F
100
AcDbEntity
  8
Standard layer
 62
   250
370
     9
100
AcDbSpline
210
0.0
220
0.0
230
1.0
 70
    11
 71
     3
 72
    32
 73
    28
 74
     0
 42
0.0000000001
 43
0.0000000001
 40
0.0
 40
0.0
 40
0.0
 40
0.0
 40
0.125
 40
0.125
 40
0.125
 40
0.125
 40
0.25
 40
0.25
 40
0.25
 40
0.25
 40
0.375
 40
0.375
 40
0.375
 40
0.375
 40
0.5
 40
0.5
 40
0.5
 40
0.5
 40
0.625
 40
0.625
 40
0.625
 40
0.625
 40
0.75
 40
0.75
 40
0.75
 40
0.75
 40
1.0
 40
1.0
 40
1.0
 40
1.0
 10
6.9822
 20
27.5108
 30
0.0
 10
6.9822
 20
27.5108
 30
0.0
 10
6.9822
 20
27.5108
 30
0.0
 10
6.9822
 20
27.5108
 30
0.0
 10
6.9822
 20
27.5108
 30
0.0
 10
6.9822
 20
27.5108
 30
0.0
 10
6.9822
 20
27.5108
 30
0.0
 10
6.9822
 20
27.5108
 30
0.0
 10
6.9822
 20
27.5108
 30
0.0
 10
6.9822
 20
27.5108
 30
0.0
 10
6.3826
 20
26.3037
 30
0.0
 10
6.3826
 20
26.3037
 30
0.0
 10
6.3826
 20
26.3037
 30
0.0
 10
6.3826
 20
26.3037
 30
0.0
 10
7.6024
 20
26.877
 30
0.0
 10
7.6024
 20
26.877
 30
0.0
 10
7.6024
 20
26.877
 30
0.0
 10
7.6024
 20
26.877
 30
0.0
 10
7.6024
 20
26.877
 30
0.0
 10
7.6024
 20
26.877
 30
0.0
 10
7.6024
 20
26.877
 30
0.0
 10
7.6024
 20
26.877
 30
0.0
 10
7.6024
 20
26.877
 30
0.0
 10
7.6024
 20
26.877
 30
0.0
 10
7.6024
 20
26.877
 30
0.0
 10
7.6024
 20
26.877
 30
0.0
 10
6.9822
 20
27.5108
 30
0.0
 10
6.9822
 20
27.5108
 30
0.0
  0
SPLINE
  5
59
330
1F
100
AcDbEntity
  8
Standard layer
 62
   250
370
     9
100
AcDbSpline
210
0.0
220
0.0
230
1.0
 70
    11
 71
     3
 72
    32
 73
    28
 74
     0
 42
0.0000000001
 43
0.0000000001
 40
0.0
 40
0.0
 40
0.0
 40
0.0
 40
0.125
 40
0.125
 40
0.125
 40
0.125
 40
0.25
 40
0.25
 40
0.25
 40
0.25
 40
0.375
 40
0.375
 40
0.375
 40
0.375
 40
0.5
 40
0.5
 40
0.5
 40
0.5
 40
0.625
 40
0.625
 40
0.625
 40
0.625
 40
0.75
 40
0.75
 40
0.75
 40
0.75
 40
1.0
 40
1.0
 40
1.0
 40
1.0
 10
37.4835
 20
-21.6608
 30
0.0
 10
37.4835
 20
-21.6608
 30
0.0
 10
37.4835
 20
-21.6608
 30
0.0
 10
37.4835
 20
-21.6608
 30
0.0
 10
37.4835
 20
-21.6608
 30
0.0
 10
37.4835
 20
-21.6608
 30
0.0
 10
37.4835
 20
-21.6608
 30
0.0
 10
37.4835
 20
-21.6608
 30
0.0
 10
37.4835
 20
-21.6608
 30
0.0
 10
37.4835
 20
-21.6608
 30
0.0
 10
38.7563
 20
-22.1042
 30
0.0
 10
38.7563
 20
-22.1042
 30
0.0
 10
38.7563
 20
-22.1042
 30
0.0
 10
38.7563
 20
-22.1042
 30
0.0
 10
37.4835
 20
-22.5476
 30
0.0
 10
37.4835
 20
-22.5476
 30
0.0
 10
37.4835
 20
-22.5476
 30
0.0
 10
37.4835
 20
-22.5476
 30
0.0
 10
37.4835
 20
-22.5476
 30
0.0
 10
37.4835
 20
-22.5476
 30
0.0
 10
37.4835
 20
-22.5476
 30
0.0
 10
37.4835
 20
-22.5476
 30
0.0
 10
37.4835
 20
-22.5476
 30
0.0
 10
37.4835
 20
-22.5476
 30
0.0
 10
37.4835
 20
-22.5476
 30
0.0
 10
37.4835
 20
-22.5476
 30
0.0
 10
37.4835
 20
-21.6608
 30
0.0
 10
37.4835
 20
-21.6608
 30
0.0
  0
SPLINE
  5
5A
330
1F
100
AcDbEntity
  8
Standard layer
 62
   250
370
     9
100
AcDbSpline
210
0.0
220
0.0
230
1.0
 70
    11
 71
     3
 72
    32
 73
    28
 74
     0
 42
0.0000000001
 43
0.0000000001
 40
0.0
 40
0.0
 40
0.0
 40
0.0
 40
0.125
 40
0.125
 40
0.125
 40
0.125
 40
0.25
 40
0.25
 40
0.25
 40
0.25
 40
0.375
 40
0.375
 40
0.375
 40
0.375
 40
0.5
 40
0.5
 40
0.5
 40
0.5
 40
0.625
 40
0.625
 40
0.625
 40
0.625
 40
0.75
 40
0.75
 40
0.75
 40
0.75
 40
1.0
 40
1.0
 40
1.0
 40
1.0
 10
19.0248
 20
4.238
 30
0.0
 10
19.0248
 20
4.238
 30
0.0
 10
19.0248
 20
4.238
 30
0.0
 10
19.0248
 20
4.238
 30
0.0
 10
19.0248
 20
4.238
 30
0.0
 10
19.0248
 20
4.238
 30
0.0
 10
19.0248
 20
4.238
 30
0.0
 10
19.0248
 20
4.238
 30
0.0
 10
19.0248
 20
4.238
 30
0.0
 10
19.0248
 20
4.238
 30
0.0
 10
20.3084
 20
4.6489
 30
0.0
 10
20.3084
 20
4.6489
 30
0.0
 10
20.3084
 20
4.6489
 30
0.0
 10
20.3084
 20
4.6489
 30
0.0
 10
19.5579
 20
3.5293
 30
0.0
 10
19.5579
 20
3.5293
 30
0.0
 10
19.5579
 20
3.5293
 30
0.0
 10
19.5579
 20
3.5293
 30
0.0
 10
19.5579
 20
3.5293
 30
0.0
 10
19.5579
 20
3.5293
 30
0.0
 10
19.5579
 20
3.5293
 30
0.0
 10
19.5579
 20
3.5293
 30
0.0
 10
19.5579
 20
3.5293
 30
0.0
 10
19.5579
 20
3.5293
 30
0.0
 10
19.5579
 20
3.5293
 30
0.0
 10
19.5579
 20
3.5293
 30
0.0
 10
19.0248
 20
4.238
 30
0.0
 10
19.0248
 20
4.238
 30
0.0
  0
SPLINE
  5
5B
330
1F
100
AcDbEntity
  8
Standard layer
 62
   250
370
     9
100
AcDbSpline
210
0.0
220
0.0
230
1.0
 70
    11
 71
     3
 72
    32
 73
    28
 74
     0
 42
0.0000000001
 43
0.0000000001
 40
0.0
 40
0.0
 40
0.0
 40
0.0
 40
0.125
 40
0.125
 40
0.125
 40
0.125
 40
0.25
 40
0.25
 40
0.25
 40
0.25
 40
0.375
 40
0.375
 40
0.375
 40
0.375
 40
0.5
 40
0.5
 40
0.5
 40
0.5
 40
0.625
 40
0.625
 40
0.625
 40
0.625
 40
0.75
 40
0.75
 40
0.75
 40
0.75
 40
1.0
 40
1.0
 40
1.0
 40
1.0
 10
-13.3169
 20
-10.9028
 30
0.0
 10
-13.3169
 20
-10.9028
 30
0.0
 10
-13.3169
 20
-10.9028
 30
0.0
 10
-13.3169
 20
-10.9028
 30
0.0
 10
-13.3169
 20
-10.9028
 30
0.0
 10
-13.3169
 20
-10.9028
 30
0.0
 10
-13.3169
 20
-10.9028
 30
0.0
 10
-13.3169
 20
-10.9028
 30
0.0
 10
-13.3169
 20
-10.9028
 30
0.0
 10
-13.3169
 20
-10.9028
 30
0.0
 10
-12.097
 20
-10.3295
 30
0.0
 10
-12.097
 20
-10.3295
 30
0.0
 10
-12.097
 20
-10.3295
 30
0.0
 10
-12.097
 20
-10.3295
 30
0.0
 10
-12.6967
 20
-11.5366
 30
0.0
 10
-12.6967
 20
-11.5366
 30
0.0
 10
-12.6967
 20
-11.5366
 30
0.0
 10
-12.6967
 20
-11.5366
 30
0.0
 10
-12.6967
 20
-11.5366
 30
0.0
 10
-12.6967
 20
-11.5366
 30
0.0
 10
-12.6967
 20
-11.5366
 30
0.0
 10
-12.6967
 20
-11.5366
 30
0.0
 10
-12.6967
 20
-11.5366
 30
0.0
 10
-12.6967
 20
-11.5366
 30
0.0
 10
-12.6967
 20
-11.5366
 30
0.0
 10
-12.6967
 20
-11.5366
 30
0.0
 10
-13.3169
 20
-10.9028
 30
0.0
 10
-13.3169
 20
-10.9028
 30
0.0
  0
SPLINE
  5
5C
330
1F
100
AcDbEntity
  8
Standard layer
 62
   250
370
     9
100
AcDbSpline
210
0.0
220
0.0
230
1.0
 70
    11
 71
     3
 72
    32
 73
    28
 74
     0
 42
0.0000000001
 43
0.0000000001
 40
0.0
 40
0.0
 40
0.0
 40
0.0
 40
0.125
 40
0.125
 40
0.125
 40
0.125
 40
0.25
 40
0.25
 40
0.25
 40
0.25
 40
0.375
 40
0.375
 40
0.375
 40
0.375
 40
0.5
 40
0.5
 40
0.5
 40
0.5
 40
0.625
 40
0.625
 40
0.625
 40
0.625
 40
0.75
 40
0.75
 40
0.75
 40
0.75
 40
1.0
 40
1.0
 40
1.0
 40
1.0
 10
-0.0712
 20
20.7727
 30
0.0
 10
-0.0712
 20
20.7727
 30
0.0
 10
-0.0712
 20
20.7727
 30
0.0
 10
-0.0712
 20
20.7727
 30
0.0
 10
-0.0712
 20
20.7727
 30
0.0
 10
-0.0712
 20
20.7727
 30
0.0
 10
-0.0712
 20
20.7727
 30
0.0
 10
-0.0712
 20
20.7727
 30
0.0
 10
-0.0712
 20
20.7727
 30
0.0
 10
-0.0712
 20
20.7727
 30
0.0
 10
1.1487
 20
21.346
 30
0.0
 10
1.1487
 20
21.346
 30
0.0
 10
1.1487
 20
21.346
 30
0.0
 10
1.1487
 20
21.346
 30
0.0
 10
0.549
 20
20.1389
 30
0.0
 10
0.549
 20
20.1389
 30
0.0
 10
0.549
 20
20.1389
 30
0.0
 10
0.549
 20
20.1389
 30
0.0
 10
0.549
 20
20.1389
 30
0.0
 10
0.549
 20
20.1389
 30
0.0
 10
0.549
 20
20.1389
 30
0.0
 10
0.549
 20
20.1389
 30
0.0
 10
0.549
 20
20.1389
 30
0.0
 10
0.549
 20
20.1389
 30
0.0
 10
0.549
 20
20.1389
 30
0.0
 10
0.549
 20
20.1389
 30
0.0
 10
-0.0712
 20
20.7727
 30
0.0
 10
-0.0712
 20
20.7727
 30
0.0
  0
SPLINE
  5
5D
330
1F
100
AcDbEntity
  8
Standard layer
 62
   250
100
AcDbSpline
210
0.0
220
0.0
230
1.0
 70
    11
 71
     3
 72
    56
 73
    52
 74
     0
 42
0.0000000001
 43
0.0000000001
 40
0.0
 40
0.0
 40
0.0
 40
0.0
 40
0.0714285714285714
 40
0.0714285714285714
 40
0.0714285714285714
 40
0.0714285714285714
 40
0.1428571428571428
 40
0.1428571428571428
 40
0.1428571428571428
 40
0.1428571428571428
 40
0.2142857142857143
 40
0.2142857142857143
 40
0.2142857142857143
 40
0.2142857142857143
 40
0.2857142857142857
 40
0.2857142857142857
 40
0.2857142857142857
 40
0.2857142857142857
 40
0.3571428571428572
 40
0.3571428571428572
 40
0.3571428571428572
 40
0.3571428571428572
 40
0.4285714285714285
 40
0.4285714285714285
 40
0.4285714285714285
 40
0.4285714285714285
 40
0.5
 40
0.5
 40
0.5
 40
0.5
 40
0.5714285714285714
 40
0.5714285714285714
 40
0.5714285714285714
 40
0.5714285714285714
 40
0.6428571428571429
 40
0.6428571428571429
 40
0.6428571428571429
 40
0.6428571428571429
 40
0.7142857142857143
 40
0.7142857142857143
 40
0.7142857142857143
 40
0.7142857142857143
 40
0.7857142857142857
 40
0.7857142857142857
 40
0.7857142857142857
 40
0.7857142857142857
 40
0.8571428571428571
 40
0.8571428571428571
 40
0.8571428571428571
 40
0.8571428571428571
 40
1.0
 40
1.0
 40
1.0
 40
1.0
 10
-37.5799
 20
-30.0106
 30
0.0
 10
-37.5799
 20
-30.1393
 30
0.0
 10
-37.5514
 20
-30.257
 30
0.0
 10
-37.4945
 20
-30.3644
 30
0.0
 10
-37.4945
 20
-30.3644
 30
0.0
 10
-37.4376
 20
-30.4717
 30
0.0
 10
-37.3542
 20
-30.5642
 30
0.0
 10
-37.2429
 20
-30.6431
 30
0.0
 10
-37.2429
 20
-30.6431
 30
0.0
 10
-37.1317
 20
-30.722
 30
0.0
 10
-36.9946
 20
-30.7828
 30
0.0
 10
-36.8316
 20
-30.8262
 30
0.0
 10
-36.8316
 20
-30.8262
 30
0.0
 10
-36.6686
 20
-30.8689
 30
0.0
 10
-36.481
 20
-30.8909
 30
0.0
 10
-36.2682
 20
-30.8915
 30
0.0
 10
-36.2682
 20
-30.8915
 30
0.0
 10
-35.9895
 20
-30.8876
 30
0.0
 10
-35.7541
 20
-30.8508
 30
0.0
 10
-35.5613
 20
-30.7803
 30
0.0
 10
-35.5613
 20
-30.7803
 30
0.0
 10
-35.3686
 20
-30.7098
 30
0.0
 10
-35.2224
 20
-30.6121
 30
0.0
 10
-35.1228
 20
-30.4879
 30
0.0
 10
-35.1228
 20
-30.4879
 30
0.0
 10
-35.0232
 20
-30.3637
 30
0.0
 10
-34.9728
 20
-30.2189
 30
0.0
 10
-34.9721
 20
-30.0533
 30
0.0
 10
-34.9721
 20
-30.0533
 30
0.0
 10
-34.9728
 20
-29.8677
 30
0.0
 10
-35.0245
 20
-29.7099
 30
0.0
 10
-35.1267
 20
-29.5792
 30
0.0
 10
-35.1267
 20
-29.5792
 30
0.0
 10
-35.2289
 20
-29.4486
 30
0.0
 10
-35.3789
 20
-29.349
 30
0.0
 10
-35.5768
 20
-29.2804
 30
0.0
 10
-35.5768
 20
-29.2804
 30
0.0
 10
-35.7748
 20
-29.2112
 30
0.0
 10
-36.0166
 20
-29.1769
 30
0.0
 10
-36.3032
 20
-29.1763
 30
0.0
 10
-36.3032
 20
-29.1763
 30
0.0
 10
-36.5716
 20
-29.1769
 30
0.0
 10
-36.8012
 20
-29.2099
 30
0.0
 10
-36.9913
 20
-29.2752
 30
0.0
 10
-36.9913
 20
-29.2752
 30
0.0
 10
-37.1815
 20
-29.3406
 30
0.0
 10
-37.327
 20
-29.4356
 30
0.0
 10
-37.4272
 20
-29.5598
 30
0.0
 10
-37.4272
 20
-29.5598
 30
0.0
 10
-37.5281
 20
-29.684
 30
0.0
 10
-37.5792
 20
-29.834
 30
0.0
 10
-37.5799
 20
-30.0106
 30
0.0
  0
SPLINE
  5
5E
330
1F
100
AcDbEntity
  8
Standard layer
 62
   250
100
AcDbSpline
210
0.0
220
0.0
230
1.0
 70
    11
 71
     3
 72
    56
 73
    52
 74
     0
 42
0.0000000001
 43
0.0000000001
 40
0.0
 40
0.0
 40
0.0
 40
0.0
 40
0.0714285714285714
 40
0.0714285714285714
 40
0.0714285714285714
 40
0.0714285714285714
 40
0.1428571428571428
 40
0.1428571428571428
 40
0.1428571428571428
 40
0.1428571428571428
 40
0.2142857142857143
 40
0.2142857142857143
 40
0.2142857142857143
 40
0.2142857142857143
 40
0.2857142857142857
 40
0.2857142857142857
 40
0.2857142857142857
 40
0.2857142857142857
 40
0.3571428571428572
 40
0.3571428571428572
 40
0.3571428571428572
 40
0.3571428571428572
 40
0.4285714285714285
 40
0.4285714285714285
 40
0.4285714285714285
 40
0.4285714285714285
 40
0.5
 40
0.5
 40
0.5
 40
0.5
 40
0.5714285714285714
 40
0.5714285714285714
 40
0.5714285714285714
 40
0.5714285714285714
 40
0.6428571428571429
 40
0.6428571428571429
 40
0.6428571428571429
 40
0.6428571428571429
 40
0.7142857142857143
 40
0.7142857142857143
 40
0.7142857142857143
 40
0.7142857142857143
 40
0.7857142857142857
 40
0.7857142857142857
 40
0.7857142857142857
 40
0.7857142857142857
 40
0.8571428571428571
 40
0.8571428571428571
 40
0.8571428571428571
 40
0.8571428571428571
 40
1.0
 40
1.0
 40
1.0
 40
1.0
 10
-37.316
 20
-30.0339
 30
0.0
 10
-37.3153
 20
-29.9446
 30
0.0
 10
-37.2914
 20
-29.8677
 30
0.0
 10
-37.2429
 20
-29.803
 30
0.0
 10
-37.2429
 20
-29.803
 30
0.0
 10
-37.1944
 20
-29.7383
 30
0.0
 10
-37.1252
 20
-29.6853
 30
0.0
 10
-37.0347
 20
-29.6439
 30
0.0
 10
-37.0347
 20
-29.6439
 30
0.0
 10
-36.9448
 20
-29.6025
 30
0.0
 10
-36.8361
 20
-29.5714
 30
0.0
 10
-36.7106
 20
-29.5514
 30
0.0
 10
-36.7106
 20
-29.5514
 30
0.0
 10
-36.5845
 20
-29.5313
 30
0.0
 10
-36.4435
 20
-29.5216
 30
0.0
 10
-36.2876
 20
-29.5216
 30
0.0
 10
-36.2876
 20
-29.5216
 30
0.0
 10
-36.0716
 20
-29.5216
 30
0.0
 10
-35.8853
 20
-29.5404
 30
0.0
 10
-35.7288
 20
-29.5779
 30
0.0
 10
-35.7288
 20
-29.5779
 30
0.0
 10
-35.5717
 20
-29.6148
 30
0.0
 10
-35.4507
 20
-29.6717
 30
0.0
 10
-35.3653
 20
-29.7474
 30
0.0
 10
-35.3653
 20
-29.7474
 30
0.0
 10
-35.28
 20
-29.823
 30
0.0
 10
-35.2373
 20
-29.9188
 30
0.0
 10
-35.236
 20
-30.0339
 30
0.0
 10
-35.236
 20
-30.0339
 30
0.0
 10
-35.2366
 20
-30.138
 30
0.0
 10
-35.2767
 20
-30.2279
 30
0.0
 10
-35.3569
 20
-30.3049
 30
0.0
 10
-35.3569
 20
-30.3049
 30
0.0
 10
-35.4371
 20
-30.3812
 30
0.0
 10
-35.5536
 20
-30.4401
 30
0.0
 10
-35.7062
 20
-30.4821
 30
0.0
 10
-35.7062
 20
-30.4821
 30
0.0
 10
-35.8595
 20
-30.5241
 30
0.0
 10
-36.0451
 20
-30.5455
 30
0.0
 10
-36.2644
 20
-30.5461
 30
0.0
 10
-36.2644
 20
-30.5461
 30
0.0
 10
-36.494
 20
-30.5455
 30
0.0
 10
-36.686
 20
-30.5228
 30
0.0
 10
-36.8426
 20
-30.4789
 30
0.0
 10
-36.8426
 20
-30.4789
 30
0.0
 10
-36.9984
 20
-30.4349
 30
0.0
 10
-37.1161
 20
-30.3747
 30
0.0
 10
-37.1963
 20
-30.2978
 30
0.0
 10
-37.1963
 20
-30.2978
 30
0.0
 10
-37.2759
 20
-30.2208
 30
0.0
 10
-37.316
 20
-30.1328
 30
0.0
 10
-37.316
 20
-30.0339
 30
0.0
  0
SPLINE
  5
5F
330
1F
100
AcDbEntity
  8
Standard layer
 62
   250
100
AcDbSpline
210
0.0
220
0.0
230
1.0
 70
    11
 71
     3
 72
    44
 73
    40
 74
     0
 42
0.0000000001
 43
0.0000000001
 40
0.0
 40
0.0
 40
0.0
 40
0.0
 40
0.0909090909090909
 40
0.0909090909090909
 40
0.0909090909090909
 40
0.0909090909090909
 40
0.1818181818181818
 40
0.1818181818181818
 40
0.1818181818181818
 40
0.1818181818181818
 40
0.2727272727272727
 40
0.2727272727272727
 40
0.2727272727272727
 40
0.2727272727272727
 40
0.3636363636363636
 40
0.3636363636363636
 40
0.3636363636363636
 40
0.3636363636363636
 40
0.4545454545454545
 40
0.4545454545454545
 40
0.4545454545454545
 40
0.4545454545454545
 40
0.5454545454545454
 40
0.5454545454545454
 40
0.5454545454545454
 40
0.5454545454545454
 40
0.6363636363636364
 40
0.6363636363636364
 40
0.6363636363636364
 40
0.6363636363636364
 40
0.7272727272727273
 40
0.7272727272727273
 40
0.7272727272727273
 40
0.7272727272727273
 40
0.8181818181818182
 40
0.8181818181818182
 40
0.8181818181818182
 40
0.8181818181818182
 40
1.0
 40
1.0
 40
1.0
 40
1.0
 10
-34.5608
 20
-28.7378
 30
0.0
 10
-34.6073
 20
-28.71
 30
0.0
 10
-34.6668
 20
-28.6803
 30
0.0
 10
-34.7386
 20
-28.6466
 30
0.0
 10
-34.7386
 20
-28.6466
 30
0.0
 10
-34.8111
 20
-28.6136
 30
0.0
 10
-34.89
 20
-28.58
 30
0.0
 10
-34.9773
 20
-28.5457
 30
0.0
 10
-34.9773
 20
-28.5457
 30
0.0
 10
-35.064
 20
-28.5114
 30
0.0
 10
-35.1526
 20
-28.4785
 30
0.0
 10
-35.2431
 20
-28.4474
 30
0.0
 10
-35.2431
 20
-28.4474
 30
0.0
 10
-35.3337
 20
-28.4164
 30
0.0
 10
-35.4203
 20
-28.3892
 30
0.0
 10
-35.5038
 20
-28.3653
 30
0.0
 10
-35.5038
 20
-28.3653
 30
0.0
 10
-35.5038
 20
-28.3653
 30
0.0
 10
-35.4649
 20
-28.7456
 30
0.0
 10
-35.4649
 20
-28.7456
 30
0.0
 10
-35.4649
 20
-28.7456
 30
0.0
 10
-35.3932
 20
-28.7566
 30
0.0
 10
-35.3162
 20
-28.7708
 30
0.0
 10
-35.2328
 20
-28.7876
 30
0.0
 10
-35.2328
 20
-28.7876
 30
0.0
 10
-35.1493
 20
-28.8051
 30
0.0
 10
-35.0652
 20
-28.8245
 30
0.0
 10
-34.9805
 20
-28.8458
 30
0.0
 10
-34.9805
 20
-28.8458
 30
0.0
 10
-34.8951
 20
-28.8672
 30
0.0
 10
-34.8143
 20
-28.8892
 30
0.0
 10
-34.7373
 20
-28.9118
 30
0.0
 10
-34.7373
 20
-28.9118
 30
0.0
 10
-34.6604
 20
-28.9344
 30
0.0
 10
-34.5925
 20
-28.9571
 30
0.0
 10
-34.5336
 20
-28.9784
 30
0.0
 10
-34.5336
 20
-28.9784
 30
0.0
 10
-34.5336
 20
-28.9784
 30
0.0
 10
-34.5608
 20
-28.7378
 30
0.0
 10
-34.5608
 20
-28.7378
 30
0.0
  0
SPLINE
  5
60
330
1F
100
AcDbEntity
  8
Standard layer
 62
   250
100
AcDbSpline
210
0.0
220
0.0
230
1.0
 70
    11
 71
     3
 72
   124
 73
   120
 74
     0
 42
0.0000000001
 43
0.0000000001
 40
0.0
 40
0.0
 40
0.0
 40
0.0
 40
0.032258064516129
 40
0.032258064516129
 40
0.032258064516129
 40
0.032258064516129
 40
0.0645161290322581
 40
0.0645161290322581
 40
0.0645161290322581
 40
0.0645161290322581
 40
0.0967741935483871
 40
0.0967741935483871
 40
0.0967741935483871
 40
0.0967741935483871
 40
0.1290322580645161
 40
0.1290322580645161
 40
0.1290322580645161
 40
0.1290322580645161
 40
0.1612903225806452
 40
0.1612903225806452
 40
0.1612903225806452
 40
0.1612903225806452
 40
0.1935483870967742
 40
0.1935483870967742
 40
0.1935483870967742
 40
0.1935483870967742
 40
0.2258064516129032
 40
0.2258064516129032
 40
0.2258064516129032
 40
0.2258064516129032
 40
0.2580645161290323
 40
0.2580645161290323
 40
0.2580645161290323
 40
0.2580645161290323
 40
0.2903225806451613
 40
0.2903225806451613
 40
0.2903225806451613
 40
0.2903225806451613
 40
0.3225806451612903
 40
0.3225806451612903
 40
0.3225806451612903
 40
0.3225806451612903
 40
0.3548387096774194
 40
0.3548387096774194
 40
0.3548387096774194
 40
0.3548387096774194
 40
0.3870967741935484
 40
0.3870967741935484
 40
0.3870967741935484
 40
0.3870967741935484
 40
0.4193548387096774
 40
0.4193548387096774
 40
0.4193548387096774
 40
0.4193548387096774
 40
0.4516129032258064
 40
0.4516129032258064
 40
0.4516129032258064
 40
0.4516129032258064
 40
0.4838709677419355
 40
0.4838709677419355
 40
0.4838709677419355
 40
0.4838709677419355
 40
0.5161290322580645
 40
0.5161290322580645
 40
0.5161290322580645
 40
0.5161290322580645
 40
0.5483870967741935
 40
0.5483870967741935
 40
0.5483870967741935
 40
0.5483870967741935
 40
0.5806451612903226
 40
0.5806451612903226
 40
0.5806451612903226
 40
0.5806451612903226
 40
0.6129032258064516
 40
0.6129032258064516
 40
0.6129032258064516
 40
0.6129032258064516
 40
0.6451612903225806
 40
0.6451612903225806
 40
0.6451612903225806
 40
0.6451612903225806
 40
0.6774193548387096
 40
0.6774193548387096
 40
0.6774193548387096
 40
0.6774193548387096
 40
0.7096774193548387
 40
0.7096774193548387
 40
0.7096774193548387
 40
0.7096774193548387
 40
0.7419354838709677
 40
0.7419354838709677
 40
0.7419354838709677
 40
0.7419354838709677
 40
0.7741935483870968
 40
0.7741935483870968
 40
0.7741935483870968
 40
0.7741935483870968
 40
0.8064516129032258
 40
0.8064516129032258
 40
0.8064516129032258
 40
0.8064516129032258
 40
0.8387096774193549
 40
0.8387096774193549
 40
0.8387096774193549
 40
0.8387096774193549
 40
0.8709677419354839
 40
0.8709677419354839
 40
0.8709677419354839
 40
0.8709677419354839
 40
0.9032258064516129
 40
0.9032258064516129
 40
0.9032258064516129
 40
0.9032258064516129
 40
0.9354838709677419
 40
0.9354838709677419
 40
0.9354838709677419
 40
0.9354838709677419
 40
1.0
 40
1.0
 40
1.0
 40
1.0
 10
-36.3303
 20
-27.593
 30
0.0
 10
-36.2863
 20
-27.6971
 30
0.0
 10
-36.2314
 20
-27.7864
 30
0.0
 10
-36.1667
 20
-27.8608
 30
0.0
 10
-36.1667
 20
-27.8608
 30
0.0
 10
-36.1014
 20
-27.9352
 30
0.0
 10
-36.0257
 20
-27.9927
 30
0.0
 10
-35.9397
 20
-28.0328
 30
0.0
 10
-35.9397
 20
-28.0328
 30
0.0
 10
-35.8537
 20
-28.0729
 30
0.0
 10
-35.7573
 20
-28.093
 30
0.0
 10
-35.6512
 20
-28.0936
 30
0.0
 10
-35.6512
 20
-28.0936
 30
0.0
 10
-35.5581
 20
-28.093
 30
0.0
 10
-35.4714
 20
-28.0742
 30
0.0
 10
-35.3893
 20
-28.0354
 30
0.0
 10
-35.3893
 20
-28.0354
 30
0.0
 10
-35.3078
 20
-27.9972
 30
0.0
 10
-35.236
 20
-27.9416
 30
0.0
 10
-35.1733
 20
-27.8685
 30
0.0
 10
-35.1733
 20
-27.8685
 30
0.0
 10
-35.1112
 20
-27.7955
 30
0.0
 10
-35.062
 20
-27.7069
 30
0.0
 10
-35.0264
 20
-27.6027
 30
0.0
 10
-35.0264
 20
-27.6027
 30
0.0
 10
-34.9909
 20
-27.4979
 30
0.0
 10
-34.9728
 20
-27.3796
 30
0.0
 10
-34.9721
 20
-27.2476
 30
0.0
 10
-34.9721
 20
-27.2476
 30
0.0
 10
-34.9728
 20
-27.1267
 30
0.0
 10
-34.9902
 20
-27.0142
 30
0.0
 10
-35.0245
 20
-26.9107
 30
0.0
 10
-35.0245
 20
-26.9107
 30
0.0
 10
-35.0588
 20
-26.8072
 30
0.0
 10
-35.1086
 20
-26.716
 30
0.0
 10
-35.1733
 20
-26.6384
 30
0.0
 10
-35.1733
 20
-26.6384
 30
0.0
 10
-35.2373
 20
-26.5608
 30
0.0
 10
-35.3143
 20
-26.5
 30
0.0
 10
-35.4042
 20
-26.4567
 30
0.0
 10
-35.4042
 20
-26.4567
 30
0.0
 10
-35.4941
 20
-26.4127
 30
0.0
 10
-35.5943
 20
-26.3907
 30
0.0
 10
-35.7055
 20
-26.39
 30
0.0
 10
-35.7055
 20
-26.39
 30
0.0
 10
-35.8064
 20
-26.3907
 30
0.0
 10
-35.8983
 20
-26.4114
 30
0.0
 10
-35.9817
 20
-26.4521
 30
0.0
 10
-35.9817
 20
-26.4521
 30
0.0
 10
-36.0645
 20
-26.4929
 30
0.0
 10
-36.1376
 20
-26.5511
 30
0.0
 10
-36.2003
 20
-26.6268
 30
0.0
 10
-36.2003
 20
-26.6268
 30
0.0
 10
-36.2637
 20
-26.7024
 30
0.0
 10
-36.3161
 20
-26.793
 30
0.0
 10
-36.3575
 20
-26.8984
 30
0.0
 10
-36.3575
 20
-26.8984
 30
0.0
 10
-36.3575
 20
-26.8984
 30
0.0
 10
-36.3691
 20
-26.8984
 30
0.0
 10
-36.3691
 20
-26.8984
 30
0.0
 10
-36.3691
 20
-26.8984
 30
0.0
 10
-36.4176
 20
-26.7956
 30
0.0
 10
-36.4739
 20
-26.7134
 30
0.0
 10
-36.5386
 20
-26.652
 30
0.0
 10
-36.5386
 20
-26.652
 30
0.0
 10
-36.6026
 20
-26.5905
 30
0.0
 10
-36.6712
 20
-26.5459
 30
0.0
 10
-36.743
 20
-26.5187
 30
0.0
 10
-36.743
 20
-26.5187
 30
0.0
 10
-36.8154
 20
-26.4922
 30
0.0
 10
-36.8872
 20
-26.4786
 30
0.0
 10
-36.959
 20
-26.4793
 30
0.0
 10
-36.959
 20
-26.4793
 30
0.0
 10
-37.0392
 20
-26.4793
 30
0.0
 10
-37.1168
 20
-26.4948
 30
0.0
 10
-37.1905
 20
-26.5259
 30
0.0
 10
-37.1905
 20
-26.5259
 30
0.0
 10
-37.2643
 20
-26.5569
 30
0.0
 10
-37.3302
 20
-26.6028
 30
0.0
 10
-37.3891
 20
-26.6643
 30
0.0
 10
-37.3891
 20
-26.6643
 30
0.0
 10
-37.4473
 20
-26.7264
 30
0.0
 10
-37.4939
 20
-26.8033
 30
0.0
 10
-37.5275
 20
-26.8952
 30
0.0
 10
-37.5275
 20
-26.8952
 30
0.0
 10
-37.5618
 20
-26.987
 30
0.0
 10
-37.5792
 20
-27.0944
 30
0.0
 10
-37.5799
 20
-27.2166
 30
0.0
 10
-37.5799
 20
-27.2166
 30
0.0
 10
-37.5792
 20
-27.3285
 30
0.0
 10
-37.5631
 20
-27.4326
 30
0.0
 10
-37.5314
 20
-27.5271
 30
0.0
 10
-37.5314
 20
-27.5271
 30
0.0
 10
-37.499
 20
-27.6221
 30
0.0
 10
-37.4538
 20
-27.7049
 30
0.0
 10
-37.3943
 20
-27.7761
 30
0.0
 10
-37.3943
 20
-27.7761
 30
0.0
 10
-37.3348
 20
-27.8466
 30
0.0
 10
-37.2643
 20
-27.9015
 30
0.0
 10
-37.1821
 20
-27.941
 30
0.0
 10
-37.1821
 20
-27.941
 30
0.0
 10
-37.1
 20
-27.9798
 30
0.0
 10
-37.0088
 20
-27.9998
 30
0.0
 10
-36.9085
 20
-28.0005
 30
0.0
 10
-36.9085
 20
-28.0005
 30
0.0
 10
-36.8354
 20
-28.0005
 30
0.0
 10
-36.7643
 20
-27.9869
 30
0.0
 10
-36.6945
 20
-27.9584
 30
0.0
 10
-36.6945
 20
-27.9584
 30
0.0
 10
-36.6246
 20
-27.9306
 30
0.0
 10
-36.5593
 20
-27.8867
 30
0.0
 10
-36.4991
 20
-27.8271
 30
0.0
 10
-36.4991
 20
-27.8271
 30
0.0
 10
-36.439
 20
-27.7676
 30
0.0
 10
-36.3866
 20
-27.6913
 30
0.0
 10
-36.342
 20
-27.5969
 30
0.0
 10
-36.342
 20
-27.5969
 30
0.0
 10
-36.342
 20
-27.5969
 30
0.0
 10
-36.3303
 20
-27.593
 30
0.0
 10
-36.3303
 20
-27.593
 30
0.0
  0
SPLINE
  5
61
330
1F
100
AcDbEntity
  8
Standard layer
 62
   250
100
AcDbSpline
210
0.0
220
0.0
230
1.0
 70
    11
 71
     3
 72
    56
 73
    52
 74
     0
 42
0.0000000001
 43
0.0000000001
 40
0.0
 40
0.0
 40
0.0
 40
0.0
 40
0.0714285714285714
 40
0.0714285714285714
 40
0.0714285714285714
 40
0.0714285714285714
 40
0.1428571428571428
 40
0.1428571428571428
 40
0.1428571428571428
 40
0.1428571428571428
 40
0.2142857142857143
 40
0.2142857142857143
 40
0.2142857142857143
 40
0.2142857142857143
 40
0.2857142857142857
 40
0.2857142857142857
 40
0.2857142857142857
 40
0.2857142857142857
 40
0.3571428571428572
 40
0.3571428571428572
 40
0.3571428571428572
 40
0.3571428571428572
 40
0.4285714285714285
 40
0.4285714285714285
 40
0.4285714285714285
 40
0.4285714285714285
 40
0.5
 40
0.5
 40
0.5
 40
0.5
 40
0.5714285714285714
 40
0.5714285714285714
 40
0.5714285714285714
 40
0.5714285714285714
 40
0.6428571428571429
 40
0.6428571428571429
 40
0.6428571428571429
 40
0.6428571428571429
 40
0.7142857142857143
 40
0.7142857142857143
 40
0.7142857142857143
 40
0.7142857142857143
 40
0.7857142857142857
 40
0.7857142857142857
 40
0.7857142857142857
 40
0.7857142857142857
 40
0.8571428571428571
 40
0.8571428571428571
 40
0.8571428571428571
 40
0.8571428571428571
 40
1.0
 40
1.0
 40
1.0
 40
1.0
 10
-35.2205
 20
-27.2399
 30
0.0
 10
-35.2211
 20
-27.3207
 30
0.0
 10
-35.2341
 20
-27.3925
 30
0.0
 10
-35.2593
 20
-27.4559
 30
0.0
 10
-35.2593
 20
-27.4559
 30
0.0
 10
-35.2851
 20
-27.5199
 30
0.0
 10
-35.3201
 20
-27.5736
 30
0.0
 10
-35.3647
 20
-27.6176
 30
0.0
 10
-35.3647
 20
-27.6176
 30
0.0
 10
-35.4087
 20
-27.6609
 30
0.0
 10
-35.4598
 20
-27.6939
 30
0.0
 10
-35.5167
 20
-27.7159
 30
0.0
 10
-35.5167
 20
-27.7159
 30
0.0
 10
-35.5736
 20
-27.7372
 30
0.0
 10
-35.6344
 20
-27.747
 30
0.0
 10
-35.6978
 20
-27.7444
 30
0.0
 10
-35.6978
 20
-27.7444
 30
0.0
 10
-35.7786
 20
-27.7444
 30
0.0
 10
-35.853
 20
-27.7269
 30
0.0
 10
-35.9216
 20
-27.692
 30
0.0
 10
-35.9216
 20
-27.692
 30
0.0
 10
-35.9901
 20
-27.6577
 30
0.0
 10
-36.0503
 20
-27.6066
 30
0.0
 10
-36.1014
 20
-27.5393
 30
0.0
 10
-36.1014
 20
-27.5393
 30
0.0
 10
-36.1525
 20
-27.4714
 30
0.0
 10
-36.1926
 20
-27.3886
 30
0.0
 10
-36.2217
 20
-27.2903
 30
0.0
 10
-36.2217
 20
-27.2903
 30
0.0
 10
-36.19
 20
-27.1759
 30
0.0
 10
-36.1505
 20
-27.0775
 30
0.0
 10
-36.1027
 20
-26.9948
 30
0.0
 10
-36.1027
 20
-26.9948
 30
0.0
 10
-36.0554
 20
-26.912
 30
0.0
 10
-35.9966
 20
-26.8479
 30
0.0
 10
-35.9267
 20
-26.8033
 30
0.0
 10
-35.9267
 20
-26.8033
 30
0.0
 10
-35.8562
 20
-26.7587
 30
0.0
 10
-35.7709
 20
-26.7361
 30
0.0
 10
-35.6706
 20
-26.7354
 30
0.0
 10
-35.6706
 20
-26.7354
 30
0.0
 10
-35.5833
 20
-26.7361
 30
0.0
 10
-35.5057
 20
-26.7568
 30
0.0
 10
-35.4384
 20
-26.7981
 30
0.0
 10
-35.4384
 20
-26.7981
 30
0.0
 10
-35.3712
 20
-26.8395
 30
0.0
 10
-35.3181
 20
-26.8977
 30
0.0
 10
-35.2793
 20
-26.9728
 30
0.0
 10
-35.2793
 20
-26.9728
 30
0.0
 10
-35.2405
 20
-27.0478
 30
0.0
 10
-35.2211
 20
-27.137
 30
0.0
 10
-35.2205
 20
-27.2399
 30
0.0
  0
SPLINE
  5
62
330
1F
100
AcDbEntity
  8
Standard layer
 62
   250
100
AcDbSpline
210
0.0
220
0.0
230
1.0
 70
    11
 71
     3
 72
    56
 73
    52
 74
     0
 42
0.0000000001
 43
0.0000000001
 40
0.0
 40
0.0
 40
0.0
 40
0.0
 40
0.0714285714285714
 40
0.0714285714285714
 40
0.0714285714285714
 40
0.0714285714285714
 40
0.1428571428571428
 40
0.1428571428571428
 40
0.1428571428571428
 40
0.1428571428571428
 40
0.2142857142857143
 40
0.2142857142857143
 40
0.2142857142857143
 40
0.2142857142857143
 40
0.2857142857142857
 40
0.2857142857142857
 40
0.2857142857142857
 40
0.2857142857142857
 40
0.3571428571428572
 40
0.3571428571428572
 40
0.3571428571428572
 40
0.3571428571428572
 40
0.4285714285714285
 40
0.4285714285714285
 40
0.4285714285714285
 40
0.4285714285714285
 40
0.5
 40
0.5
 40
0.5
 40
0.5
 40
0.5714285714285714
 40
0.5714285714285714
 40
0.5714285714285714
 40
0.5714285714285714
 40
0.6428571428571429
 40
0.6428571428571429
 40
0.6428571428571429
 40
0.6428571428571429
 40
0.7142857142857143
 40
0.7142857142857143
 40
0.7142857142857143
 40
0.7142857142857143
 40
0.7857142857142857
 40
0.7857142857142857
 40
0.7857142857142857
 40
0.7857142857142857
 40
0.8571428571428571
 40
0.8571428571428571
 40
0.8571428571428571
 40
0.8571428571428571
 40
1.0
 40
1.0
 40
1.0
 40
1.0
 10
-37.3354
 20
-27.236
 30
0.0
 10
-37.3348
 20
-27.1597
 30
0.0
 10
-37.3231
 20
-27.0944
 30
0.0
 10
-37.2998
 20
-27.04
 30
0.0
 10
-37.2998
 20
-27.04
 30
0.0
 10
-37.2765
 20
-26.9857
 30
0.0
 10
-37.2449
 20
-26.9417
 30
0.0
 10
-37.2054
 20
-26.9074
 30
0.0
 10
-37.2054
 20
-26.9074
 30
0.0
 10
-37.1659
 20
-26.8738
 30
0.0
 10
-37.122
 20
-26.8486
 30
0.0
 10
-37.0735
 20
-26.8324
 30
0.0
 10
-37.0735
 20
-26.8324
 30
0.0
 10
-37.025
 20
-26.8169
 30
0.0
 10
-36.9751
 20
-26.8091
 30
0.0
 10
-36.9241
 20
-26.8091
 30
0.0
 10
-36.9241
 20
-26.8091
 30
0.0
 10
-36.8477
 20
-26.8098
 30
0.0
 10
-36.7798
 20
-26.8266
 30
0.0
 10
-36.7203
 20
-26.8602
 30
0.0
 10
-36.7203
 20
-26.8602
 30
0.0
 10
-36.6602
 20
-26.8939
 30
0.0
 10
-36.6091
 20
-26.9391
 30
0.0
 10
-36.567
 20
-26.9973
 30
0.0
 10
-36.567
 20
-26.9973
 30
0.0
 10
-36.5244
 20
-27.0549
 30
0.0
 10
-36.4907
 20
-27.1202
 30
0.0
 10
-36.4661
 20
-27.1933
 30
0.0
 10
-36.4661
 20
-27.1933
 30
0.0
 10
-36.492
 20
-27.291
 30
0.0
 10
-36.525
 20
-27.3757
 30
0.0
 10
-36.5651
 20
-27.4481
 30
0.0
 10
-36.5651
 20
-27.4481
 30
0.0
 10
-36.6058
 20
-27.5206
 30
0.0
 10
-36.6563
 20
-27.5769
 30
0.0
 10
-36.7164
 20
-27.6163
 30
0.0
 10
-36.7164
 20
-27.6163
 30
0.0
 10
-36.7766
 20
-27.6558
 30
0.0
 10
-36.8484
 20
-27.6752
 30
0.0
 10
-36.9318
 20
-27.6745
 30
0.0
 10
-36.9318
 20
-27.6745
 30
0.0
 10
-37.0055
 20
-27.6745
 30
0.0
 10
-37.0722
 20
-27.6577
 30
0.0
 10
-37.133
 20
-27.6241
 30
0.0
 10
-37.133
 20
-27.6241
 30
0.0
 10
-37.1938
 20
-27.5904
 30
0.0
 10
-37.2423
 20
-27.5406
 30
0.0
 10
-37.2791
 20
-27.4753
 30
0.0
 10
-37.2791
 20
-27.4753
 30
0.0
 10
-37.316
 20
-27.4106
 30
0.0
 10
-37.3348
 20
-27.3304
 30
0.0
 10
-37.3354
 20
-27.236
 30
0.0
  0
SPLINE
  5
63
330
1F
100
AcDbEntity
  8
Standard layer
 62
   250
100
AcDbSpline
210
0.0
220
0.0
230
1.0
 70
    11
 71
     3
 72
    36
 73
    32
 74
     0
 42
0.0000000001
 43
0.0000000001
 40
0.0
 40
0.0
 40
0.0
 40
0.0
 40
0.1111111111111111
 40
0.1111111111111111
 40
0.1111111111111111
 40
0.1111111111111111
 40
0.2222222222222222
 40
0.2222222222222222
 40
0.2222222222222222
 40
0.2222222222222222
 40
0.3333333333333333
 40
0.3333333333333333
 40
0.3333333333333333
 40
0.3333333333333333
 40
0.4444444444444444
 40
0.4444444444444444
 40
0.4444444444444444
 40
0.4444444444444444
 40
0.5555555555555556
 40
0.5555555555555556
 40
0.5555555555555556
 40
0.5555555555555556
 40
0.6666666666666666
 40
0.6666666666666666
 40
0.6666666666666666
 40
0.6666666666666666
 40
0.7777777777777778
 40
0.7777777777777778
 40
0.7777777777777778
 40
0.7777777777777778
 40
1.0
 40
1.0
 40
1.0
 40
1.0
 10
-38.8601
 20
5.7678
 30
0.0
 10
-38.8601
 20
5.7678
 30
0.0
 10
-38.5768
 20
5.7678
 30
0.0
 10
-38.5768
 20
5.7678
 30
0.0
 10
-38.5768
 20
5.7678
 30
0.0
 10
-38.5768
 20
5.7678
 30
0.0
 10
-38.5768
 20
7.0018
 30
0.0
 10
-38.5768
 20
7.0018
 30
0.0
 10
-38.5768
 20
7.0018
 30
0.0
 10
-38.5768
 20
7.0018
 30
0.0
 10
-38.569
 20
7.0018
 30
0.0
 10
-38.569
 20
7.0018
 30
0.0
 10
-38.569
 20
7.0018
 30
0.0
 10
-38.569
 20
7.0018
 30
0.0
 10
-36.3377
 20
5.9075
 30
0.0
 10
-36.3377
 20
5.9075
 30
0.0
 10
-36.3377
 20
5.9075
 30
0.0
 10
-36.3377
 20
5.9075
 30
0.0
 10
-36.3377
 20
6.2606
 30
0.0
 10
-36.3377
 20
6.2606
 30
0.0
 10
-36.3377
 20
6.2606
 30
0.0
 10
-36.3377
 20
6.2606
 30
0.0
 10
-38.635
 20
7.3588
 30
0.0
 10
-38.635
 20
7.3588
 30
0.0
 10
-38.635
 20
7.3588
 30
0.0
 10
-38.635
 20
7.3588
 30
0.0
 10
-38.8601
 20
7.3588
 30
0.0
 10
-38.8601
 20
7.3588
 30
0.0
 10
-38.8601
 20
7.3588
 30
0.0
 10
-38.8601
 20
7.3588
 30
0.0
 10
-38.8601
 20
5.7678
 30
0.0
 10
-38.8601
 20
5.7678
 30
0.0
  0
SPLINE
  5
64
330
1F
100
AcDbEntity
  8
Standard layer
 62
   250
370
     9
100
AcDbSpline
210
0.0
220
0.0
230
1.0
 70
    11
 71
     3
 72
    32
 73
    28
 74
     0
 42
0.0000000001
 43
0.0000000001
 40
0.0
 40
0.0
 40
0.0
 40
0.0
 40
0.125
 40
0.125
 40
0.125
 40
0.125
 40
0.25
 40
0.25
 40
0.25
 40
0.25
 40
0.375
 40
0.375
 40
0.375
 40
0.375
 40
0.5
 40
0.5
 40
0.5
 40
0.5
 40
0.625
 40
0.625
 40
0.625
 40
0.625
 40
0.75
 40
0.75
 40
0.75
 40
0.75
 40
1.0
 40
1.0
 40
1.0
 40
1.0
 10
-33.6131
 20
-34.7807
 30
0.0
 10
-33.6131
 20
-34.7807
 30
0.0
 10
-33.6131
 20
-34.7807
 30
0.0
 10
-33.6131
 20
-34.7807
 30
0.0
 10
-33.6131
 20
-34.7807
 30
0.0
 10
-33.6131
 20
-34.7807
 30
0.0
 10
-33.6131
 20
-34.7807
 30
0.0
 10
-33.6131
 20
-34.7807
 30
0.0
 10
-33.6131
 20
-34.7807
 30
0.0
 10
-33.6131
 20
-34.7807
 30
0.0
 10
-34.0565
 20
-33.5079
 30
0.0
 10
-34.0565
 20
-33.5079
 30
0.0
 10
-34.0565
 20
-33.5079
 30
0.0
 10
-34.0565
 20
-33.5079
 30
0.0
 10
-34.4999
 20
-34.7807
 30
0.0
 10
-34.4999
 20
-34.7807
 30
0.0
 10
-34.4999
 20
-34.7807
 30
0.0
 10
-34.4999
 20
-34.7807
 30
0.0
 10
-34.4999
 20
-34.7807
 30
0.0
 10
-34.4999
 20
-34.7807
 30
0.0
 10
-34.4999
 20
-34.7807
 30
0.0
 10
-34.4999
 20
-34.7807
 30
0.0
 10
-34.4999
 20
-34.7807
 30
0.0
 10
-34.4999
 20
-34.7807
 30
0.0
 10
-34.4999
 20
-34.7807
 30
0.0
 10
-34.4999
 20
-34.7807
 30
0.0
 10
-33.6131
 20
-34.7807
 30
0.0
 10
-33.6131
 20
-34.7807
 30
0.0
  0
SPLINE
  5
65
330
1F
100
AcDbEntity
  8
Standard layer
 62
   250
370
     9
100
AcDbSpline
210
0.0
220
0.0
230
1.0
 70
    11
 71
     3
 72
    32
 73
    28
 74
     0
 42
0.0000000001
 43
0.0000000001
 40
0.0
 40
0.0
 40
0.0
 40
0.0
 40
0.125
 40
0.125
 40
0.125
 40
0.125
 40
0.25
 40
0.25
 40
0.25
 40
0.25
 40
0.375
 40
0.375
 40
0.375
 40
0.375
 40
0.5
 40
0.5
 40
0.5
 40
0.5
 40
0.625
 40
0.625
 40
0.625
 40
0.625
 40
0.75
 40
0.75
 40
0.75
 40
0.75
 40
1.0
 40
1.0
 40
1.0
 40
1.0
 10
-35.3328
 20
1.5656
 30
0.0
 10
-35.3328
 20
1.5656
 30
0.0
 10
-35.3328
 20
1.5656
 30
0.0
 10
-35.3328
 20
1.5656
 30
0.0
 10
-35.3328
 20
1.5656
 30
0.0
 10
-35.3328
 20
1.5656
 30
0.0
 10
-35.3328
 20
1.5656
 30
0.0
 10
-35.3328
 20
1.5656
 30
0.0
 10
-35.3328
 20
1.5656
 30
0.0
 10
-35.3328
 20
1.5656
 30
0.0
 10
-35.7762
 20
2.8384
 30
0.0
 10
-35.7762
 20
2.8384
 30
0.0
 10
-35.7762
 20
2.8384
 30
0.0
 10
-35.7762
 20
2.8384
 30
0.0
 10
-36.2196
 20
1.5656
 30
0.0
 10
-36.2196
 20
1.5656
 30
0.0
 10
-36.2196
 20
1.5656
 30
0.0
 10
-36.2196
 20
1.5656
 30
0.0
 10
-36.2196
 20
1.5656
 30
0.0
 10
-36.2196
 20
1.5656
 30
0.0
 10
-36.2196
 20
1.5656
 30
0.0
 10
-36.2196
 20
1.5656
 30
0.0
 10
-36.2196
 20
1.5656
 30
0.0
 10
-36.2196
 20
1.5656
 30
0.0
 10
-36.2196
 20
1.5656
 30
0.0
 10
-36.2196
 20
1.5656
 30
0.0
 10
-35.3328
 20
1.5656
 30
0.0
 10
-35.3328
 20
1.5656
 30
0.0
  0
SPLINE
  5
66
330
1F
100
AcDbEntity
  8
Standard layer
 62
   250
370
     9
100
AcDbSpline
210
0.0
220
0.0
230
1.0
 70
    11
 71
     3
 72
    32
 73
    28
 74
     0
 42
0.0000000001
 43
0.0000000001
 40
0.0
 40
0.0
 40
0.0
 40
0.0
 40
0.125
 40
0.125
 40
0.125
 40
0.125
 40
0.25
 40
0.25
 40
0.25
 40
0.25
 40
0.375
 40
0.375
 40
0.375
 40
0.375
 40
0.5
 40
0.5
 40
0.5
 40
0.5
 40
0.625
 40
0.625
 40
0.625
 40
0.625
 40
0.75
 40
0.75
 40
0.75
 40
0.75
 40
1.0
 40
1.0
 40
1.0
 40
1.0
 10
-33.6471
 20
-31.2942
 30
0.0
 10
-33.6471
 20
-31.2942
 30
0.0
 10
-33.6471
 20
-31.2942
 30
0.0
 10
-33.6471
 20
-31.2942
 30
0.0
 10
-33.6471
 20
-31.2942
 30
0.0
 10
-33.6471
 20
-31.2942
 30
0.0
 10
-33.6471
 20
-31.2942
 30
0.0
 10
-33.6471
 20
-31.2942
 30
0.0
 10
-33.6471
 20
-31.2942
 30
0.0
 10
-33.6471
 20
-31.2942
 30
0.0
 10
-34.0905
 20
-32.567
 30
0.0
 10
-34.0905
 20
-32.567
 30
0.0
 10
-34.0905
 20
-32.567
 30
0.0
 10
-34.0905
 20
-32.567
 30
0.0
 10
-34.5339
 20
-31.2942
 30
0.0
 10
-34.5339
 20
-31.2942
 30
0.0
 10
-34.5339
 20
-31.2942
 30
0.0
 10
-34.5339
 20
-31.2942
 30
0.0
 10
-34.5339
 20
-31.2942
 30
0.0
 10
-34.5339
 20
-31.2942
 30
0.0
 10
-34.5339
 20
-31.2942
 30
0.0
 10
-34.5339
 20
-31.2942
 30
0.0
 10
-34.5339
 20
-31.2942
 30
0.0
 10
-34.5339
 20
-31.2942
 30
0.0
 10
-34.5339
 20
-31.2942
 30
0.0
 10
-34.5339
 20
-31.2942
 30
0.0
 10
-33.6471
 20
-31.2942
 30
0.0
 10
-33.6471
 20
-31.2942
 30
0.0
  0
SPLINE
  5
67
330
1F
100
AcDbEntity
  8
Standard layer
 62
   250
370
     9
100
AcDbSpline
210
0.0
220
0.0
230
1.0
 70
    11
 71
     3
 72
    32
 73
    28
 74
     0
 42
0.0000000001
 43
0.0000000001
 40
0.0
 40
0.0
 40
0.0
 40
0.0
 40
0.125
 40
0.125
 40
0.125
 40
0.125
 40
0.25
 40
0.25
 40
0.25
 40
0.25
 40
0.375
 40
0.375
 40
0.375
 40
0.375
 40
0.5
 40
0.5
 40
0.5
 40
0.5
 40
0.625
 40
0.625
 40
0.625
 40
0.625
 40
0.75
 40
0.75
 40
0.75
 40
0.75
 40
1.0
 40
1.0
 40
1.0
 40
1.0
 10
-35.4
 20
11.2037
 30
0.0
 10
-35.4
 20
11.2037
 30
0.0
 10
-35.4
 20
11.2037
 30
0.0
 10
-35.4
 20
11.2037
 30
0.0
 10
-35.4
 20
11.2037
 30
0.0
 10
-35.4
 20
11.2037
 30
0.0
 10
-35.4
 20
11.2037
 30
0.0
 10
-35.4
 20
11.2037
 30
0.0
 10
-35.4
 20
11.2037
 30
0.0
 10
-35.4
 20
11.2037
 30
0.0
 10
-35.8434
 20
9.9309
 30
0.0
 10
-35.8434
 20
9.9309
 30
0.0
 10
-35.8434
 20
9.9309
 30
0.0
 10
-35.8434
 20
9.9309
 30
0.0
 10
-36.2868
 20
11.2037
 30
0.0
 10
-36.2868
 20
11.2037
 30
0.0
 10
-36.2868
 20
11.2037
 30
0.0
 10
-36.2868
 20
11.2037
 30
0.0
 10
-36.2868
 20
11.2037
 30
0.0
 10
-36.2868
 20
11.2037
 30
0.0
 10
-36.2868
 20
11.2037
 30
0.0
 10
-36.2868
 20
11.2037
 30
0.0
 10
-36.2868
 20
11.2037
 30
0.0
 10
-36.2868
 20
11.2037
 30
0.0
 10
-36.2868
 20
11.2037
 30
0.0
 10
-36.2868
 20
11.2037
 30
0.0
 10
-35.4
 20
11.2037
 30
0.0
 10
-35.4
 20
11.2037
 30
0.0
  0
SPLINE
  5
68
330
1F
100
AcDbEntity
  8
Standard layer
 62
   250
370
    15
100
AcDbSpline
210
0.0
220
0.0
230
1.0
 70
    24
 71
     3
 72
     8
 73
     4
 74
     0
 42
0.0000000001
 43
0.0000000001
 40
0.0
 40
0.0
 40
0.0
 40
0.0
 40
1.0
 40
1.0
 40
1.0
 40
1.0
 10
-35.7866
 20
0.6934
 30
0.0
 10
-35.7866
 20
0.6934
 30
0.0
 10
-35.7866
 20
12.0375
 30
0.0
 10
-35.7866
 20
12.0375
 30
0.0
  0
SPLINE
  5
69
330
1F
100
AcDbEntity
  8
Standard layer
 62
   250
370
    15
100
AcDbSpline
210
0.0
220
0.0
230
1.0
 70
    24
 71
     3
 72
     8
 73
     4
 74
     0
 42
0.0000000001
 43
0.0000000001
 40
0.0
 40
0.0
 40
0.0
 40
0.0
 40
1.0
 40
1.0
 40
1.0
 40
1.0
 10
-31.1339
 20
3.3887
 30
0.0
 10
-31.1339
 20
3.3887
 30
0.0
 10
-31.1339
 20
-22.4572
 30
0.0
 10
-31.1339
 20
-22.4572
 30
0.0
  0
SPLINE
  5
6A
330
1F
100
AcDbEntity
  8
Standard layer
 62
   250
370
    15
100
AcDbSpline
210
0.0
220
0.0
230
1.0
 70
    24
 71
     3
 72
     8
 73
     4
 74
     0
 42
0.0000000001
 43
0.0000000001
 40
0.0
 40
0.0
 40
0.0
 40
0.0
 40
1.0
 40
1.0
 40
1.0
 40
1.0
 10
-30.8287
 20
-22.1146
 30
0.0
 10
-30.8287
 20
-22.1146
 30
0.0
 10
38.5749
 20
-22.1146
 30
0.0
 10
38.5749
 20
-22.1146
 30
0.0
  0
SPLINE
  5
6B
330
1F
100
AcDbEntity
  8
Standard layer
  6
New Line1
 62
   250
370
    15
100
AcDbSpline
210
0.0
220
0.0
230
1.0
 70
    24
 71
     3
 72
     8
 73
     4
 74
     0
 42
0.0000000001
 43
0.0000000001
 40
0.0
 40
0.0
 40
0.0
 40
0.0
 40
1.0
 40
1.0
 40
1.0
 40
1.0
 10
-29.7118
 20
6.3937
 30
0.0
 10
-29.7118
 20
6.3937
 30
0.0
 10
37.6411
 20
6.3937
 30
0.0
 10
37.6411
 20
6.3937
 30
0.0
  0
SPLINE
  5
6D
330
1F
100
AcDbEntity
  8
Standard layer
  6
New Line2
 62
   250
370
    15
100
AcDbSpline
210
0.0
220
0.0
230
1.0
 70
    24
 71
     3
 72
     8
 73
     4
 74
     0
 42
0.0000000001
 43
0.0000000001
 40
0.0
 40
0.0
 40
0.0
 40
0.0
 40
1.0
 40
1.0
 40
1.0
 40
1.0
 10
3.7666
 20
-15.8395
 30
0.0
 10
3.7666
 20
-15.8395
 30
0.0
 10
3.7666
 20
28.0805
 30
0.0
 10
3.7666
 20
28.0805
 30
0.0
  0
SPLINE
  5
6F
330
1F
100
AcDbEntity
  8
Standard layer
 62
   250
370
    15
100
AcDbSpline
210
0.0
220
0.0
230
1.0
 70
    24
 71
     3
 72
     8
 73
     4
 74
     0
 42
0.0000000001
 43
0.0000000001
 40
0.0
 40
0.0
 40
0.0
 40
0.0
 40
1.0
 40
1.0
 40
1.0
 40
1.0
 10
-0.0444
 20
20.1943
 30
0.0
 10
-0.0444
 20
20.1943
 30
0.0
 10
13.6887
 20
33.2945
 30
0.0
 10
13.6887
 20
33.2945
 30
0.0
  0
SPLINE
  5
70
330
1F
100
AcDbEntity
  8
Standard layer
 62
   250
370
    15
100
AcDbSpline
210
0.0
220
0.0
230
1.0
 70
    24
 71
     3
 72
     8
 73
     4
 74
     0
 42
0.0000000001
 43
0.0000000001
 40
0.0
 40
0.0
 40
0.0
 40
0.0
 40
1.0
 40
1.0
 40
1.0
 40
1.0
 10
-30.8785
 20
2.9116
 30
0.0
 10
-30.8785
 20
2.9116
 30
0.0
 10
-36.2836
 20
2.9116
 30
0.0
 10
-36.2836
 20
2.9116
 30
0.0
  0
SPLINE
  5
71
330
1F
100
AcDbEntity
  8
Standard layer
 62
   250
370
    15
100
AcDbSpline
210
0.0
220
0.0
230
1.0
 70
    24
 71
     3
 72
     8
 73
     4
 74
     0
 42
0.0000000001
 43
0.0000000001
 40
0.0
 40
0.0
 40
0.0
 40
0.0
 40
1.0
 40
1.0
 40
1.0
 40
1.0
 10
-13.8749
 20
-12.1797
 30
0.0
 10
-13.8749
 20
-12.1797
 30
0.0
 10
25.6267
 20
29.2609
 30
0.0
 10
25.6267
 20
29.2609
 30
0.0
  0
SPLINE
  5
72
330
1F
100
AcDbEntity
  8
Standard layer
 62
   250
370
    15
100
AcDbSpline
210
0.0
220
0.0
230
1.0
 70
    24
 71
     3
 72
     8
 73
     4
 74
     0
 42
0.0000000001
 43
0.0000000001
 40
0.0
 40
0.0
 40
0.0
 40
0.0
 40
1.0
 40
1.0
 40
1.0
 40
1.0
 10
-30.9115
 20
9.9115
 30
0.0
 10
-30.9115
 20
9.9115
 30
0.0
 10
-36.3167
 20
9.9115
 30
0.0
 10
-36.3167
 20
9.9115
 30
0.0
  0
SPLINE
  5
73
330
1F
100
AcDbEntity
  8
Standard layer
 62
   250
370
    15
100
AcDbSpline
210
0.0
220
0.0
230
1.0
 70
    24
 71
     3
 72
     8
 73
     4
 74
     0
 42
0.0000000001
 43
0.0000000001
 40
0.0
 40
0.0
 40
0.0
 40
0.0
 40
1.0
 40
1.0
 40
1.0
 40
1.0
 10
18.8158
 20
3.4583
 30
0.0
 10
18.8158
 20
3.4583
 30
0.0
 10
38.7468
 20
20.1738
 30
0.0
 10
38.7468
 20
20.1738
 30
0.0
  0
SPLINE
  5
74
330
1F
100
AcDbEntity
  8
Standard layer
 62
   250
370
    15
100
AcDbSpline
210
0.0
220
0.0
230
1.0
 70
    24
 71
     3
 72
     8
 73
     4
 74
     0
 42
0.0000000001
 43
0.0000000001
 40
0.0
 40
0.0
 40
0.0
 40
0.0
 40
1.0
 40
1.0
 40
1.0
 40
1.0
 10
38.86
 20
3.0907
 30
0.0
 10
38.86
 20
3.0907
 30
0.0
 10
38.86
 20
-22.424
 30
0.0
 10
38.86
 20
-22.424
 30
0.0
  0
SPLINE
  5
75
330
1F
100
AcDbEntity
  8
Standard layer
 62
   250
370
    15
100
AcDbSpline
210
0.0
220
0.0
230
1.0
 70
    24
 71
     3
 72
     8
 73
     4
 74
     0
 42
0.0000000001
 43
0.0000000001
 40
0.0
 40
0.0
 40
0.0
 40
0.0
 40
1.0
 40
1.0
 40
1.0
 40
1.0
 10
-34.0652
 20
-35.4276
 30
0.0
 10
-34.0652
 20
-35.4276
 30
0.0
 10
-34.0652
 20
-26.101
 30
0.0
 10
-34.0652
 20
-26.101
 30
0.0
  0
SPLINE
  5
76
330
1F
100
AcDbEntity
  8
Standard layer
 62
   250
370
    15
100
AcDbSpline
210
0.0
220
0.0
230
1.0
 70
    24
 71
     3
 72
     8
 73
     4
 74
     0
 42
0.0000000001
 43
0.0000000001
 40
0.0
 40
0.0
 40
0.0
 40
0.0
 40
1.0
 40
1.0
 40
1.0
 40
1.0
 10
-31.5067
 20
-33.4369
 30
0.0
 10
-31.5067
 20
-33.4369
 30
0.0
 10
-35.0651
 20
-33.4369
 30
0.0
 10
-35.0651
 20
-33.4369
 30
0.0
  0
SPLINE
  5
77
330
1F
100
AcDbEntity
  8
Standard layer
 62
   250
370
    15
100
AcDbSpline
210
0.0
220
0.0
230
1.0
 70
    24
 71
     3
 72
     8
 73
     4
 74
     0
 42
0.0000000001
 43
0.0000000001
 40
0.0
 40
0.0
 40
0.0
 40
0.0
 40
1.0
 40
1.0
 40
1.0
 40
1.0
 10
-31.5315
 20
-32.6369
 30
0.0
 10
-31.5315
 20
-32.6369
 30
0.0
 10
-35.0651
 20
-32.6369
 30
0.0
 10
-35.0651
 20
-32.6369
 30
0.0
  0
SPLINE
  5
78
330
1F
100
AcDbEntity
  8
Standard layer
 62
   250
370
    30
100
AcDbSpline
210
0.0
220
0.0
230
1.0
 70
    24
 71
     3
 72
     8
 73
     4
 74
     0
 42
0.0000000001
 43
0.0000000001
 40
0.0
 40
0.0
 40
0.0
 40
0.0
 40
1.0
 40
1.0
 40
1.0
 40
1.0
 10
-31.1535
 20
4.9111
 30
0.0
 10
-31.1535
 20
4.9111
 30
0.0
 10
-31.1535
 20
7.9111
 30
0.0
 10
-31.1535
 20
7.9111
 30
0.0
  0
SPLINE
  5
79
330
1F
100
AcDbEntity
  8
Standard layer
 62
   250
370
    30
100
AcDbSpline
210
0.0
220
0.0
230
1.0
 70
    24
 71
     3
 72
     8
 73
     4
 74
     0
 42
0.0000000001
 43
0.0000000001
 40
0.0
 40
0.0
 40
0.0
 40
0.0
 40
1.0
 40
1.0
 40
1.0
 40
1.0
 10
-14.6535
 20
1.9111
 30
0.0
 10
-14.6535
 20
1.9111
 30
0.0
 10
-14.6535
 20
2.9111
 30
0.0
 10
-14.6535
 20
2.9111
 30
0.0
  0
SPLINE
  5
7A
330
1F
100
AcDbEntity
  8
Standard layer
 62
   250
370
    30
100
AcDbSpline
210
0.0
220
0.0
230
1.0
 70
    24
 71
     3
 72
     8
 73
     4
 74
     0
 42
0.0000000001
 43
0.0000000001
 40
0.0
 40
0.0
 40
0.0
 40
0.0
 40
1.0
 40
1.0
 40
1.0
 40
1.0
 10
-14.6535
 20
9.9111
 30
0.0
 10
-14.6535
 20
9.9111
 30
0.0
 10
-14.6535
 20
10.9111
 30
0.0
 10
-14.6535
 20
10.9111
 30
0.0
  0
SPLINE
  5
7B
330
1F
100
AcDbEntity
  8
Standard layer
 62
   250
370
    30
100
AcDbSpline
210
0.0
220
0.0
230
1.0
 70
    24
 71
     3
 72
     8
 73
     4
 74
     0
 42
0.0000000001
 43
0.0000000001
 40
0.0
 40
0.0
 40
0.0
 40
0.0
 40
1.0
 40
1.0
 40
1.0
 40
1.0
 10
36.8465
 20
2.9111
 30
0.0
 10
36.8465
 20
2.9111
 30
0.0
 10
24.0032
 20
2.9111
 30
0.0
 10
24.0032
 20
2.9111
 30
0.0
  0
SPLINE
  5
7C
330
1F
100
AcDbEntity
  8
Standard layer
 62
   250
370
    30
100
AcDbSpline
210
0.0
220
0.0
230
1.0
 70
    24
 71
     3
 72
     8
 73
     4
 74
     0
 42
0.0000000001
 43
0.0000000001
 40
0.0
 40
0.0
 40
0.0
 40
0.0
 40
1.0
 40
1.0
 40
1.0
 40
1.0
 10
-16.3101
 20
2.9111
 30
0.0
 10
-16.3101
 20
2.9111
 30
0.0
 10
-29.1535
 20
2.9111
 30
0.0
 10
-29.1535
 20
2.9111
 30
0.0
  0
SPLINE
  5
7D
330
1F
100
AcDbEntity
  8
Standard layer
 62
   250
370
    30
100
AcDbSpline
210
0.0
220
0.0
230
1.0
 70
    24
 71
     3
 72
     8
 73
     4
 74
     0
 42
0.0000000001
 43
0.0000000001
 40
0.0
 40
0.0
 40
0.0
 40
0.0
 40
1.0
 40
1.0
 40
1.0
 40
1.0
 10
-29.1535
 20
9.9111
 30
0.0
 10
-29.1535
 20
9.9111
 30
0.0
 10
-16.3101
 20
9.9111
 30
0.0
 10
-16.3101
 20
9.9111
 30
0.0
  0
SPLINE
  5
7E
330
1F
100
AcDbEntity
  8
Standard layer
 62
   250
370
    30
100
AcDbSpline
210
0.0
220
0.0
230
1.0
 70
    24
 71
     3
 72
     8
 73
     4
 74
     0
 42
0.0000000001
 43
0.0000000001
 40
0.0
 40
0.0
 40
0.0
 40
0.0
 40
1.0
 40
1.0
 40
1.0
 40
1.0
 10
24.0032
 20
9.9111
 30
0.0
 10
24.0032
 20
9.9111
 30
0.0
 10
36.8465
 20
9.9111
 30
0.0
 10
36.8465
 20
9.9111
 30
0.0
  0
SPLINE
  5
7F
330
1F
100
AcDbEntity
  8
Standard layer
 62
   250
370
    30
100
AcDbSpline
210
0.0
220
0.0
230
1.0
 70
    24
 71
     3
 72
     8
 73
     4
 74
     0
 42
0.0000000001
 43
0.0000000001
 40
0.0
 40
0.0
 40
0.0
 40
0.0
 40
1.0
 40
1.0
 40
1.0
 40
1.0
 10
22.3465
 20
10.9111
 30
0.0
 10
22.3465
 20
10.9111
 30
0.0
 10
22.3465
 20
9.9111
 30
0.0
 10
22.3465
 20
9.9111
 30
0.0
  0
SPLINE
  5
80
330
1F
100
AcDbEntity
  8
Standard layer
 62
   250
370
    30
100
AcDbSpline
210
0.0
220
0.0
230
1.0
 70
    24
 71
     3
 72
     8
 73
     4
 74
     0
 42
0.0000000001
 43
0.0000000001
 40
0.0
 40
0.0
 40
0.0
 40
0.0
 40
1.0
 40
1.0
 40
1.0
 40
1.0
 10
22.3465
 20
2.9111
 30
0.0
 10
22.3465
 20
2.9111
 30
0.0
 10
22.3465
 20
1.9111
 30
0.0
 10
22.3465
 20
1.9111
 30
0.0
  0
SPLINE
  5
81
330
1F
100
AcDbEntity
  8
Standard layer
 62
   250
370
    30
100
AcDbSpline
210
0.0
220
0.0
230
1.0
 70
    24
 71
     3
 72
     8
 73
     4
 74
     0
 42
0.0000000001
 43
0.0000000001
 40
0.0
 40
0.0
 40
0.0
 40
0.0
 40
1.0
 40
1.0
 40
1.0
 40
1.0
 10
38.8465
 20
7.9111
 30
0.0
 10
38.8465
 20
7.9111
 30
0.0
 10
38.8465
 20
4.9111
 30
0.0
 10
38.8465
 20
4.9111
 30
0.0
  0
SPLINE
  5
82
330
1F
100
AcDbEntity
  8
Standard layer
 62
   250
370
    30
100
AcDbSpline
210
0.0
220
0.0
230
1.0
 70
    11
 71
     3
 72
    20
 73
    16
 74
     0
 42
0.0000000001
 43
0.0000000001
 40
0.0
 40
0.0
 40
0.0
 40
0.0
 40
0.2
 40
0.2
 40
0.2
 40
0.2
 40
0.4
 40
0.4
 40
0.4
 40
0.4
 40
0.6
 40
0.6
 40
0.6
 40
0.6
 40
1.0
 40
1.0
 40
1.0
 40
1.0
 10
-7.6535
 20
-2.2491
 30
0.0
 10
-7.6535
 20
-0.3161
 30
0.0
 10
-9.2205
 20
1.2509
 30
0.0
 10
-11.1535
 20
1.2509
 30
0.0
 10
-11.1535
 20
1.2509
 30
0.0
 10
-13.0865
 20
1.2509
 30
0.0
 10
-14.6535
 20
-0.3161
 30
0.0
 10
-14.6535
 20
-2.2491
 30
0.0
 10
-14.6535
 20
-2.2491
 30
0.0
 10
-14.6535
 20
-4.1821
 30
0.0
 10
-13.0865
 20
-5.7491
 30
0.0
 10
-11.1535
 20
-5.7491
 30
0.0
 10
-11.1535
 20
-5.7491
 30
0.0
 10
-9.2205
 20
-5.7491
 30
0.0
 10
-7.6535
 20
-4.1821
 30
0.0
 10
-7.6535
 20
-2.2491
 30
0.0
  0
SPLINE
  5
83
330
1F
100
AcDbEntity
  8
Standard layer
 62
   250
370
    30
100
AcDbSpline
210
0.0
220
0.0
230
1.0
 70
    11
 71
     3
 72
    20
 73
    16
 74
     0
 42
0.0000000001
 43
0.0000000001
 40
0.0
 40
0.0
 40
0.0
 40
0.0
 40
0.2
 40
0.2
 40
0.2
 40
0.2
 40
0.4
 40
0.4
 40
0.4
 40
0.4
 40
0.6
 40
0.6
 40
0.6
 40
0.6
 40
1.0
 40
1.0
 40
1.0
 40
1.0
 10
2.3465
 20
-2.2491
 30
0.0
 10
2.3465
 20
-0.3161
 30
0.0
 10
0.7795
 20
1.2509
 30
0.0
 10
-1.1535
 20
1.2509
 30
0.0
 10
-1.1535
 20
1.2509
 30
0.0
 10
-3.0865
 20
1.2509
 30
0.0
 10
-4.6535
 20
-0.3161
 30
0.0
 10
-4.6535
 20
-2.2491
 30
0.0
 10
-4.6535
 20
-2.2491
 30
0.0
 10
-4.6535
 20
-4.1821
 30
0.0
 10
-3.0865
 20
-5.7491
 30
0.0
 10
-1.1535
 20
-5.7491
 30
0.0
 10
-1.1535
 20
-5.7491
 30
0.0
 10
0.7795
 20
-5.7491
 30
0.0
 10
2.3465
 20
-4.1821
 30
0.0
 10
2.3465
 20
-2.2491
 30
0.0
  0
SPLINE
  5
84
330
1F
100
AcDbEntity
  8
Standard layer
 62
   250
370
    30
100
AcDbSpline
210
0.0
220
0.0
230
1.0
 70
     8
 71
     3
 72
     8
 73
     4
 74
     0
 42
0.0000000001
 43
0.0000000001
 40
0.0
 40
0.0
 40
0.0
 40
0.0
 40
1.0
 40
1.0
 40
1.0
 40
1.0
 10
-31.1535
 20
4.9111
 30
0.0
 10
-31.1535
 20
3.8066
 30
0.0
 10
-30.2581
 20
2.9111
 30
0.0
 10
-29.1535
 20
2.9111
 30
0.0
  0
SPLINE
  5
85
330
1F
100
AcDbEntity
  8
Standard layer
 62
   250
370
    30
100
AcDbSpline
210
0.0
220
0.0
230
1.0
 70
    11
 71
     3
 72
    20
 73
    16
 74
     0
 42
0.0000000001
 43
0.0000000001
 40
0.0
 40
0.0
 40
0.0
 40
0.0
 40
0.2
 40
0.2
 40
0.2
 40
0.2
 40
0.4
 40
0.4
 40
0.4
 40
0.4
 40
0.6
 40
0.6
 40
0.6
 40
0.6
 40
1.0
 40
1.0
 40
1.0
 40
1.0
 10
-7.6535
 20
15.0714
 30
0.0
 10
-7.6535
 20
17.0044
 30
0.0
 10
-9.2205
 20
18.5714
 30
0.0
 10
-11.1535
 20
18.5714
 30
0.0
 10
-11.1535
 20
18.5714
 30
0.0
 10
-13.0865
 20
18.5714
 30
0.0
 10
-14.6535
 20
17.0044
 30
0.0
 10
-14.6535
 20
15.0714
 30
0.0
 10
-14.6535
 20
15.0714
 30
0.0
 10
-14.6535
 20
13.1384
 30
0.0
 10
-13.0865
 20
11.5714
 30
0.0
 10
-11.1535
 20
11.5714
 30
0.0
 10
-11.1535
 20
11.5714
 30
0.0
 10
-9.2205
 20
11.5714
 30
0.0
 10
-7.6535
 20
13.1384
 30
0.0
 10
-7.6535
 20
15.0714
 30
0.0
  0
SPLINE
  5
86
330
1F
100
AcDbEntity
  8
Standard layer
 62
   250
370
    30
100
AcDbSpline
210
0.0
220
0.0
230
1.0
 70
    11
 71
     3
 72
    20
 73
    16
 74
     0
 42
0.0000000001
 43
0.0000000001
 40
0.0
 40
0.0
 40
0.0
 40
0.0
 40
0.2
 40
0.2
 40
0.2
 40
0.2
 40
0.4
 40
0.4
 40
0.4
 40
0.4
 40
0.6
 40
0.6
 40
0.6
 40
0.6
 40
1.0
 40
1.0
 40
1.0
 40
1.0
 10
-2.6535
 20
6.4111
 30
0.0
 10
-2.6535
 20
8.3441
 30
0.0
 10
-4.2205
 20
9.9111
 30
0.0
 10
-6.1535
 20
9.9111
 30
0.0
 10
-6.1535
 20
9.9111
 30
0.0
 10
-8.0865
 20
9.9111
 30
0.0
 10
-9.6535
 20
8.3441
 30
0.0
 10
-9.6535
 20
6.4111
 30
0.0
 10
-9.6535
 20
6.4111
 30
0.0
 10
-9.6535
 20
4.4781
 30
0.0
 10
-8.0865
 20
2.9111
 30
0.0
 10
-6.1535
 20
2.9111
 30
0.0
 10
-6.1535
 20
2.9111
 30
0.0
 10
-4.2205
 20
2.9111
 30
0.0
 10
-2.6535
 20
4.4781
 30
0.0
 10
-2.6535
 20
6.4111
 30
0.0
  0
SPLINE
  5
87
330
1F
100
AcDbEntity
  8
Standard layer
 62
   250
370
    30
100
AcDbSpline
210
0.0
220
0.0
230
1.0
 70
    11
 71
     3
 72
    20
 73
    16
 74
     0
 42
0.0000000001
 43
0.0000000001
 40
0.0
 40
0.0
 40
0.0
 40
0.0
 40
0.2
 40
0.2
 40
0.2
 40
0.2
 40
0.4
 40
0.4
 40
0.4
 40
0.4
 40
0.6
 40
0.6
 40
0.6
 40
0.6
 40
1.0
 40
1.0
 40
1.0
 40
1.0
 10
2.3465
 20
15.0714
 30
0.0
 10
2.3465
 20
17.0044
 30
0.0
 10
0.7795
 20
18.5714
 30
0.0
 10
-1.1535
 20
18.5714
 30
0.0
 10
-1.1535
 20
18.5714
 30
0.0
 10
-3.0865
 20
18.5714
 30
0.0
 10
-4.6535
 20
17.0044
 30
0.0
 10
-4.6535
 20
15.0714
 30
0.0
 10
-4.6535
 20
15.0714
 30
0.0
 10
-4.6535
 20
13.1384
 30
0.0
 10
-3.0865
 20
11.5714
 30
0.0
 10
-1.1535
 20
11.5714
 30
0.0
 10
-1.1535
 20
11.5714
 30
0.0
 10
0.7795
 20
11.5714
 30
0.0
 10
2.3465
 20
13.1384
 30
0.0
 10
2.3465
 20
15.0714
 30
0.0
  0
SPLINE
  5
88
330
1F
100
AcDbEntity
  8
Standard layer
 62
   250
370
    30
100
AcDbSpline
210
0.0
220
0.0
230
1.0
 70
     8
 71
     3
 72
     8
 73
     4
 74
     0
 42
0.0000000001
 43
0.0000000001
 40
0.0
 40
0.0
 40
0.0
 40
0.0
 40
1.0
 40
1.0
 40
1.0
 40
1.0
 10
-29.1535
 20
9.9111
 30
0.0
 10
-30.2581
 20
9.9111
 30
0.0
 10
-31.1535
 20
9.0157
 30
0.0
 10
-31.1535
 20
7.9111
 30
0.0
  0
SPLINE
  5
89
330
1F
100
AcDbEntity
  8
Standard layer
 62
   250
370
    30
100
AcDbSpline
210
0.0
220
0.0
230
1.0
 70
    11
 71
     3
 72
    20
 73
    16
 74
     0
 42
0.0000000001
 43
0.0000000001
 40
0.0
 40
0.0
 40
0.0
 40
0.0
 40
0.2
 40
0.2
 40
0.2
 40
0.2
 40
0.4
 40
0.4
 40
0.4
 40
0.4
 40
0.6
 40
0.6
 40
0.6
 40
0.6
 40
1.0
 40
1.0
 40
1.0
 40
1.0
 10
22.3465
 20
-2.2491
 30
0.0
 10
22.3465
 20
-0.3161
 30
0.0
 10
20.7795
 20
1.2509
 30
0.0
 10
18.8465
 20
1.2509
 30
0.0
 10
18.8465
 20
1.2509
 30
0.0
 10
16.9135
 20
1.2509
 30
0.0
 10
15.3465
 20
-0.3161
 30
0.0
 10
15.3465
 20
-2.2491
 30
0.0
 10
15.3465
 20
-2.2491
 30
0.0
 10
15.3465
 20
-4.1821
 30
0.0
 10
16.9135
 20
-5.7491
 30
0.0
 10
18.8465
 20
-5.7491
 30
0.0
 10
18.8465
 20
-5.7491
 30
0.0
 10
20.7795
 20
-5.7491
 30
0.0
 10
22.3465
 20
-4.1821
 30
0.0
 10
22.3465
 20
-2.2491
 30
0.0
  0
SPLINE
  5
8A
330
1F
100
AcDbEntity
  8
Standard layer
 62
   250
370
    30
100
AcDbSpline
210
0.0
220
0.0
230
1.0
 70
    11
 71
     3
 72
    20
 73
    16
 74
     0
 42
0.0000000001
 43
0.0000000001
 40
0.0
 40
0.0
 40
0.0
 40
0.0
 40
0.2
 40
0.2
 40
0.2
 40
0.2
 40
0.4
 40
0.4
 40
0.4
 40
0.4
 40
0.6
 40
0.6
 40
0.6
 40
0.6
 40
1.0
 40
1.0
 40
1.0
 40
1.0
 10
7.3465
 20
-10.9094
 30
0.0
 10
7.3465
 20
-8.9764
 30
0.0
 10
5.7795
 20
-7.4094
 30
0.0
 10
3.8465
 20
-7.4094
 30
0.0
 10
3.8465
 20
-7.4094
 30
0.0
 10
1.9135
 20
-7.4094
 30
0.0
 10
0.3465
 20
-8.9764
 30
0.0
 10
0.3465
 20
-10.9094
 30
0.0
 10
0.3465
 20
-10.9094
 30
0.0
 10
0.3465
 20
-12.8424
 30
0.0
 10
1.9135
 20
-14.4094
 30
0.0
 10
3.8465
 20
-14.4094
 30
0.0
 10
3.8465
 20
-14.4094
 30
0.0
 10
5.7795
 20
-14.4094
 30
0.0
 10
7.3465
 20
-12.8424
 30
0.0
 10
7.3465
 20
-10.9094
 30
0.0
  0
SPLINE
  5
8B
330
1F
100
AcDbEntity
  8
Standard layer
 62
   250
370
    30
100
AcDbSpline
210
0.0
220
0.0
230
1.0
 70
    11
 71
     3
 72
    20
 73
    16
 74
     0
 42
0.0000000001
 43
0.0000000001
 40
0.0
 40
0.0
 40
0.0
 40
0.0
 40
0.2
 40
0.2
 40
0.2
 40
0.2
 40
0.4
 40
0.4
 40
0.4
 40
0.4
 40
0.6
 40
0.6
 40
0.6
 40
0.6
 40
1.0
 40
1.0
 40
1.0
 40
1.0
 10
12.3465
 20
-2.2491
 30
0.0
 10
12.3465
 20
-0.3161
 30
0.0
 10
10.7795
 20
1.2509
 30
0.0
 10
8.8465
 20
1.2509
 30
0.0
 10
8.8465
 20
1.2509
 30
0.0
 10
6.9135
 20
1.2509
 30
0.0
 10
5.3465
 20
-0.3161
 30
0.0
 10
5.3465
 20
-2.2491
 30
0.0
 10
5.3465
 20
-2.2491
 30
0.0
 10
5.3465
 20
-4.1821
 30
0.0
 10
6.9135
 20
-5.7491
 30
0.0
 10
8.8465
 20
-5.7491
 30
0.0
 10
8.8465
 20
-5.7491
 30
0.0
 10
10.7795
 20
-5.7491
 30
0.0
 10
12.3465
 20
-4.1821
 30
0.0
 10
12.3465
 20
-2.2491
 30
0.0
  0
SPLINE
  5
8C
330
1F
100
AcDbEntity
  8
Standard layer
 62
   250
370
    30
100
AcDbSpline
210
0.0
220
0.0
230
1.0
 70
     8
 71
     3
 72
     8
 73
     4
 74
     0
 42
0.0000000001
 43
0.0000000001
 40
0.0
 40
0.0
 40
0.0
 40
0.0
 40
1.0
 40
1.0
 40
1.0
 40
1.0
 10
36.8465
 20
2.9111
 30
0.0
 10
37.9511
 20
2.9111
 30
0.0
 10
38.8465
 20
3.8066
 30
0.0
 10
38.8465
 20
4.9111
 30
0.0
  0
SPLINE
  5
8D
330
1F
100
AcDbEntity
  8
Standard layer
 62
   250
370
    30
100
AcDbSpline
210
0.0
220
0.0
230
1.0
 70
    11
 71
     3
 72
    20
 73
    16
 74
     0
 42
0.0000000001
 43
0.0000000001
 40
0.0
 40
0.0
 40
0.0
 40
0.0
 40
0.2
 40
0.2
 40
0.2
 40
0.2
 40
0.4
 40
0.4
 40
0.4
 40
0.4
 40
0.6
 40
0.6
 40
0.6
 40
0.6
 40
1.0
 40
1.0
 40
1.0
 40
1.0
 10
7.3465
 20
23.7316
 30
0.0
 10
7.3465
 20
25.6646
 30
0.0
 10
5.7795
 20
27.2316
 30
0.0
 10
3.8465
 20
27.2316
 30
0.0
 10
3.8465
 20
27.2316
 30
0.0
 10
1.9135
 20
27.2316
 30
0.0
 10
0.3465
 20
25.6646
 30
0.0
 10
0.3465
 20
23.7316
 30
0.0
 10
0.3465
 20
23.7316
 30
0.0
 10
0.3465
 20
21.7986
 30
0.0
 10
1.9135
 20
20.2316
 30
0.0
 10
3.8465
 20
20.2316
 30
0.0
 10
3.8465
 20
20.2316
 30
0.0
 10
5.7795
 20
20.2316
 30
0.0
 10
7.3465
 20
21.7986
 30
0.0
 10
7.3465
 20
23.7316
 30
0.0
  0
SPLINE
  5
8E
330
1F
100
AcDbEntity
  8
Standard layer
 62
   250
370
    30
100
AcDbSpline
210
0.0
220
0.0
230
1.0
 70
    11
 71
     3
 72
    20
 73
    16
 74
     0
 42
0.0000000001
 43
0.0000000001
 40
0.0
 40
0.0
 40
0.0
 40
0.0
 40
0.2
 40
0.2
 40
0.2
 40
0.2
 40
0.4
 40
0.4
 40
0.4
 40
0.4
 40
0.6
 40
0.6
 40
0.6
 40
0.6
 40
1.0
 40
1.0
 40
1.0
 40
1.0
 10
22.3465
 20
15.0714
 30
0.0
 10
22.3465
 20
17.0044
 30
0.0
 10
20.7795
 20
18.5714
 30
0.0
 10
18.8465
 20
18.5714
 30
0.0
 10
18.8465
 20
18.5714
 30
0.0
 10
16.9135
 20
18.5714
 30
0.0
 10
15.3465
 20
17.0044
 30
0.0
 10
15.3465
 20
15.0714
 30
0.0
 10
15.3465
 20
15.0714
 30
0.0
 10
15.3465
 20
13.1384
 30
0.0
 10
16.9135
 20
11.5714
 30
0.0
 10
18.8465
 20
11.5714
 30
0.0
 10
18.8465
 20
11.5714
 30
0.0
 10
20.7795
 20
11.5714
 30
0.0
 10
22.3465
 20
13.1384
 30
0.0
 10
22.3465
 20
15.0714
 30
0.0
  0
SPLINE
  5
8F
330
1F
100
AcDbEntity
  8
Standard layer
 62
   250
370
    30
100
AcDbSpline
210
0.0
220
0.0
230
1.0
 70
    11
 71
     3
 72
    20
 73
    16
 74
     0
 42
0.0000000001
 43
0.0000000001
 40
0.0
 40
0.0
 40
0.0
 40
0.0
 40
0.2
 40
0.2
 40
0.2
 40
0.2
 40
0.4
 40
0.4
 40
0.4
 40
0.4
 40
0.6
 40
0.6
 40
0.6
 40
0.6
 40
1.0
 40
1.0
 40
1.0
 40
1.0
 10
12.3465
 20
15.0714
 30
0.0
 10
12.3465
 20
17.0044
 30
0.0
 10
10.7795
 20
18.5714
 30
0.0
 10
8.8465
 20
18.5714
 30
0.0
 10
8.8465
 20
18.5714
 30
0.0
 10
6.9135
 20
18.5714
 30
0.0
 10
5.3465
 20
17.0044
 30
0.0
 10
5.3465
 20
15.0714
 30
0.0
 10
5.3465
 20
15.0714
 30
0.0
 10
5.3465
 20
13.1384
 30
0.0
 10
6.9135
 20
11.5714
 30
0.0
 10
8.8465
 20
11.5714
 30
0.0
 10
8.8465
 20
11.5714
 30
0.0
 10
10.7795
 20
11.5714
 30
0.0
 10
12.3465
 20
13.1384
 30
0.0
 10
12.3465
 20
15.0714
 30
0.0
  0
SPLINE
  5
90
330
1F
100
AcDbEntity
  8
Standard layer
 62
   250
370
    30
100
AcDbSpline
210
0.0
220
0.0
230
1.0
 70
    11
 71
     3
 72
    20
 73
    16
 74
     0
 42
0.0000000001
 43
0.0000000001
 40
0.0
 40
0.0
 40
0.0
 40
0.0
 40
0.2
 40
0.2
 40
0.2
 40
0.2
 40
0.4
 40
0.4
 40
0.4
 40
0.4
 40
0.6
 40
0.6
 40
0.6
 40
0.6
 40
1.0
 40
1.0
 40
1.0
 40
1.0
 10
17.3465
 20
6.4111
 30
0.0
 10
17.3465
 20
8.3441
 30
0.0
 10
15.7795
 20
9.9111
 30
0.0
 10
13.8465
 20
9.9111
 30
0.0
 10
13.8465
 20
9.9111
 30
0.0
 10
11.9135
 20
9.9111
 30
0.0
 10
10.3465
 20
8.3441
 30
0.0
 10
10.3465
 20
6.4111
 30
0.0
 10
10.3465
 20
6.4111
 30
0.0
 10
10.3465
 20
4.4781
 30
0.0
 10
11.9135
 20
2.9111
 30
0.0
 10
13.8465
 20
2.9111
 30
0.0
 10
13.8465
 20
2.9111
 30
0.0
 10
15.7795
 20
2.9111
 30
0.0
 10
17.3465
 20
4.4781
 30
0.0
 10
17.3465
 20
6.4111
 30
0.0
  0
SPLINE
  5
91
330
1F
100
AcDbEntity
  8
Standard layer
 62
   250
370
    30
100
AcDbSpline
210
0.0
220
0.0
230
1.0
 70
    11
 71
     3
 72
    20
 73
    16
 74
     0
 42
0.0000000001
 43
0.0000000001
 40
0.0
 40
0.0
 40
0.0
 40
0.0
 40
0.2
 40
0.2
 40
0.2
 40
0.2
 40
0.4
 40
0.4
 40
0.4
 40
0.4
 40
0.6
 40
0.6
 40
0.6
 40
0.6
 40
1.0
 40
1.0
 40
1.0
 40
1.0
 10
7.3465
 20
6.4111
 30
0.0
 10
7.3465
 20
8.3441
 30
0.0
 10
5.7795
 20
9.9111
 30
0.0
 10
3.8465
 20
9.9111
 30
0.0
 10
3.8465
 20
9.9111
 30
0.0
 10
1.9135
 20
9.9111
 30
0.0
 10
0.3465
 20
8.3441
 30
0.0
 10
0.3465
 20
6.4111
 30
0.0
 10
0.3465
 20
6.4111
 30
0.0
 10
0.3465
 20
4.4781
 30
0.0
 10
1.9135
 20
2.9111
 30
0.0
 10
3.8465
 20
2.9111
 30
0.0
 10
3.8465
 20
2.9111
 30
0.0
 10
5.7795
 20
2.9111
 30
0.0
 10
7.3465
 20
4.4781
 30
0.0
 10
7.3465
 20
6.4111
 30
0.0
  0
SPLINE
  5
92
330
1F
100
AcDbEntity
  8
Standard layer
 62
   250
370
    30
100
AcDbSpline
210
0.0
220
0.0
230
1.0
 70
     8
 71
     3
 72
     8
 73
     4
 74
     0
 42
0.0000000001
 43
0.0000000001
 40
0.0
 40
0.0
 40
0.0
 40
0.0
 40
1.0
 40
1.0
 40
1.0
 40
1.0
 10
24.4469
 20
7.767
 30
0.0
 10
23.9864
 20
8.4803
 30
0.0
 10
23.1955
 20
8.9111
 30
0.0
 10
22.3465
 20
8.9111
 30
0.0
  0
SPLINE
  5
93
330
1F
100
AcDbEntity
  8
Standard layer
 62
   250
370
    30
100
AcDbSpline
210
0.0
220
0.0
230
1.0
 70
     8
 71
     3
 72
     8
 73
     4
 74
     0
 42
0.0000000001
 43
0.0000000001
 40
0.0
 40
0.0
 40
0.0
 40
0.0
 40
1.0
 40
1.0
 40
1.0
 40
1.0
 10
38.8465
 20
7.9111
 30
0.0
 10
38.8465
 20
9.0157
 30
0.0
 10
37.9511
 20
9.9111
 30
0.0
 10
36.8465
 20
9.9111
 30
0.0
  0
SPLINE
  5
94
330
1F
100
AcDbEntity
  8
Standard layer
 62
   250
370
    30
100
AcDbSpline
210
0.0
220
0.0
230
1.0
 70
    24
 71
     3
 72
     8
 73
     4
 74
     0
 42
0.0000000001
 43
0.0000000001
 40
0.0
 40
0.0
 40
0.0
 40
0.0
 40
1.0
 40
1.0
 40
1.0
 40
1.0
 10
24.0032
 20
2.9111
 30
0.0
 10
24.0032
 20
2.9111
 30
0.0
 10
22.3465
 20
2.9111
 30
0.0
 10
22.3465
 20
2.9111
 30
0.0
  0
SPLINE
  5
95
330
1F
100
AcDbEntity
  8
Standard layer
 62
   250
370
    30
100
AcDbSpline
210
0.0
220
0.0
230
1.0
 70
    24
 71
     3
 72
     8
 73
     4
 74
     0
 42
0.0000000001
 43
0.0000000001
 40
0.0
 40
0.0
 40
0.0
 40
0.0
 40
1.0
 40
1.0
 40
1.0
 40
1.0
 10
-14.6535
 20
2.9111
 30
0.0
 10
-14.6535
 20
2.9111
 30
0.0
 10
-16.3101
 20
2.9111
 30
0.0
 10
-16.3101
 20
2.9111
 30
0.0
  0
SPLINE
  5
96
330
1F
100
AcDbEntity
  8
Standard layer
 62
   250
370
    30
100
AcDbSpline
210
0.0
220
0.0
230
1.0
 70
    24
 71
     3
 72
     8
 73
     4
 74
     0
 42
0.0000000001
 43
0.0000000001
 40
0.0
 40
0.0
 40
0.0
 40
0.0
 40
1.0
 40
1.0
 40
1.0
 40
1.0
 10
-16.3101
 20
9.9111
 30
0.0
 10
-16.3101
 20
9.9111
 30
0.0
 10
-14.6535
 20
9.9111
 30
0.0
 10
-14.6535
 20
9.9111
 30
0.0
  0
SPLINE
  5
97
330
1F
100
AcDbEntity
  8
Standard layer
 62
   250
370
    30
100
AcDbSpline
210
0.0
220
0.0
230
1.0
 70
    24
 71
     3
 72
     8
 73
     4
 74
     0
 42
0.0000000001
 43
0.0000000001
 40
0.0
 40
0.0
 40
0.0
 40
0.0
 40
1.0
 40
1.0
 40
1.0
 40
1.0
 10
22.3465
 20
9.9111
 30
0.0
 10
22.3465
 20
9.9111
 30
0.0
 10
24.0032
 20
9.9111
 30
0.0
 10
24.0032
 20
9.9111
 30
0.0
  0
SPLINE
  5
98
330
1F
100
AcDbEntity
  8
Standard layer
 62
   250
370
    30
100
AcDbSpline
210
0.0
220
0.0
230
1.0
 70
    11
 71
     3
 72
    20
 73
    16
 74
     0
 42
0.0000000001
 43
0.0000000001
 40
0.0
 40
0.0
 40
0.0
 40
0.0
 40
0.2
 40
0.2
 40
0.2
 40
0.2
 40
0.4
 40
0.4
 40
0.4
 40
0.4
 40
0.6
 40
0.6
 40
0.6
 40
0.6
 40
1.0
 40
1.0
 40
1.0
 40
1.0
 10
-12.1535
 20
6.4111
 30
0.0
 10
-12.1535
 20
7.7918
 30
0.0
 10
-13.2728
 20
8.9111
 30
0.0
 10
-14.6535
 20
8.9111
 30
0.0
 10
-14.6535
 20
8.9111
 30
0.0
 10
-16.0342
 20
8.9111
 30
0.0
 10
-17.1535
 20
7.7918
 30
0.0
 10
-17.1535
 20
6.4111
 30
0.0
 10
-17.1535
 20
6.4111
 30
0.0
 10
-17.1535
 20
5.0304
 30
0.0
 10
-16.0342
 20
3.9111
 30
0.0
 10
-14.6535
 20
3.9111
 30
0.0
 10
-14.6535
 20
3.9111
 30
0.0
 10
-13.2728
 20
3.9111
 30
0.0
 10
-12.1535
 20
5.0304
 30
0.0
 10
-12.1535
 20
6.4111
 30
0.0
  0
SPLINE
  5
99
330
1F
100
AcDbEntity
  8
Standard layer
 62
   250
370
    30
100
AcDbSpline
210
0.0
220
0.0
230
1.0
 70
    11
 71
     3
 72
    20
 73
    16
 74
     0
 42
0.0000000001
 43
0.0000000001
 40
0.0
 40
0.0
 40
0.0
 40
0.0
 40
0.2
 40
0.2
 40
0.2
 40
0.2
 40
0.4
 40
0.4
 40
0.4
 40
0.4
 40
0.6
 40
0.6
 40
0.6
 40
0.6
 40
1.0
 40
1.0
 40
1.0
 40
1.0
 10
24.8465
 20
6.4111
 30
0.0
 10
24.8465
 20
7.7918
 30
0.0
 10
23.7272
 20
8.9111
 30
0.0
 10
22.3465
 20
8.9111
 30
0.0
 10
22.3465
 20
8.9111
 30
0.0
 10
20.9658
 20
8.9111
 30
0.0
 10
19.8465
 20
7.7918
 30
0.0
 10
19.8465
 20
6.4111
 30
0.0
 10
19.8465
 20
6.4111
 30
0.0
 10
19.8465
 20
5.0304
 30
0.0
 10
20.9658
 20
3.9111
 30
0.0
 10
22.3465
 20
3.9111
 30
0.0
 10
22.3465
 20
3.9111
 30
0.0
 10
23.7272
 20
3.9111
 30
0.0
 10
24.8465
 20
5.0304
 30
0.0
 10
24.8465
 20
6.4111
 30
0.0
  0
SPLINE
  5
9A
330
1F
100
AcDbEntity
  8
Standard layer
 62
   250
370
    30
100
AcDbSpline
210
0.0
220
0.0
230
1.0
 70
    24
 71
     3
 72
     8
 73
     4
 74
     0
 42
0.0000000001
 43
0.0000000001
 40
0.0
 40
0.0
 40
0.0
 40
0.0
 40
1.0
 40
1.0
 40
1.0
 40
1.0
 10
-15.4213
 20
1.9111
 30
0.0
 10
-15.4213
 20
1.9111
 30
0.0
 10
-14.6535
 20
1.9111
 30
0.0
 10
-14.6535
 20
1.9111
 30
0.0
  0
SPLINE
  5
9B
330
1F
100
AcDbEntity
  8
Standard layer
 62
   250
370
    30
100
AcDbSpline
210
0.0
220
0.0
230
1.0
 70
    24
 71
     3
 72
     8
 73
     4
 74
     0
 42
0.0000000001
 43
0.0000000001
 40
0.0
 40
0.0
 40
0.0
 40
0.0
 40
1.0
 40
1.0
 40
1.0
 40
1.0
 10
22.3465
 20
1.9111
 30
0.0
 10
22.3465
 20
1.9111
 30
0.0
 10
23.1144
 20
1.9111
 30
0.0
 10
23.1144
 20
1.9111
 30
0.0
  0
SPLINE
  5
9C
330
1F
100
AcDbEntity
  8
Standard layer
 62
   250
370
    30
100
AcDbSpline
210
0.0
220
0.0
230
1.0
 70
    24
 71
     3
 72
     8
 73
     4
 74
     0
 42
0.0000000001
 43
0.0000000001
 40
0.0
 40
0.0
 40
0.0
 40
0.0
 40
1.0
 40
1.0
 40
1.0
 40
1.0
 10
23.1144
 20
10.9111
 30
0.0
 10
23.1144
 20
10.9111
 30
0.0
 10
22.3465
 20
10.9111
 30
0.0
 10
22.3465
 20
10.9111
 30
0.0
  0
SPLINE
  5
9D
330
1F
100
AcDbEntity
  8
Standard layer
 62
   250
370
    30
100
AcDbSpline
210
0.0
220
0.0
230
1.0
 70
    24
 71
     3
 72
     8
 73
     4
 74
     0
 42
0.0000000001
 43
0.0000000001
 40
0.0
 40
0.0
 40
0.0
 40
0.0
 40
1.0
 40
1.0
 40
1.0
 40
1.0
 10
-14.6535
 20
10.9111
 30
0.0
 10
-14.6535
 20
10.9111
 30
0.0
 10
-15.4213
 20
10.9111
 30
0.0
 10
-15.4213
 20
10.9111
 30
0.0
  0
SPLINE
  5
9E
330
1F
100
AcDbEntity
  8
Standard layer
 62
   250
370
    30
100
AcDbSpline
210
0.0
220
0.0
230
1.0
 70
     8
 71
     3
 72
     8
 73
     4
 74
     0
 42
0.0000000001
 43
0.0000000001
 40
0.0
 40
0.0
 40
0.0
 40
0.0
 40
1.0
 40
1.0
 40
1.0
 40
1.0
 10
-15.4213
 20
1.9111
 30
0.0
 10
-16.2367
 20
1.9111
 30
0.0
 10
-17.0009
 20
1.5135
 30
0.0
 10
-17.4688
 20
0.8457
 30
0.0
  0
SPLINE
  5
9F
330
1F
100
AcDbEntity
  8
Standard layer
 62
   250
370
    30
100
AcDbSpline
210
0.0
220
0.0
230
1.0
 70
     8
 71
     3
 72
     8
 73
     4
 74
     0
 42
0.0000000001
 43
0.0000000001
 40
0.0
 40
0.0
 40
0.0
 40
0.0
 40
1.0
 40
1.0
 40
1.0
 40
1.0
 10
-17.4688
 20
0.8457
 30
0.0
 10
-17.9367
 20
0.1779
 30
0.0
 10
-18.0495
 20
-0.6761
 30
0.0
 10
-17.7711
 20
-1.4425
 30
0.0
  0
SPLINE
  5
A0
330
1F
100
AcDbEntity
  8
Standard layer
 62
   250
370
    30
100
AcDbSpline
210
0.0
220
0.0
230
1.0
 70
     8
 71
     3
 72
     8
 73
     4
 74
     0
 42
0.0000000001
 43
0.0000000001
 40
0.0
 40
0.0
 40
0.0
 40
0.0
 40
1.0
 40
1.0
 40
1.0
 40
1.0
 10
-17.7711
 20
14.2648
 30
0.0
 10
-18.0495
 20
13.4984
 30
0.0
 10
-17.9367
 20
12.6444
 30
0.0
 10
-17.4688
 20
11.9766
 30
0.0
  0
SPLINE
  5
A1
330
1F
100
AcDbEntity
  8
Standard layer
 62
   250
370
    30
100
AcDbSpline
210
0.0
220
0.0
230
1.0
 70
     8
 71
     3
 72
     8
 73
     4
 74
     0
 42
0.0000000001
 43
0.0000000001
 40
0.0
 40
0.0
 40
0.0
 40
0.0
 40
1.0
 40
1.0
 40
1.0
 40
1.0
 10
-17.4688
 20
11.9766
 30
0.0
 10
-17.0009
 20
11.3088
 30
0.0
 10
-16.2367
 20
10.9111
 30
0.0
 10
-15.4213
 20
10.9111
 30
0.0
  0
SPLINE
  5
A2
330
1F
100
AcDbEntity
  8
Standard layer
 62
   250
370
    30
100
AcDbSpline
210
0.0
220
0.0
230
1.0
 70
     8
 71
     3
 72
     8
 73
     4
 74
     0
 42
0.0000000001
 43
0.0000000001
 40
0.0
 40
0.0
 40
0.0
 40
0.0
 40
1.0
 40
1.0
 40
1.0
 40
1.0
 10
25.1618
 20
0.8457
 30
0.0
 10
25.6297
 20
0.1779
 30
0.0
 10
25.7425
 20
-0.6761
 30
0.0
 10
25.4641
 20
-1.4425
 30
0.0
  0
SPLINE
  5
A3
330
1F
100
AcDbEntity
  8
Standard layer
 62
   250
370
    30
100
AcDbSpline
210
0.0
220
0.0
230
1.0
 70
     8
 71
     3
 72
     8
 73
     4
 74
     0
 42
0.0000000001
 43
0.0000000001
 40
0.0
 40
0.0
 40
0.0
 40
0.0
 40
1.0
 40
1.0
 40
1.0
 40
1.0
 10
23.1144
 20
1.9111
 30
0.0
 10
23.9298
 20
1.9111
 30
0.0
 10
24.6939
 20
1.5135
 30
0.0
 10
25.1618
 20
0.8457
 30
0.0
  0
SPLINE
  5
A4
330
1F
100
AcDbEntity
  8
Standard layer
 62
   250
370
    30
100
AcDbSpline
210
0.0
220
0.0
230
1.0
 70
     8
 71
     3
 72
     8
 73
     4
 74
     0
 42
0.0000000001
 43
0.0000000001
 40
0.0
 40
0.0
 40
0.0
 40
0.0
 40
1.0
 40
1.0
 40
1.0
 40
1.0
 10
25.4641
 20
14.2648
 30
0.0
 10
22.1607
 20
23.3575
 30
0.0
 10
13.5207
 20
29.4111
 30
0.0
 10
3.8465
 20
29.4111
 30
0.0
  0
SPLINE
  5
A5
330
1F
100
AcDbEntity
  8
Standard layer
 62
   250
370
    30
100
AcDbSpline
210
0.0
220
0.0
230
1.0
 70
     8
 71
     3
 72
     8
 73
     4
 74
     0
 42
0.0000000001
 43
0.0000000001
 40
0.0
 40
0.0
 40
0.0
 40
0.0
 40
1.0
 40
1.0
 40
1.0
 40
1.0
 10
3.8465
 20
29.4111
 30
0.0
 10
-5.8276
 20
29.4111
 30
0.0
 10
-14.4677
 20
23.3575
 30
0.0
 10
-17.7711
 20
14.2648
 30
0.0
  0
SPLINE
  5
A6
330
1F
100
AcDbEntity
  8
Standard layer
 62
   250
370
    30
100
AcDbSpline
210
0.0
220
0.0
230
1.0
 70
     8
 71
     3
 72
     8
 73
     4
 74
     0
 42
0.0000000001
 43
0.0000000001
 40
0.0
 40
0.0
 40
0.0
 40
0.0
 40
1.0
 40
1.0
 40
1.0
 40
1.0
 10
-17.7711
 20
-1.4425
 30
0.0
 10
-14.4677
 20
-10.5352
 30
0.0
 10
-5.8276
 20
-16.5889
 30
0.0
 10
3.8465
 20
-16.5889
 30
0.0
  0
SPLINE
  5
A7
330
1F
100
AcDbEntity
  8
Standard layer
 62
   250
370
    30
100
AcDbSpline
210
0.0
220
0.0
230
1.0
 70
     8
 71
     3
 72
     8
 73
     4
 74
     0
 42
0.0000000001
 43
0.0000000001
 40
0.0
 40
0.0
 40
0.0
 40
0.0
 40
1.0
 40
1.0
 40
1.0
 40
1.0
 10
3.8465
 20
-16.5889
 30
0.0
 10
13.5207
 20
-16.5889
 30
0.0
 10
22.1607
 20
-10.5352
 30
0.0
 10
25.4641
 20
-1.4425
 30
0.0
  0
SPLINE
  5
A8
330
1F
100
AcDbEntity
  8
Standard layer
 62
   250
370
    30
100
AcDbSpline
210
0.0
220
0.0
230
1.0
 70
     8
 71
     3
 72
     8
 73
     4
 74
     0
 42
0.0000000001
 43
0.0000000001
 40
0.0
 40
0.0
 40
0.0
 40
0.0
 40
1.0
 40
1.0
 40
1.0
 40
1.0
 10
25.1618
 20
11.9766
 30
0.0
 10
24.6939
 20
11.3088
 30
0.0
 10
23.9298
 20
10.9111
 30
0.0
 10
23.1144
 20
10.9111
 30
0.0
  0
SPLINE
  5
A9
330
1F
100
AcDbEntity
  8
Standard layer
 62
   250
370
    30
100
AcDbSpline
210
0.0
220
0.0
230
1.0
 70
     8
 71
     3
 72
     8
 73
     4
 74
     0
 42
0.0000000001
 43
0.0000000001
 40
0.0
 40
0.0
 40
0.0
 40
0.0
 40
1.0
 40
1.0
 40
1.0
 40
1.0
 10
25.4641
 20
14.2648
 30
0.0
 10
25.7425
 20
13.4984
 30
0.0
 10
25.6297
 20
12.6444
 30
0.0
 10
25.1618
 20
11.9766
 30
0.0
  0
SPLINE
  5
AA
330
1F
100
AcDbEntity
  8
Standard layer
 62
   250
370
    30
100
AcDbSpline
210
0.0
220
0.0
230
1.0
 70
    24
 71
     3
 72
     8
 73
     4
 74
     0
 42
0.0000000001
 43
0.0000000001
 40
0.0
 40
0.0
 40
0.0
 40
0.0
 40
1.0
 40
1.0
 40
1.0
 40
1.0
 10
-31.1505
 20
-32.6469
 30
0.0
 10
-31.1505
 20
-32.6469
 30
0.0
 10
-31.1505
 20
-33.4469
 30
0.0
 10
-31.1505
 20
-33.4469
 30
0.0
  0
SPLINE
  5
AB
330
1F
100
AcDbEntity
  8
Standard layer
 62
   250
370
    30
100
AcDbSpline
210
0.0
220
0.0
230
1.0
 70
    24
 71
     3
 72
     8
 73
     4
 74
     0
 42
0.0000000001
 43
0.0000000001
 40
0.0
 40
0.0
 40
0.0
 40
0.0
 40
1.0
 40
1.0
 40
1.0
 40
1.0
 10
-31.1565
 20
-33.4469
 30
0.0
 10
-31.1565
 20
-33.4469
 30
0.0
 10
38.8492
 20
-33.4469
 30
0.0
 10
38.8492
 20
-33.4469
 30
0.0
  0
SPLINE
  5
AC
330
1F
100
AcDbEntity
  8
Standard layer
 62
   250
370
    30
100
AcDbSpline
210
0.0
220
0.0
230
1.0
 70
    24
 71
     3
 72
     8
 73
     4
 74
     0
 42
0.0000000001
 43
0.0000000001
 40
0.0
 40
0.0
 40
0.0
 40
0.0
 40
1.0
 40
1.0
 40
1.0
 40
1.0
 10
-31.0986
 20
-32.6469
 30
0.0
 10
-31.0986
 20
-32.6469
 30
0.0
 10
38.8493
 20
-32.6469
 30
0.0
 10
38.8493
 20
-32.6469
 30
0.0
  0
SPLINE
  5
AD
330
1F
100
AcDbEntity
  8
Standard layer
 62
   250
370
    30
100
AcDbSpline
210
0.0
220
0.0
230
1.0
 70
    24
 71
     3
 72
     8
 73
     4
 74
     0
 42
0.0000000001
 43
0.0000000001
 40
0.0
 40
0.0
 40
0.0
 40
0.0
 40
1.0
 40
1.0
 40
1.0
 40
1.0
 10
38.8495
 20
-32.6469
 30
0.0
 10
38.8495
 20
-32.6469
 30
0.0
 10
38.8495
 20
-33.4469
 30
0.0
 10
38.8495
 20
-33.4469
 30
0.0
  0
ENDSEC
  0
SECTION
  2
OBJECTS
  0
DICTIONARY
  5
C
330
0
100
AcDbDictionary
281
     1
  3
ACAD_GROUP
350
D
  3
ACAD_LAYOUT
350
1A
  3
ACAD_MATERIAL
350
3B
  3
ACAD_MLEADERSTYLE
350
B0
  3
ACAD_MLINESTYLE
350
17
  3
ACAD_PLOTSETTINGS
350
19
  3
ACAD_PLOTSTYLENAME
350
E
  3
ACAD_VISUALSTYLE
350
2A
  3
AcDbVariableDictionary
350
AE
  0
DICTIONARY
  5
D
102
{ACAD_REACTORS
330
C
102
}
330
C
100
AcDbDictionary
281
     1
  0
DICTIONARY
  5
1A
102
{ACAD_REACTORS
330
C
102
}
330
C
100
AcDbDictionary
281
     1
  3
Layout1
350
1E
  3
Layout2
350
26
  3
Model
350
22
  0
DICTIONARY
  5
3B
102
{ACAD_REACTORS
330
C
102
}
330
C
100
AcDbDictionary
281
     1
  3
ByBlock
350
3D
  3
ByLayer
350
3C
  3
Global
350
3E
  0
DICTIONARY
  5
B0
102
{ACAD_REACTORS
330
C
102
}
330
C
100
AcDbDictionary
281
     1
  0
DICTIONARY
  5
17
102
{ACAD_REACTORS
330
C
102
}
330
C
100
AcDbDictionary
281
     1
  3
Standard
350
18
  0
DICTIONARY
  5
19
102
{ACAD_REACTORS
330
C
102
}
330
C
100
AcDbDictionary
281
     1
  0
ACDBDICTIONARYWDFLT
  5
E
102
{ACAD_REACTORS
330
C
102
}
330
C
100
AcDbDictionary
281
     1
  3
Normal
350
F
100
AcDbDictionaryWithDefault
340
F
  0
DICTIONARY
  5
2A
102
{ACAD_REACTORS
330
C
102
}
330
C
100
AcDbDictionary
281
     1
  3
2dWireframe
350
2F
  3
3D Hidden
350
31
  3
3dWireframe
350
30
  3
Basic
350
32
  3
Brighten
350
36
  3
ColorChange
350
3A
  3
Conceptual
350
34
  3
Dim
350
35
  3
Facepattern
350
39
  3
Flat
350
2B
  3
FlatWithEdges
350
2C
  3
Gouraud
350
2D
  3
GouraudWithEdges
350
2E
  3
Linepattern
350
38
  3
Realistic
350
33
  3
Thicken
350
37
  0
DICTIONARY
  5
AE
102
{ACAD_REACTORS
330
C
102
}
330
C
100
AcDbDictionary
281
     1
  3
DIMASSOC
350
B1
  3
HIDETEXT
350
B2
  0
LAYOUT
  5
1E
102
{ACAD_REACTORS
330
1A
102
}
330
1A
100
AcDbPlotSettings
  1

  2
none_device
  4

  6

 40
0.0
 41
0.0
 42
0.0
 43
0.0
 44
0.0
 45
0.0
 46
0.0
 47
0.0
 48
0.0
 49
0.0
140
0.0
141
0.0
142
1.0
143
1.0
 70
   688
 72
     0
 73
     0
 74
     5
  7

 75
    16
147
1.0
148
0.0
149
0.0
100
AcDbLayout
  1
Layout1
 70
     1
 71
     1
 10
0.0
 20
0.0
 11
12.0
 21
9.0
 12
0.0
 22
0.0
 32
0.0
 14
1.000000000000000E+20
 24
1.000000000000000E+20
 34
1.000000000000000E+20
 15
-1.000000000000000E+20
 25
-1.000000000000000E+20
 35
-1.000000000000000E+20
146
0.0
 13
0.0
 23
0.0
 33
0.0
 16
1.0
 26
0.0
 36
0.0
 17
0.0
 27
1.0
 37
0.0
 76
     0
330
1B
  0
LAYOUT
  5
26
102
{ACAD_REACTORS
330
1A
102
}
330
1A
100
AcDbPlotSettings
  1

  2
none_device
  4

  6

 40
0.0
 41
0.0
 42
0.0
 43
0.0
 44
0.0
 45
0.0
 46
0.0
 47
0.0
 48
0.0
 49
0.0
140
0.0
141
0.0
142
1.0
143
1.0
 70
   688
 72
     0
 73
     0
 74
     5
  7

 75
    16
147
1.0
148
0.0
149
0.0
100
AcDbLayout
  1
Layout2
 70
     1
 71
     2
 10
0.0
 20
0.0
 11
0.0
 21
0.0
 12
0.0
 22
0.0
 32
0.0
 14
0.0
 24
0.0
 34
0.0
 15
0.0
 25
0.0
 35
0.0
146
0.0
 13
0.0
 23
0.0
 33
0.0
 16
1.0
 26
0.0
 36
0.0
 17
0.0
 27
1.0
 37
0.0
 76
     0
330
23
  0
LAYOUT
  5
22
102
{ACAD_REACTORS
330
1A
102
}
330
1A
100
AcDbPlotSettings
  1

  2
none_device
  4

  6

 40
0.0
 41
0.0
 42
0.0
 43
0.0
 44
0.0
 45
0.0
 46
0.0
 47
0.0
 48
0.0
 49
0.0
140
0.0
141
0.0
142
1.0
143
1.0
 70
  1712
 72
     0
 73
     0
 74
     0
  7

 75
     0
147
1.0
148
0.0
149
0.0
100
AcDbLayout
  1
Model
 70
     1
 71
     0
 10
0.0
 20
0.0
 11
12.0
 21
9.0
 12
0.0
 22
0.0
 32
0.0
 14
-38.8601
 24
-35.4276
 34
0.0
 15
38.9906
 25
35.4277
 35
0.0
146
0.0
 13
0.0
 23
0.0
 33
0.0
 16
1.0
 26
0.0
 36
0.0
 17
0.0
 27
1.0
 37
0.0
 76
     0
330
1F
331
29
  0
MATERIAL
  5
3D
102
{ACAD_REACTORS
330
3B
102
}
102
{ACAD_XDICTIONARY
360
D5
102
}
330
3B
100
AcDbMaterial
  1
ByBlock
  0
MATERIAL
  5
3C
102
{ACAD_REACTORS
330
3B
102
}
102
{ACAD_XDICTIONARY
360
D3
102
}
330
3B
100
AcDbMaterial
  1
ByLayer
  0
MATERIAL
  5
3E
102
{ACAD_REACTORS
330
3B
102
}
102
{ACAD_XDICTIONARY
360
D7
102
}
330
3B
100
AcDbMaterial
  1
Global
  0
MLINESTYLE
  5
18
102
{ACAD_REACTORS
330
17
102
}
330
17
100
AcDbMlineStyle
  2
Standard
 70
     0
  3

 62
   256
 51
90.0
 52
90.0
 71
     2
 49
0.5
 62
   256
  6
BYLAYER
 49
-0.5
 62
   256
  6
BYLAYER
  0
ACDBPLACEHOLDER
  5
F
102
{ACAD_REACTORS
330
E
102
}
330
E
  0
VISUALSTYLE
  5
2F
102
{ACAD_REACTORS
330
2A
102
}
102
{ACAD_XDICTIONARY
360
BB
102
}
330
2A
100
AcDbVisualStyle
  2
2dWireframe
 70
     4
 71
     0
 72
     2
 73
     0
 90
        0
 40
-0.6
 41
-30.0
 62
     5
 63
     7
 74
     1
 91
        4
 64
     7
 65
   257
 75
     1
175
     1
 42
1.0
 92
        0
 66
   257
 43
1.0
 76
     1
 77
     6
 78
     2
 67
     7
 79
     5
170
     0
171
     0
290
     0
174
     0
 93
        1
 44
0.0
173
     0
291
     0
 45
0.0
1001
ACAD
1000
AcDbSavedByObjectVersion
1070
     0
  0
VISUALSTYLE
  5
31
102
{ACAD_REACTORS
330
2A
102
}
102
{ACAD_XDICTIONARY
360
BF
102
}
330
2A
100
AcDbVisualStyle
  2
3D Hidden
 70
     6
 71
     1
 72
     2
 73
     2
 90
        0
 40
-0.6
 41
-30.0
 62
     5
 63
     7
 74
     2
 91
        2
 64
     7
 65
   257
 75
     2
175
     1
 42
40.0
 92
        0
 66
   257
 43
1.0
 76
     1
 77
     6
 78
     2
 67
     7
 79
     3
170
     0
171
     0
290
     0
174
     0
 93
        1
 44
0.0
173
     0
291
     0
 45
0.0
1001
ACAD
1000
AcDbSavedByObjectVersion
1070
     0
  0
VISUALSTYLE
  5
30
102
{ACAD_REACTORS
330
2A
102
}
102
{ACAD_XDICTIONARY
360
BD
102
}
330
2A
100
AcDbVisualStyle
  2
3dWireframe
 70
     5
 71
     0
 72
     2
 73
     0
 90
        0
 40
-0.6
 41
-30.0
 62
     5
 63
     7
 74
     1
 91
        4
 64
     7
 65
   257
 75
     1
175
     1
 42
1.0
 92
        0
 66
   257
 43
1.0
 76
     1
 77
     6
 78
     2
 67
     7
 79
     5
170
     0
171
     0
290
     0
174
     0
 93
        1
 44
0.0
173
     0
291
     0
 45
0.0
1001
ACAD
1000
AcDbSavedByObjectVersion
1070
     0
  0
VISUALSTYLE
  5
32
102
{ACAD_REACTORS
330
2A
102
}
102
{ACAD_XDICTIONARY
360
C1
102
}
330
2A
100
AcDbVisualStyle
  2
Basic
 70
     7
 71
     1
 72
     0
 73
     1
 90
        0
 40
-0.6
 41
-30.0
 62
     5
 63
     7
 74
     0
 91
        4
 64
     7
 65
   257
 75
     1
175
     1
 42
1.0
 92
        8
 66
     7
 43
1.0
 76
     1
 77
     6
 78
     2
 67
     7
 79
     5
170
     0
171
     0
290
     0
174
     0
 93
        1
 44
0.0
173
     0
291
     1
 45
0.0
1001
ACAD
1000
AcDbSavedByObjectVersion
1070
     0
  0
VISUALSTYLE
  5
36
102
{ACAD_REACTORS
330
2A
102
}
102
{ACAD_XDICTIONARY
360
C9
102
}
330
2A
100
AcDbVisualStyle
  2
Brighten
 70
    12
 71
     2
 72
     2
 73
     0
 90
        0
 40
-0.6
 41
-30.0
 62
     5
 63
     7
 74
     1
 91
        4
 64
     7
 65
   257
 75
     1
175
     1
 42
1.0
 92
        8
 66
     7
 43
1.0
 76
     1
 77
     6
 78
     2
 67
     7
 79
     5
170
     0
171
     0
290
     0
174
     0
 93
        1
 44
50.0
173
     0
291
     1
 45
0.0
1001
ACAD
1000
AcDbSavedByObjectVersion
1070
     0
  0
VISUALSTYLE
  5
3A
102
{ACAD_REACTORS
330
2A
102
}
102
{ACAD_XDICTIONARY
360
D1
102
}
330
2A
100
AcDbVisualStyle
  2
ColorChange
 70
    16
 71
     2
 72
     2
 73
     3
 90
        0
 40
-0.6
 41
-30.0
 62
     5
 63
     8
 74
     1
 91
        4
 64
     7
 65
   257
 75
     1
175
     1
 42
1.0
 92
        8
 66
     8
 43
1.0
 76
     1
 77
     6
 78
     2
 67
     7
 79
     5
170
     0
171
     0
290
     0
174
     0
 93
        1
 44
0.0
173
     0
291
     1
 45
0.0
1001
ACAD
1000
AcDbSavedByObjectVersion
1070
     0
  0
VISUALSTYLE
  5
34
102
{ACAD_REACTORS
330
2A
102
}
102
{ACAD_XDICTIONARY
360
C5
102
}
330
2A
100
AcDbVisualStyle
  2
Conceptual
 70
     9
 71
     3
 72
     2
 73
     0
 90
        0
 40
-0.6
 41
-30.0
 62
     5
 63
     7
 74
     2
 91
        2
 64
     7
 65
   257
 75
     1
175
     1
 42
40.0
 92
        8
 66
     7
 43
1.0
 76
     1
 77
     6
 78
     2
 67
     7
 79
     3
170
     0
171
     0
290
     0
174
     0
 93
        1
 44
0.0
173
     0
291
     0
 45
0.0
1001
ACAD
1000
AcDbSavedByObjectVersion
1070
     0
  0
VISUALSTYLE
  5
35
102
{ACAD_REACTORS
330
2A
102
}
102
{ACAD_XDICTIONARY
360
C7
102
}
330
2A
100
AcDbVisualStyle
  2
Dim
 70
    11
 71
     2
 72
     2
 73
     0
 90
        0
 40
-0.6
 41
-30.0
 62
     5
 63
     7
 74
     1
 91
        4
 64
     7
 65
   257
 75
     1
175
     1
 42
1.0
 92
        8
 66
     7
 43
1.0
 76
     1
 77
     6
 78
     2
 67
     7
 79
     5
170
     0
171
     0
290
     0
174
     0
 93
        1
 44
-50.0
173
     0
291
     1
 45
0.0
1001
ACAD
1000
AcDbSavedByObjectVersion
1070
     0
  0
VISUALSTYLE
  5
39
102
{ACAD_REACTORS
330
2A
102
}
102
{ACAD_XDICTIONARY
360
CF
102
}
330
2A
100
AcDbVisualStyle
  2
Facepattern
 70
    15
 71
     2
 72
     2
 73
     0
 90
        0
 40
-0.6
 41
-30.0
 62
     5
 63
     7
 74
     1
 91
        4
 64
     7
 65
   257
 75
     1
175
     1
 42
1.0
 92
        8
 66
     7
 43
1.0
 76
     1
 77
     6
 78
     2
 67
     7
 79
     5
170
     0
171
     0
290
     0
174
     0
 93
        1
 44
0.0
173
     0
291
     1
 45
0.0
1001
ACAD
1000
AcDbSavedByObjectVersion
1070
     0
  0
VISUALSTYLE
  5
2B
102
{ACAD_REACTORS
330
2A
102
}
102
{ACAD_XDICTIONARY
360
B3
102
}
330
2A
100
AcDbVisualStyle
  2
Flat
 70
     0
 71
     2
 72
     1
 73
     1
 90
        2
 40
-0.6
 41
30.0
 62
     5
 63
     7
 74
     0
 91
        4
 64
     7
 65
   257
 75
     1
175
     1
 42
1.0
 92
        8
 66
     7
 43
1.0
 76
     1
 77
     6
 78
     2
 67
     7
 79
     5
170
     0
171
     0
290
     0
174
     0
 93
       13
 44
0.0
173
     0
291
     1
 45
0.0
1001
ACAD
1000
AcDbSavedByObjectVersion
1070
     0
  0
VISUALSTYLE
  5
2C
102
{ACAD_REACTORS
330
2A
102
}
102
{ACAD_XDICTIONARY
360
B5
102
}
330
2A
100
AcDbVisualStyle
  2
FlatWithEdges
 70
     1
 71
     2
 72
     1
 73
     1
 90
        2
 40
-0.6
 41
30.0
 62
     5
 63
     7
 74
     1
 91
        4
 64
     7
 65
   257
 75
     1
175
     1
 42
1.0
 92
        0
 66
   257
 43
1.0
 76
     1
 77
     6
 78
     2
 67
     7
 79
     5
170
     0
171
     0
290
     0
174
     0
 93
       13
 44
0.0
173
     0
291
     1
 45
0.0
1001
ACAD
1000
AcDbSavedByObjectVersion
1070
     0
  0
VISUALSTYLE
  5
2D
102
{ACAD_REACTORS
330
2A
102
}
102
{ACAD_XDICTIONARY
360
B7
102
}
330
2A
100
AcDbVisualStyle
  2
Gouraud
 70
     2
 71
     2
 72
     2
 73
     1
 90
        2
 40
-0.6
 41
30.0
 62
     5
 63
     7
 74
     0
 91
        4
 64
     7
 65
   257
 75
     1
175
     1
 42
1.0
 92
        0
 66
     7
 43
1.0
 76
     1
 77
     6
 78
     2
 67
     7
 79
     5
170
     0
171
     0
290
     0
174
     0
 93
       13
 44
0.0
173
     0
291
     1
 45
0.0
1001
ACAD
1000
AcDbSavedByObjectVersion
1070
     0
  0
VISUALSTYLE
  5
2E
102
{ACAD_REACTORS
330
2A
102
}
102
{ACAD_XDICTIONARY
360
B9
102
}
330
2A
100
AcDbVisualStyle
  2
GouraudWithEdges
 70
     3
 71
     2
 72
     2
 73
     1
 90
        2
 40
-0.6
 41
30.0
 62
     5
 63
     7
 74
     1
 91
        4
 64
     7
 65
   257
 75
     1
175
     1
 42
1.0
 92
        0
 66
   257
 43
1.0
 76
     1
 77
     6
 78
     2
 67
     7
 79
     5
170
     0
171
     0
290
     0
174
     0
 93
       13
 44
0.0
173
     0
291
     1
 45
0.0
1001
ACAD
1000
AcDbSavedByObjectVersion
1070
     0
  0
VISUALSTYLE
  5
38
102
{ACAD_REACTORS
330
2A
102
}
102
{ACAD_XDICTIONARY
360
CD
102
}
330
2A
100
AcDbVisualStyle
  2
Linepattern
 70
    14
 71
     2
 72
     2
 73
     0
 90
        0
 40
-0.6
 41
-30.0
 62
     5
 63
     7
 74
     1
 91
        4
 64
     7
 65
   257
 75
     7
175
     7
 42
1.0
 92
        8
 66
     7
 43
1.0
 76
     1
 77
     6
 78
     2
 67
     7
 79
     5
170
     0
171
     0
290
     0
174
     0
 93
        1
 44
0.0
173
     0
291
     1
 45
0.0
1001
ACAD
1000
AcDbSavedByObjectVersion
1070
     0
  0
VISUALSTYLE
  5
33
102
{ACAD_REACTORS
330
2A
102
}
102
{ACAD_XDICTIONARY
360
C3
102
}
330
2A
100
AcDbVisualStyle
  2
Realistic
 70
     8
 71
     2
 72
     2
 73
     0
 90
        0
 40
-0.6
 41
-30.0
 62
     5
 63
     7
 74
     1
 91
        0
 64
     7
 65
   257
 75
     1
175
     1
 42
1.0
 92
        8
 66
     8
 43
1.0
 76
     1
 77
     6
 78
     2
 67
     7
 79
     5
170
     0
171
     0
290
     0
174
     0
 93
       13
 44
0.0
173
     0
291
     0
 45
0.0
1001
ACAD
1000
AcDbSavedByObjectVersion
1070
     0
  0
VISUALSTYLE
  5
37
102
{ACAD_REACTORS
330
2A
102
}
102
{ACAD_XDICTIONARY
360
CB
102
}
330
2A
100
AcDbVisualStyle
  2
Thicken
 70
    13
 71
     2
 72
     2
 73
     0
 90
        0
 40
-0.6
 41
-30.0
 62
     5
 63
     7
 74
     1
 91
        4
 64
     7
 65
   257
 75
     1
175
     1
 42
1.0
 92
       12
 66
     7
 43
1.0
 76
     1
 77
     6
 78
     2
 67
     7
 79
     5
170
     0
171
     0
290
     0
174
     0
 93
        1
 44
0.0
173
     0
291
     1
 45
0.0
1001
ACAD
1000
AcDbSavedByObjectVersion
1070
     0
  0
DICTIONARYVAR
  5
B1
102
{ACAD_REACTORS
330
AE
102
}
330
AE
100
DictionaryVariables
280
     0
  1
2
  0
DICTIONARYVAR
  5
B2
102
{ACAD_REACTORS
330
AE
102
}
330
AE
100
DictionaryVariables
280
     0
  1
1
  0
DICTIONARY
  5
D5
330
3D
100
AcDbDictionary
280
     1
281
     1
  3
ACAD_XREC_ROUNDTRIP
360
D6
  0
DICTIONARY
  5
D3
330
3C
100
AcDbDictionary
280
     1
281
     1
  3
ACAD_XREC_ROUNDTRIP
360
D4
  0
DICTIONARY
  5
D7
330
3E
100
AcDbDictionary
280
     1
281
     1
  3
ACAD_XREC_ROUNDTRIP
360
D8
  0
DICTIONARY
  5
BB
330
2F
100
AcDbDictionary
280
     1
281
     1
  3
ACAD_XREC_ROUNDTRIP
360
BC
  0
DICTIONARY
  5
BF
330
31
100
AcDbDictionary
280
     1
281
     1
  3
ACAD_XREC_ROUNDTRIP
360
C0
  0
DICTIONARY
  5
BD
330
30
100
AcDbDictionary
280
     1
281
     1
  3
ACAD_XREC_ROUNDTRIP
360
BE
  0
DICTIONARY
  5
C1
330
32
100
AcDbDictionary
280
     1
281
     1
  3
ACAD_XREC_ROUNDTRIP
360
C2
  0
DICTIONARY
  5
C9
330
36
100
AcDbDictionary
280
     1
281
     1
  3
ACAD_XREC_ROUNDTRIP
360
CA
  0
DICTIONARY
  5
D1
330
3A
100
AcDbDictionary
280
     1
281
     1
  3
ACAD_XREC_ROUNDTRIP
360
D2
  0
DICTIONARY
  5
C5
330
34
100
AcDbDictionary
280
     1
281
     1
  3
ACAD_XREC_ROUNDTRIP
360
C6
  0
DICTIONARY
  5
C7
330
35
100
AcDbDictionary
280
     1
281
     1
  3
ACAD_XREC_ROUNDTRIP
360
C8
  0
DICTIONARY
  5
CF
330
39
100
AcDbDictionary
280
     1
281
     1
  3
ACAD_XREC_ROUNDTRIP
360
D0
  0
DICTIONARY
  5
B3
330
2B
100
AcDbDictionary
280
     1
281
     1
  3
ACAD_XREC_ROUNDTRIP
360
B4
  0
DICTIONARY
  5
B5
330
2C
100
AcDbDictionary
280
     1
281
     1
  3
ACAD_XREC_ROUNDTRIP
360
B6
  0
DICTIONARY
  5
B7
330
2D
100
AcDbDictionary
280
     1
281
     1
  3
ACAD_XREC_ROUNDTRIP
360
B8
  0
DICTIONARY
  5
B9
330
2E
100
AcDbDictionary
280
     1
281
     1
  3
ACAD_XREC_ROUNDTRIP
360
BA
  0
DICTIONARY
  5
CD
330
38
100
AcDbDictionary
280
     1
281
     1
  3
ACAD_XREC_ROUNDTRIP
360
CE
  0
DICTIONARY
  5
C3
330
33
100
AcDbDictionary
280
     1
281
     1
  3
ACAD_XREC_ROUNDTRIP
360
C4
  0
DICTIONARY
  5
CB
330
37
100
AcDbDictionary
280
     1
281
     1
  3
ACAD_XREC_ROUNDTRIP
360
CC
  0
XRECORD
  5
D6
102
{ACAD_REACTORS
330
D5
102
}
330
D5
100
AcDbXrecord
280
     1
102
MATERIAL
148
0.0
149
0.0
149
0.0
 93
        0
 94
      127
282
     0
 72
     1
 77
     1
171
     1
175
     1
179
     1
273
     0
  0
XRECORD
  5
D4
102
{ACAD_REACTORS
330
D3
102
}
330
D3
100
AcDbXrecord
280
     1
102
MATERIAL
148
0.0
149
0.0
149
0.0
 93
        0
 94
      127
282
     0
 72
     1
 77
     1
171
     1
175
     1
179
     1
273
     0
  0
XRECORD
  5
D8
102
{ACAD_REACTORS
330
D7
102
}
330
D7
100
AcDbXrecord
280
     1
102
MATERIAL
148
0.0
149
0.0
149
0.0
 93
        0
 94
      127
282
     0
 72
     1
 77
     1
171
     1
175
     1
179
     1
273
     0
  0
XRECORD
  5
BC
102
{ACAD_REACTORS
330
BB
102
}
330
BB
100
AcDbXrecord
280
     1
102
RTVSPropertyOp0
 70
     1
102
RTVSPropertyOp1
 70
     1
102
RTVSPropertyOp2
 70
     1
102
RTVSPropertyOp3
 70
     1
102
RTVSPropertyOp4
 70
     1
102
RTVSPropertyOp5
 70
     1
102
RTVSPropertyOp6
 70
     1
102
RTVSPropertyOp7
 70
     1
102
RTVSPropertyOp8
 70
     1
102
RTVSPropertyOp9
 70
     1
102
RTVSPropertyOp10
 70
     1
102
RTVSPropertyOp11
 70
     1
102
RTVSPropertyOp12
 70
     1
102
RTVSPropertyOp13
 70
     1
102
RTVSPropertyOp14
 70
     1
102
RTVSPropertyOp15
 70
     1
102
RTVSPropertyOp16
 70
     1
102
RTVSPropertyOp17
 70
     1
102
RTVSPropertyOp18
 70
     1
102
RTVSPropertyOp19
 70
     1
102
RTVSPropertyOp20
 70
     1
102
RTVSPropertyOp21
 70
     1
102
RTVSPropertyOp22
 70
     1
102
RTVSPropertyOp23
 70
     1
102
RTVSPropertyOp24
 70
     1
102
RTVSPropertyOp25
 70
     1
102
RTVSPropertyOp26
 70
     1
102
RTVSPropertyOp27
 70
     1
  0
XRECORD
  5
C0
102
{ACAD_REACTORS
330
BF
102
}
330
BF
100
AcDbXrecord
280
     1
102
RTVSPropertyOp0
 70
     1
102
RTVSPropertyOp1
 70
     1
102
RTVSPropertyOp2
 70
     1
102
RTVSPropertyOp3
 70
     1
102
RTVSPropertyOp4
 70
     1
102
RTVSPropertyOp5
 70
     1
102
RTVSPropertyOp6
 70
     1
102
RTVSPropertyOp7
 70
     1
102
RTVSPropertyOp8
 70
     1
102
RTVSPropertyOp9
 70
     1
102
RTVSPropertyOp10
 70
     1
102
RTVSPropertyOp11
 70
     1
102
RTVSPropertyOp12
 70
     1
102
RTVSPropertyOp13
 70
     1
102
RTVSPropertyOp14
 70
     1
102
RTVSPropertyOp15
 70
     1
102
RTVSPropertyOp16
 70
     1
102
RTVSPropertyOp17
 70
     1
102
RTVSPropertyOp18
 70
     1
102
RTVSPropertyOp19
 70
     1
102
RTVSPropertyOp20
 70
     1
102
RTVSPropertyOp21
 70
     1
102
RTVSPropertyOp22
 70
     1
102
RTVSPropertyOp23
 70
     1
102
RTVSPropertyOp24
 70
     1
102
RTVSPropertyOp25
 70
     1
102
RTVSPropertyOp26
 70
     1
102
RTVSPropertyOp27
 70
     1
  0
XRECORD
  5
BE
102
{ACAD_REACTORS
330
BD
102
}
330
BD
100
AcDbXrecord
280
     1
102
RTVSPropertyOp0
 70
     1
102
RTVSPropertyOp1
 70
     1
102
RTVSPropertyOp2
 70
     1
102
RTVSPropertyOp3
 70
     1
102
RTVSPropertyOp4
 70
     1
102
RTVSPropertyOp5
 70
     1
102
RTVSPropertyOp6
 70
     1
102
RTVSPropertyOp7
 70
     1
102
RTVSPropertyOp8
 70
     1
102
RTVSPropertyOp9
 70
     1
102
RTVSPropertyOp10
 70
     1
102
RTVSPropertyOp11
 70
     1
102
RTVSPropertyOp12
 70
     1
102
RTVSPropertyOp13
 70
     1
102
RTVSPropertyOp14
 70
     1
102
RTVSPropertyOp15
 70
     1
102
RTVSPropertyOp16
 70
     1
102
RTVSPropertyOp17
 70
     1
102
RTVSPropertyOp18
 70
     1
102
RTVSPropertyOp19
 70
     1
102
RTVSPropertyOp20
 70
     1
102
RTVSPropertyOp21
 70
     1
102
RTVSPropertyOp22
 70
     1
102
RTVSPropertyOp23
 70
     1
102
RTVSPropertyOp24
 70
     1
102
RTVSPropertyOp25
 70
     1
102
RTVSPropertyOp26
 70
     1
102
RTVSPropertyOp27
 70
     1
  0
XRECORD
  5
C2
102
{ACAD_REACTORS
330
C1
102
}
330
C1
100
AcDbXrecord
280
     1
102
RTVSPropertyOp0
 70
     1
102
RTVSPropertyOp1
 70
     1
102
RTVSPropertyOp2
 70
     1
102
RTVSPropertyOp3
 70
     1
102
RTVSPropertyOp4
 70
     1
102
RTVSPropertyOp5
 70
     1
102
RTVSPropertyOp6
 70
     1
102
RTVSPropertyOp7
 70
     1
102
RTVSPropertyOp8
 70
     1
102
RTVSPropertyOp9
 70
     1
102
RTVSPropertyOp10
 70
     1
102
RTVSPropertyOp11
 70
     1
102
RTVSPropertyOp12
 70
     1
102
RTVSPropertyOp13
 70
     1
102
RTVSPropertyOp14
 70
     1
102
RTVSPropertyOp15
 70
     1
102
RTVSPropertyOp16
 70
     1
102
RTVSPropertyOp17
 70
     1
102
RTVSPropertyOp18
 70
     1
102
RTVSPropertyOp19
 70
     1
102
RTVSPropertyOp20
 70
     1
102
RTVSPropertyOp21
 70
     1
102
RTVSPropertyOp22
 70
     1
102
RTVSPropertyOp23
 70
     1
102
RTVSPropertyOp24
 70
     1
102
RTVSPropertyOp25
 70
     1
102
RTVSPropertyOp26
 70
     1
102
RTVSPropertyOp27
 70
     1
  0
XRECORD
  5
CA
102
{ACAD_REACTORS
330
C9
102
}
330
C9
100
AcDbXrecord
280
     1
102
RTVSPropertyOp0
 70
     1
102
RTVSPropertyOp1
 70
     1
102
RTVSPropertyOp2
 70
     1
102
RTVSPropertyOp3
 70
     1
102
RTVSPropertyOp4
 70
     1
102
RTVSPropertyOp5
 70
     1
102
RTVSPropertyOp6
 70
     1
102
RTVSPropertyOp7
 70
     1
102
RTVSPropertyOp8
 70
     1
102
RTVSPropertyOp9
 70
     1
102
RTVSPropertyOp10
 70
     1
102
RTVSPropertyOp11
 70
     1
102
RTVSPropertyOp12
 70
     1
102
RTVSPropertyOp13
 70
     1
102
RTVSPropertyOp14
 70
     1
102
RTVSPropertyOp15
 70
     1
102
RTVSPropertyOp16
 70
     1
102
RTVSPropertyOp17
 70
     1
102
RTVSPropertyOp18
 70
     1
102
RTVSPropertyOp19
 70
     1
102
RTVSPropertyOp20
 70
     1
102
RTVSPropertyOp21
 70
     1
102
RTVSPropertyOp22
 70
     1
102
RTVSPropertyOp23
 70
     1
102
RTVSPropertyOp24
 70
     1
102
RTVSPropertyOp25
 70
     1
102
RTVSPropertyOp26
 70
     1
102
RTVSPropertyOp27
 70
     1
  0
XRECORD
  5
D2
102
{ACAD_REACTORS
330
D1
102
}
330
D1
100
AcDbXrecord
280
     1
102
RTVSPropertyOp0
 70
     1
102
RTVSPropertyOp1
 70
     1
102
RTVSPropertyOp2
 70
     1
102
RTVSPropertyOp3
 70
     1
102
RTVSPropertyOp4
 70
     1
102
RTVSPropertyOp5
 70
     1
102
RTVSPropertyOp6
 70
     1
102
RTVSPropertyOp7
 70
     1
102
RTVSPropertyOp8
 70
     1
102
RTVSPropertyOp9
 70
     1
102
RTVSPropertyOp10
 70
     1
102
RTVSPropertyOp11
 70
     1
102
RTVSPropertyOp12
 70
     1
102
RTVSPropertyOp13
 70
     1
102
RTVSPropertyOp14
 70
     1
102
RTVSPropertyOp15
 70
     1
102
RTVSPropertyOp16
 70
     1
102
RTVSPropertyOp17
 70
     1
102
RTVSPropertyOp18
 70
     1
102
RTVSPropertyOp19
 70
     1
102
RTVSPropertyOp20
 70
     1
102
RTVSPropertyOp21
 70
     1
102
RTVSPropertyOp22
 70
     1
102
RTVSPropertyOp23
 70
     1
102
RTVSPropertyOp24
 70
     1
102
RTVSPropertyOp25
 70
     1
102
RTVSPropertyOp26
 70
     1
102
RTVSPropertyOp27
 70
     1
  0
XRECORD
  5
C6
102
{ACAD_REACTORS
330
C5
102
}
330
C5
100
AcDbXrecord
280
     1
102
RTVSPropertyOp0
 70
     1
102
RTVSPropertyOp1
 70
     1
102
RTVSPropertyOp2
 70
     1
102
RTVSPropertyOp3
 70
     1
102
RTVSPropertyOp4
 70
     1
102
RTVSPropertyOp5
 70
     1
102
RTVSPropertyOp6
 70
     1
102
RTVSPropertyOp7
 70
     1
102
RTVSPropertyOp8
 70
     1
102
RTVSPropertyOp9
 70
     1
102
RTVSPropertyOp10
 70
     1
102
RTVSPropertyOp11
 70
     1
102
RTVSPropertyOp12
 70
     1
102
RTVSPropertyOp13
 70
     1
102
RTVSPropertyOp14
 70
     1
102
RTVSPropertyOp15
 70
     1
102
RTVSPropertyOp16
 70
     1
102
RTVSPropertyOp17
 70
     1
102
RTVSPropertyOp18
 70
     1
102
RTVSPropertyOp19
 70
     1
102
RTVSPropertyOp20
 70
     1
102
RTVSPropertyOp21
 70
     1
102
RTVSPropertyOp22
 70
     1
102
RTVSPropertyOp23
 70
     1
102
RTVSPropertyOp24
 70
     1
102
RTVSPropertyOp25
 70
     1
102
RTVSPropertyOp26
 70
     1
102
RTVSPropertyOp27
 70
     1
  0
XRECORD
  5
C8
102
{ACAD_REACTORS
330
C7
102
}
330
C7
100
AcDbXrecord
280
     1
102
RTVSPropertyOp0
 70
     1
102
RTVSPropertyOp1
 70
     1
102
RTVSPropertyOp2
 70
     1
102
RTVSPropertyOp3
 70
     1
102
RTVSPropertyOp4
 70
     1
102
RTVSPropertyOp5
 70
     1
102
RTVSPropertyOp6
 70
     1
102
RTVSPropertyOp7
 70
     1
102
RTVSPropertyOp8
 70
     1
102
RTVSPropertyOp9
 70
     1
102
RTVSPropertyOp10
 70
     1
102
RTVSPropertyOp11
 70
     1
102
RTVSPropertyOp12
 70
     1
102
RTVSPropertyOp13
 70
     1
102
RTVSPropertyOp14
 70
     1
102
RTVSPropertyOp15
 70
     1
102
RTVSPropertyOp16
 70
     1
102
RTVSPropertyOp17
 70
     1
102
RTVSPropertyOp18
 70
     1
102
RTVSPropertyOp19
 70
     1
102
RTVSPropertyOp20
 70
     1
102
RTVSPropertyOp21
 70
     1
102
RTVSPropertyOp22
 70
     1
102
RTVSPropertyOp23
 70
     1
102
RTVSPropertyOp24
 70
     1
102
RTVSPropertyOp25
 70
     1
102
RTVSPropertyOp26
 70
     1
102
RTVSPropertyOp27
 70
     1
  0
XRECORD
  5
D0
102
{ACAD_REACTORS
330
CF
102
}
330
CF
100
AcDbXrecord
280
     1
102
RTVSPropertyOp0
 70
     1
102
RTVSPropertyOp1
 70
     1
102
RTVSPropertyOp2
 70
     1
102
RTVSPropertyOp3
 70
     1
102
RTVSPropertyOp4
 70
     1
102
RTVSPropertyOp5
 70
     1
102
RTVSPropertyOp6
 70
     1
102
RTVSPropertyOp7
 70
     1
102
RTVSPropertyOp8
 70
     1
102
RTVSPropertyOp9
 70
     1
102
RTVSPropertyOp10
 70
     1
102
RTVSPropertyOp11
 70
     1
102
RTVSPropertyOp12
 70
     1
102
RTVSPropertyOp13
 70
     1
102
RTVSPropertyOp14
 70
     1
102
RTVSPropertyOp15
 70
     1
102
RTVSPropertyOp16
 70
     1
102
RTVSPropertyOp17
 70
     1
102
RTVSPropertyOp18
 70
     1
102
RTVSPropertyOp19
 70
     1
102
RTVSPropertyOp20
 70
     1
102
RTVSPropertyOp21
 70
     1
102
RTVSPropertyOp22
 70
     1
102
RTVSPropertyOp23
 70
     1
102
RTVSPropertyOp24
 70
     1
102
RTVSPropertyOp25
 70
     1
102
RTVSPropertyOp26
 70
     1
102
RTVSPropertyOp27
 70
     1
  0
XRECORD
  5
B4
102
{ACAD_REACTORS
330
B3
102
}
330
B3
100
AcDbXrecord
280
     1
102
RTVSPropertyOp0
 70
     1
102
RTVSPropertyOp1
 70
     1
102
RTVSPropertyOp2
 70
     1
102
RTVSPropertyOp3
 70
     1
102
RTVSPropertyOp4
 70
     1
102
RTVSPropertyOp5
 70
     1
102
RTVSPropertyOp6
 70
     1
102
RTVSPropertyOp7
 70
     1
102
RTVSPropertyOp8
 70
     1
102
RTVSPropertyOp9
 70
     1
102
RTVSPropertyOp10
 70
     1
102
RTVSPropertyOp11
 70
     1
102
RTVSPropertyOp12
 70
     1
102
RTVSPropertyOp13
 70
     1
102
RTVSPropertyOp14
 70
     1
102
RTVSPropertyOp15
 70
     1
102
RTVSPropertyOp16
 70
     1
102
RTVSPropertyOp17
 70
     1
102
RTVSPropertyOp18
 70
     1
102
RTVSPropertyOp19
 70
     1
102
RTVSPropertyOp20
 70
     1
102
RTVSPropertyOp21
 70
     1
102
RTVSPropertyOp22
 70
     1
102
RTVSPropertyOp23
 70
     1
102
RTVSPropertyOp24
 70
     1
102
RTVSPropertyOp25
 70
     1
102
RTVSPropertyOp26
 70
     1
102
RTVSPropertyOp27
 70
     1
  0
XRECORD
  5
B6
102
{ACAD_REACTORS
330
B5
102
}
330
B5
100
AcDbXrecord
280
     1
102
RTVSPropertyOp0
 70
     1
102
RTVSPropertyOp1
 70
     1
102
RTVSPropertyOp2
 70
     1
102
RTVSPropertyOp3
 70
     1
102
RTVSPropertyOp4
 70
     1
102
RTVSPropertyOp5
 70
     1
102
RTVSPropertyOp6
 70
     1
102
RTVSPropertyOp7
 70
     1
102
RTVSPropertyOp8
 70
     1
102
RTVSPropertyOp9
 70
     1
102
RTVSPropertyOp10
 70
     1
102
RTVSPropertyOp11
 70
     1
102
RTVSPropertyOp12
 70
     1
102
RTVSPropertyOp13
 70
     1
102
RTVSPropertyOp14
 70
     1
102
RTVSPropertyOp15
 70
     1
102
RTVSPropertyOp16
 70
     1
102
RTVSPropertyOp17
 70
     1
102
RTVSPropertyOp18
 70
     1
102
RTVSPropertyOp19
 70
     1
102
RTVSPropertyOp20
 70
     1
102
RTVSPropertyOp21
 70
     1
102
RTVSPropertyOp22
 70
     1
102
RTVSPropertyOp23
 70
     1
102
RTVSPropertyOp24
 70
     1
102
RTVSPropertyOp25
 70
     1
102
RTVSPropertyOp26
 70
     1
102
RTVSPropertyOp27
 70
     1
  0
XRECORD
  5
B8
102
{ACAD_REACTORS
330
B7
102
}
330
B7
100
AcDbXrecord
280
     1
102
RTVSPropertyOp0
 70
     1
102
RTVSPropertyOp1
 70
     1
102
RTVSPropertyOp2
 70
     1
102
RTVSPropertyOp3
 70
     1
102
RTVSPropertyOp4
 70
     1
102
RTVSPropertyOp5
 70
     1
102
RTVSPropertyOp6
 70
     1
102
RTVSPropertyOp7
 70
     1
102
RTVSPropertyOp8
 70
     1
102
RTVSPropertyOp9
 70
     1
102
RTVSPropertyOp10
 70
     1
102
RTVSPropertyOp11
 70
     1
102
RTVSPropertyOp12
 70
     1
102
RTVSPropertyOp13
 70
     1
102
RTVSPropertyOp14
 70
     1
102
RTVSPropertyOp15
 70
     1
102
RTVSPropertyOp16
 70
     1
102
RTVSPropertyOp17
 70
     1
102
RTVSPropertyOp18
 70
     1
102
RTVSPropertyOp19
 70
     1
102
RTVSPropertyOp20
 70
     1
102
RTVSPropertyOp21
 70
     1
102
RTVSPropertyOp22
 70
     1
102
RTVSPropertyOp23
 70
     1
102
RTVSPropertyOp24
 70
     1
102
RTVSPropertyOp25
 70
     1
102
RTVSPropertyOp26
 70
     1
102
RTVSPropertyOp27
 70
     1
  0
XRECORD
  5
BA
102
{ACAD_REACTORS
330
B9
102
}
330
B9
100
AcDbXrecord
280
     1
102
RTVSPropertyOp0
 70
     1
102
RTVSPropertyOp1
 70
     1
102
RTVSPropertyOp2
 70
     1
102
RTVSPropertyOp3
 70
     1
102
RTVSPropertyOp4
 70
     1
102
RTVSPropertyOp5
 70
     1
102
RTVSPropertyOp6
 70
     1
102
RTVSPropertyOp7
 70
     1
102
RTVSPropertyOp8
 70
     1
102
RTVSPropertyOp9
 70
     1
102
RTVSPropertyOp10
 70
     1
102
RTVSPropertyOp11
 70
     1
102
RTVSPropertyOp12
 70
     1
102
RTVSPropertyOp13
 70
     1
102
RTVSPropertyOp14
 70
     1
102
RTVSPropertyOp15
 70
     1
102
RTVSPropertyOp16
 70
     1
102
RTVSPropertyOp17
 70
     1
102
RTVSPropertyOp18
 70
     1
102
RTVSPropertyOp19
 70
     1
102
RTVSPropertyOp20
 70
     1
102
RTVSPropertyOp21
 70
     1
102
RTVSPropertyOp22
 70
     1
102
RTVSPropertyOp23
 70
     1
102
RTVSPropertyOp24
 70
     1
102
RTVSPropertyOp25
 70
     1
102
RTVSPropertyOp26
 70
     1
102
RTVSPropertyOp27
 70
     1
  0
XRECORD
  5
CE
102
{ACAD_REACTORS
330
CD
102
}
330
CD
100
AcDbXrecord
280
     1
102
RTVSPropertyOp0
 70
     1
102
RTVSPropertyOp1
 70
     1
102
RTVSPropertyOp2
 70
     1
102
RTVSPropertyOp3
 70
     1
102
RTVSPropertyOp4
 70
     1
102
RTVSPropertyOp5
 70
     1
102
RTVSPropertyOp6
 70
     1
102
RTVSPropertyOp7
 70
     1
102
RTVSPropertyOp8
 70
     1
102
RTVSPropertyOp9
 70
     1
102
RTVSPropertyOp10
 70
     1
102
RTVSPropertyOp11
 70
     1
102
RTVSPropertyOp12
 70
     1
102
RTVSPropertyOp13
 70
     1
102
RTVSPropertyOp14
 70
     1
102
RTVSPropertyOp15
 70
     1
102
RTVSPropertyOp16
 70
     1
102
RTVSPropertyOp17
 70
     1
102
RTVSPropertyOp18
 70
     1
102
RTVSPropertyOp19
 70
     1
102
RTVSPropertyOp20
 70
     1
102
RTVSPropertyOp21
 70
     1
102
RTVSPropertyOp22
 70
     1
102
RTVSPropertyOp23
 70
     1
102
RTVSPropertyOp24
 70
     1
102
RTVSPropertyOp25
 70
     1
102
RTVSPropertyOp26
 70
     1
102
RTVSPropertyOp27
 70
     1
  0
XRECORD
  5
C4
102
{ACAD_REACTORS
330
C3
102
}
330
C3
100
AcDbXrecord
280
     1
102
RTVSPropertyOp0
 70
     1
102
RTVSPropertyOp1
 70
     1
102
RTVSPropertyOp2
 70
     1
102
RTVSPropertyOp3
 70
     1
102
RTVSPropertyOp4
 70
     1
102
RTVSPropertyOp5
 70
     1
102
RTVSPropertyOp6
 70
     1
102
RTVSPropertyOp7
 70
     1
102
RTVSPropertyOp8
 70
     1
102
RTVSPropertyOp9
 70
     1
102
RTVSPropertyOp10
 70
     1
102
RTVSPropertyOp11
 70
     1
102
RTVSPropertyOp12
 70
     1
102
RTVSPropertyOp13
 70
     1
102
RTVSPropertyOp14
 70
     1
102
RTVSPropertyOp15
 70
     1
102
RTVSPropertyOp16
 70
     1
102
RTVSPropertyOp17
 70
     1
102
RTVSPropertyOp18
 70
     1
102
RTVSPropertyOp19
 70
     1
102
RTVSPropertyOp20
 70
     1
102
RTVSPropertyOp21
 70
     1
102
RTVSPropertyOp22
 70
     1
102
RTVSPropertyOp23
 70
     1
102
RTVSPropertyOp24
 70
     1
102
RTVSPropertyOp25
 70
     1
102
RTVSPropertyOp26
 70
     1
102
RTVSPropertyOp27
 70
     1
  0
XRECORD
  5
CC
102
{ACAD_REACTORS
330
CB
102
}
330
CB
100
AcDbXrecord
280
     1
102
RTVSPropertyOp0
 70
     1
102
RTVSPropertyOp1
 70
     1
102
RTVSPropertyOp2
 70
     1
102
RTVSPropertyOp3
 70
     1
102
RTVSPropertyOp4
 70
     1
102
RTVSPropertyOp5
 70
     1
102
RTVSPropertyOp6
 70
     1
102
RTVSPropertyOp7
 70
     1
102
RTVSPropertyOp8
 70
     1
102
RTVSPropertyOp9
 70
     1
102
RTVSPropertyOp10
 70
     1
102
RTVSPropertyOp11
 70
     1
102
RTVSPropertyOp12
 70
     1
102
RTVSPropertyOp13
 70
     1
102
RTVSPropertyOp14
 70
     1
102
RTVSPropertyOp15
 70
     1
102
RTVSPropertyOp16
 70
     1
102
RTVSPropertyOp17
 70
     1
102
RTVSPropertyOp18
 70
     1
102
RTVSPropertyOp19
 70
     1
102
RTVSPropertyOp20
 70
     1
102
RTVSPropertyOp21
 70
     1
102
RTVSPropertyOp22
 70
     1
102
RTVSPropertyOp23
 70
     1
102
RTVSPropertyOp24
 70
     1
102
RTVSPropertyOp25
 70
     1
102
RTVSPropertyOp26
 70
     1
102
RTVSPropertyOp27
 70
     1
  0
ENDSEC
  0
EOF
