  0
SECTION
  2
HEADER
  9
$ACADVER
  1
AC1015
  9
$ACADMAINTVER
 70
     6
  9
$DWGCODEPAGE
  3
ANSI_1250
  9
$INSBASE
 10
0.0
 20
0.0
 30
0.0
  9
$EXTMIN
 10
-37.5883
 20
-37.6212
 30
0.0
  9
$EXTMAX
 10
37.5883
 20
37.5443
 30
0.0
  9
$LIMMIN
 10
0.0
 20
0.0
  9
$LIMMAX
 10
12.0
 20
9.0
  9
$ORTHOMODE
 70
     0
  9
$REGENMODE
 70
     1
  9
$FILLMODE
 70
     1
  9
$QTEXTMODE
 70
     0
  9
$MIRRTEXT
 70
     1
  9
$LTSCALE
 40
1.0
  9
$ATTMODE
 70
     1
  9
$TEXTSIZE
 40
0.2
  9
$TRACEWID
 40
0.05
  9
$TEXTSTYLE
  7
Standard
  9
$CLAYER
  8
0
  9
$CELTYPE
  6
ByLayer
  9
$CECOLOR
 62
   256
  9
$CELTSCALE
 40
1.0
  9
$DISPSILH
 70
     0
  9
$DIMSCALE
 40
1.0
  9
$DIMASZ
 40
0.18
  9
$DIMEXO
 40
0.0625
  9
$DIMDLI
 40
0.38
  9
$DIMRND
 40
0.0
  9
$DIMDLE
 40
0.0
  9
$DIMEXE
 40
0.18
  9
$DIMTP
 40
0.0
  9
$DIMTM
 40
0.0
  9
$DIMTXT
 40
0.18
  9
$DIMCEN
 40
0.09
  9
$DIMTSZ
 40
0.0
  9
$DIMTOL
 70
     0
  9
$DIMLIM
 70
     0
  9
$DIMTIH
 70
     1
  9
$DIMTOH
 70
     1
  9
$DIMSE1
 70
     0
  9
$DIMSE2
 70
     0
  9
$DIMTAD
 70
     0
  9
$DIMZIN
 70
     0
  9
$DIMBLK
  1

  9
$DIMASO
 70
     1
  9
$DIMSHO
 70
     1
  9
$DIMPOST
  1

  9
$DIMAPOST
  1

  9
$DIMALT
 70
     0
  9
$DIMALTD
 70
     2
  9
$DIMALTF
 40
25.4
  9
$DIMLFAC
 40
1.0
  9
$DIMTOFL
 70
     0
  9
$DIMTVP
 40
0.0
  9
$DIMTIX
 70
     0
  9
$DIMSOXD
 70
     0
  9
$DIMSAH
 70
     0
  9
$DIMBLK1
  1

  9
$DIMBLK2
  1

  9
$DIMSTYLE
  2
Standard
  9
$DIMCLRD
 70
     0
  9
$DIMCLRE
 70
     0
  9
$DIMCLRT
 70
     0
  9
$DIMTFAC
 40
1.0
  9
$DIMGAP
 40
0.09
  9
$DIMJUST
 70
     0
  9
$DIMSD1
 70
     0
  9
$DIMSD2
 70
     0
  9
$DIMTOLJ
 70
     1
  9
$DIMTZIN
 70
     0
  9
$DIMALTZ
 70
     0
  9
$DIMALTTZ
 70
     0
  9
$DIMUPT
 70
     0
  9
$DIMDEC
 70
     4
  9
$DIMTDEC
 70
     4
  9
$DIMALTU
 70
     2
  9
$DIMALTTD
 70
     2
  9
$DIMTXSTY
  7
Standard
  9
$DIMAUNIT
 70
     0
  9
$DIMADEC
 70
     0
  9
$DIMALTRND
 40
0.0
  9
$DIMAZIN
 70
     0
  9
$DIMDSEP
 70
    46
  9
$DIMATFIT
 70
     3
  9
$DIMFRAC
 70
     0
  9
$DIMLDRBLK
  1

  9
$DIMLUNIT
 70
     2
  9
$DIMLWD
 70
    -2
  9
$DIMLWE
 70
    -2
  9
$DIMTMOVE
 70
     0
  9
$LUNITS
 70
     2
  9
$LUPREC
 70
     4
  9
$SKETCHINC
 40
0.1
  9
$FILLETRAD
 40
0.5
  9
$AUNITS
 70
     0
  9
$AUPREC
 70
     0
  9
$MENU
  1
.
  9
$ELEVATION
 40
0.0
  9
$PELEVATION
 40
0.0
  9
$THICKNESS
 40
0.0
  9
$LIMCHECK
 70
     0
  9
$CHAMFERA
 40
0.5
  9
$CHAMFERB
 40
0.5
  9
$CHAMFERC
 40
1.0
  9
$CHAMFERD
 40
0.0
  9
$SKPOLY
 70
     0
  9
$TDCREATE
 40
2457822.50508059
  9
$TDUCREATE
 40
2457822.463413924
  9
$TDUPDATE
 40
2457822.505080602
  9
$TDUUPDATE
 40
2457822.463413935
  9
$TDINDWG
 40
0.0000000116
  9
$TDUSRTIMER
 40
0.0000000116
  9
$USRTIMER
 70
     1
  9
$ANGBASE
 50
0.0
  9
$ANGDIR
 70
     0
  9
$PDMODE
 70
     0
  9
$PDSIZE
 40
0.0
  9
$PLINEWID
 40
0.0
  9
$SPLFRAME
 70
     0
  9
$SPLINETYPE
 70
     6
  9
$SPLINESEGS
 70
     8
  9
$HANDSEED
  5
170
  9
$SURFTAB1
 70
     6
  9
$SURFTAB2
 70
     6
  9
$SURFTYPE
 70
     6
  9
$SURFU
 70
     6
  9
$SURFV
 70
     6
  9
$UCSBASE
  2

  9
$UCSNAME
  2

  9
$UCSORG
 10
0.0
 20
0.0
 30
0.0
  9
$UCSXDIR
 10
1.0
 20
0.0
 30
0.0
  9
$UCSYDIR
 10
0.0
 20
1.0
 30
0.0
  9
$UCSORTHOREF
  2

  9
$UCSORTHOVIEW
 70
     0
  9
$UCSORGTOP
 10
0.0
 20
0.0
 30
0.0
  9
$UCSORGBOTTOM
 10
0.0
 20
0.0
 30
0.0
  9
$UCSORGLEFT
 10
0.0
 20
0.0
 30
0.0
  9
$UCSORGRIGHT
 10
0.0
 20
0.0
 30
0.0
  9
$UCSORGFRONT
 10
0.0
 20
0.0
 30
0.0
  9
$UCSORGBACK
 10
0.0
 20
0.0
 30
0.0
  9
$PUCSBASE
  2

  9
$PUCSNAME
  2

  9
$PUCSORG
 10
0.0
 20
0.0
 30
0.0
  9
$PUCSXDIR
 10
1.0
 20
0.0
 30
0.0
  9
$PUCSYDIR
 10
0.0
 20
1.0
 30
0.0
  9
$PUCSORTHOREF
  2

  9
$PUCSORTHOVIEW
 70
     0
  9
$PUCSORGTOP
 10
0.0
 20
0.0
 30
0.0
  9
$PUCSORGBOTTOM
 10
0.0
 20
0.0
 30
0.0
  9
$PUCSORGLEFT
 10
0.0
 20
0.0
 30
0.0
  9
$PUCSORGRIGHT
 10
0.0
 20
0.0
 30
0.0
  9
$PUCSORGFRONT
 10
0.0
 20
0.0
 30
0.0
  9
$PUCSORGBACK
 10
0.0
 20
0.0
 30
0.0
  9
$USERI1
 70
     0
  9
$USERI2
 70
     0
  9
$USERI3
 70
     0
  9
$USERI4
 70
     0
  9
$USERI5
 70
     0
  9
$USERR1
 40
0.0
  9
$USERR2
 40
0.0
  9
$USERR3
 40
0.0
  9
$USERR4
 40
0.0
  9
$USERR5
 40
0.0
  9
$WORLDVIEW
 70
     1
  9
$SHADEDGE
 70
     3
  9
$SHADEDIF
 70
    70
  9
$TILEMODE
 70
     1
  9
$MAXACTVP
 70
    64
  9
$PINSBASE
 10
0.0
 20
0.0
 30
0.0
  9
$PLIMCHECK
 70
     0
  9
$PEXTMIN
 10
1.000000000000000E+20
 20
1.000000000000000E+20
 30
1.000000000000000E+20
  9
$PEXTMAX
 10
-1.000000000000000E+20
 20
-1.000000000000000E+20
 30
-1.000000000000000E+20
  9
$PLIMMIN
 10
0.0
 20
0.0
  9
$PLIMMAX
 10
12.0
 20
9.0
  9
$UNITMODE
 70
     0
  9
$VISRETAIN
 70
     1
  9
$PLINEGEN
 70
     0
  9
$PSLTSCALE
 70
     1
  9
$TREEDEPTH
 70
  3020
  9
$CMLSTYLE
  2
Standard
  9
$CMLJUST
 70
     0
  9
$CMLSCALE
 40
1.0
  9
$PROXYGRAPHICS
 70
     1
  9
$MEASUREMENT
 70
     0
  9
$CELWEIGHT
370
    -1
  9
$ENDCAPS
280
     0
  9
$JOINSTYLE
280
     0
  9
$LWDISPLAY
290
     0
  9
$INSUNITS
 70
     4
  9
$HYPERLINKBASE
  1

  9
$STYLESHEET
  1

  9
$XEDIT
290
     1
  9
$CEPSNTYPE
380
     0
  9
$PSTYLEMODE
290
     1
  9
$FINGERPRINTGUID
  2
{8D088360-F540-4732-B50F-FF0D0FC3F23A}
  9
$VERSIONGUID
  2
{FAEB1C32-E019-11D5-929B-00C0DF256EC4}
  9
$EXTNAMES
290
     1
  9
$PSVPSCALE
 40
0.0
  9
$OLESTARTUP
290
     0
  0
ENDSEC
  0
SECTION
  2
CLASSES
  0
CLASS
  1
ACDBDICTIONARYWDFLT
  2
AcDbDictionaryWithDefault
  3
ObjectDBX Classes
 90
        0
280
     0
281
     0
  0
CLASS
  1
VISUALSTYLE
  2
AcDbVisualStyle
  3
ObjectDBX Classes
 90
     4095
280
     0
281
     0
  0
CLASS
  1
MATERIAL
  2
AcDbMaterial
  3
ObjectDBX Classes
 90
     1153
280
     0
281
     0
  0
CLASS
  1
DICTIONARYVAR
  2
AcDbDictionaryVar
  3
ObjectDBX Classes
 90
        0
280
     0
281
     0
  0
CLASS
  1
ACDBPLACEHOLDER
  2
AcDbPlaceHolder
  3
ObjectDBX Classes
 90
        0
280
     0
281
     0
  0
CLASS
  1
LAYOUT
  2
AcDbLayout
  3
ObjectDBX Classes
 90
        0
280
     0
281
     0
  0
ENDSEC
  0
SECTION
  2
TABLES
  0
TABLE
  2
VPORT
  5
8
330
0
100
AcDbSymbolTable
 70
     1
  0
VPORT
  5
29
330
8
100
AcDbSymbolTableRecord
100
AcDbViewportTableRecord
  2
*Active
 70
     0
 10
0.0
 20
0.0
 11
1.0
 21
1.0
 12
10.42990654205607
 22
4.5
 13
0.0
 23
0.0
 14
0.5
 24
0.5
 15
0.5
 25
0.5
 16
0.0
 26
0.0
 36
1.0
 17
0.0
 27
0.0
 37
0.0
 40
9.0
 41
1.972972972850329
 42
50.0
 43
0.0
 44
0.0
 50
0.0
 51
0.0
 71
     0
 72
   100
 73
     1
 74
     3
 75
     0
 76
     0
 77
     0
 78
     0
281
     0
 65
     1
110
0.0
120
0.0
130
0.0
111
1.0
121
0.0
131
0.0
112
0.0
122
1.0
132
0.0
 79
     0
146
0.0
  0
ENDTAB
  0
TABLE
  2
LTYPE
  5
5
330
0
100
AcDbSymbolTable
 70
     1
  0
LTYPE
  5
14
330
5
100
AcDbSymbolTableRecord
100
AcDbLinetypeTableRecord
  2
ByBlock
 70
     0
  3

 72
    65
 73
     0
 40
0.0
  0
LTYPE
  5
15
330
5
100
AcDbSymbolTableRecord
100
AcDbLinetypeTableRecord
  2
ByLayer
 70
     0
  3

 72
    65
 73
     0
 40
0.0
  0
LTYPE
  5
16
330
5
100
AcDbSymbolTableRecord
100
AcDbLinetypeTableRecord
  2
Continuous
 70
     0
  3
Solid line
 72
    65
 73
     0
 40
0.0
  0
ENDTAB
  0
TABLE
  2
LAYER
  5
2
330
0
100
AcDbSymbolTable
 70
     2
  0
LAYER
  5
10
330
2
100
AcDbSymbolTableRecord
100
AcDbLayerTableRecord
  2
0
 70
     0
 62
     7
  6
Continuous
370
    -3
390
F
  0
LAYER
  5
40
330
2
100
AcDbSymbolTableRecord
100
AcDbLayerTableRecord
  2
Ilustrace
 70
     0
 62
     7
  6
Continuous
370
    -3
390
F
  0
ENDTAB
  0
TABLE
  2
STYLE
  5
3
330
0
100
AcDbSymbolTable
 70
     1
  0
STYLE
  5
11
330
3
100
AcDbSymbolTableRecord
100
AcDbTextStyleTableRecord
  2
Standard
 70
     0
 40
0.0
 41
1.0
 50
0.0
 71
     0
 42
0.2
  3
txt
  4

  0
ENDTAB
  0
TABLE
  2
VIEW
  5
6
330
0
100
AcDbSymbolTable
 70
     0
  0
ENDTAB
  0
TABLE
  2
UCS
  5
7
330
0
100
AcDbSymbolTable
 70
     0
  0
ENDTAB
  0
TABLE
  2
APPID
  5
9
330
0
100
AcDbSymbolTable
 70
     2
  0
APPID
  5
12
330
9
100
AcDbSymbolTableRecord
100
AcDbRegAppTableRecord
  2
ACAD
 70
     0
  0
APPID
  5
3F
330
9
100
AcDbSymbolTableRecord
100
AcDbRegAppTableRecord
  2
ODA
 70
     0
  0
ENDTAB
  0
TABLE
  2
DIMSTYLE
  5
A
330
0
100
AcDbSymbolTable
 70
     1
100
AcDbDimStyleTable
  0
DIMSTYLE
105
27
330
A
100
AcDbSymbolTableRecord
100
AcDbDimStyleTableRecord
  2
Standard
 70
     0
340
11
  0
ENDTAB
  0
TABLE
  2
BLOCK_RECORD
  5
1
330
0
100
AcDbSymbolTable
 70
     1
  0
BLOCK_RECORD
  5
1F
330
1
100
AcDbSymbolTableRecord
100
AcDbBlockTableRecord
  2
*Model_Space
340
22
  0
BLOCK_RECORD
  5
1B
330
1
100
AcDbSymbolTableRecord
100
AcDbBlockTableRecord
  2
*Paper_Space
340
1E
  0
BLOCK_RECORD
  5
23
330
1
100
AcDbSymbolTableRecord
100
AcDbBlockTableRecord
  2
*Paper_Space0
340
26
  0
ENDTAB
  0
ENDSEC
  0
SECTION
  2
BLOCKS
  0
BLOCK
  5
20
330
1F
100
AcDbEntity
  8
0
100
AcDbBlockBegin
  2
*Model_Space
 70
     0
 10
0.0
 20
0.0
 30
0.0
  3
*Model_Space
  1

  0
ENDBLK
  5
21
330
1F
100
AcDbEntity
  8
0
100
AcDbBlockEnd
  0
BLOCK
  5
1C
330
1B
100
AcDbEntity
 67
     1
  8
0
100
AcDbBlockBegin
  2
*Paper_Space
 70
     0
 10
0.0
 20
0.0
 30
0.0
  3
*Paper_Space
  1

  0
ENDBLK
  5
1D
330
1B
100
AcDbEntity
 67
     1
  8
0
100
AcDbBlockEnd
  0
BLOCK
  5
24
330
23
100
AcDbEntity
  8
0
100
AcDbBlockBegin
  2
*Paper_Space0
 70
     0
 10
0.0
 20
0.0
 30
0.0
  3
*Paper_Space0
  1

  0
ENDBLK
  5
25
330
23
100
AcDbEntity
  8
0
100
AcDbBlockEnd
  0
ENDSEC
  0
SECTION
  2
ENTITIES
  0
SPLINE
  5
41
330
1F
100
AcDbEntity
  8
Ilustrace
 62
   250
370
    15
100
AcDbSpline
210
0.0
220
0.0
230
1.0
 70
    24
 71
     3
 72
     8
 73
     4
 74
     0
 42
0.0000000001
 43
0.0000000001
 40
0.0
 40
0.0
 40
0.0
 40
0.0
 40
1.0
 40
1.0
 40
1.0
 40
1.0
 10
33.7543
 20
35.4316
 30
0.0
 10
33.7543
 20
35.4316
 30
0.0
 10
29.0691
 20
35.4316
 30
0.0
 10
29.0691
 20
35.4316
 30
0.0
  0
SPLINE
  5
42
330
1F
100
AcDbEntity
  8
Ilustrace
 62
   250
370
    15
100
AcDbSpline
210
0.0
220
0.0
230
1.0
 70
    24
 71
     3
 72
     8
 73
     4
 74
     0
 42
0.0000000001
 43
0.0000000001
 40
0.0
 40
0.0
 40
0.0
 40
0.0
 40
1.0
 40
1.0
 40
1.0
 40
1.0
 10
33.6882
 20
30.5596
 30
0.0
 10
33.6882
 20
30.5596
 30
0.0
 10
28.9697
 20
30.5596
 30
0.0
 10
28.9697
 20
30.5596
 30
0.0
  0
SPLINE
  5
43
330
1F
100
AcDbEntity
  8
Ilustrace
 62
   250
370
    15
100
AcDbSpline
210
0.0
220
0.0
230
1.0
 70
    24
 71
     3
 72
     8
 73
     4
 74
     0
 42
0.0000000001
 43
0.0000000001
 40
0.0
 40
0.0
 40
0.0
 40
0.0
 40
1.0
 40
1.0
 40
1.0
 40
1.0
 10
37.2111
 20
4.5852
 30
0.0
 10
37.2111
 20
4.5852
 30
0.0
 10
29.2681
 20
4.5852
 30
0.0
 10
29.2681
 20
4.5852
 30
0.0
  0
SPLINE
  5
44
330
1F
100
AcDbEntity
  8
Ilustrace
 62
   250
100
AcDbSpline
210
0.0
220
0.0
230
1.0
 70
    11
 71
     3
 72
   124
 73
   120
 74
     0
 42
0.0000000001
 43
0.0000000001
 40
0.0
 40
0.0
 40
0.0
 40
0.0
 40
0.032258064516129
 40
0.032258064516129
 40
0.032258064516129
 40
0.032258064516129
 40
0.0645161290322581
 40
0.0645161290322581
 40
0.0645161290322581
 40
0.0645161290322581
 40
0.0967741935483871
 40
0.0967741935483871
 40
0.0967741935483871
 40
0.0967741935483871
 40
0.1290322580645161
 40
0.1290322580645161
 40
0.1290322580645161
 40
0.1290322580645161
 40
0.1612903225806452
 40
0.1612903225806452
 40
0.1612903225806452
 40
0.1612903225806452
 40
0.1935483870967742
 40
0.1935483870967742
 40
0.1935483870967742
 40
0.1935483870967742
 40
0.2258064516129032
 40
0.2258064516129032
 40
0.2258064516129032
 40
0.2258064516129032
 40
0.2580645161290323
 40
0.2580645161290323
 40
0.2580645161290323
 40
0.2580645161290323
 40
0.2903225806451613
 40
0.2903225806451613
 40
0.2903225806451613
 40
0.2903225806451613
 40
0.3225806451612903
 40
0.3225806451612903
 40
0.3225806451612903
 40
0.3225806451612903
 40
0.3548387096774194
 40
0.3548387096774194
 40
0.3548387096774194
 40
0.3548387096774194
 40
0.3870967741935484
 40
0.3870967741935484
 40
0.3870967741935484
 40
0.3870967741935484
 40
0.4193548387096774
 40
0.4193548387096774
 40
0.4193548387096774
 40
0.4193548387096774
 40
0.4516129032258064
 40
0.4516129032258064
 40
0.4516129032258064
 40
0.4516129032258064
 40
0.4838709677419355
 40
0.4838709677419355
 40
0.4838709677419355
 40
0.4838709677419355
 40
0.5161290322580645
 40
0.5161290322580645
 40
0.5161290322580645
 40
0.5161290322580645
 40
0.5483870967741935
 40
0.5483870967741935
 40
0.5483870967741935
 40
0.5483870967741935
 40
0.5806451612903226
 40
0.5806451612903226
 40
0.5806451612903226
 40
0.5806451612903226
 40
0.6129032258064516
 40
0.6129032258064516
 40
0.6129032258064516
 40
0.6129032258064516
 40
0.6451612903225806
 40
0.6451612903225806
 40
0.6451612903225806
 40
0.6451612903225806
 40
0.6774193548387096
 40
0.6774193548387096
 40
0.6774193548387096
 40
0.6774193548387096
 40
0.7096774193548387
 40
0.7096774193548387
 40
0.7096774193548387
 40
0.7096774193548387
 40
0.7419354838709677
 40
0.7419354838709677
 40
0.7419354838709677
 40
0.7419354838709677
 40
0.7741935483870968
 40
0.7741935483870968
 40
0.7741935483870968
 40
0.7741935483870968
 40
0.8064516129032258
 40
0.8064516129032258
 40
0.8064516129032258
 40
0.8064516129032258
 40
0.8387096774193549
 40
0.8387096774193549
 40
0.8387096774193549
 40
0.8387096774193549
 40
0.8709677419354839
 40
0.8709677419354839
 40
0.8709677419354839
 40
0.8709677419354839
 40
0.9032258064516129
 40
0.9032258064516129
 40
0.9032258064516129
 40
0.9032258064516129
 40
0.9354838709677419
 40
0.9354838709677419
 40
0.9354838709677419
 40
0.9354838709677419
 40
1.0
 40
1.0
 40
1.0
 40
1.0
 10
32.7933
 20
32.9968
 30
0.0
 10
32.7933
 20
32.9968
 30
0.0
 10
32.5101
 20
32.9968
 30
0.0
 10
32.5101
 20
32.9968
 30
0.0
 10
32.5101
 20
32.9968
 30
0.0
 10
32.5101
 20
32.9968
 30
0.0
 10
32.5101
 20
32.0933
 30
0.0
 10
32.5101
 20
32.0933
 30
0.0
 10
32.5101
 20
32.0933
 30
0.0
 10
32.5101
 20
32.0933
 30
0.0
 10
32.5022
 20
32.0933
 30
0.0
 10
32.5022
 20
32.0933
 30
0.0
 10
32.5022
 20
32.0933
 30
0.0
 10
32.5022
 20
32.0933
 30
0.0
 10
32.3161
 20
32.2517
 30
0.0
 10
32.3161
 20
32.2517
 30
0.0
 10
32.3161
 20
32.2517
 30
0.0
 10
32.1886
 20
32.3583
 30
0.0
 10
32.0677
 20
32.4545
 30
0.0
 10
31.9538
 20
32.5398
 30
0.0
 10
31.9538
 20
32.5398
 30
0.0
 10
31.8401
 20
32.6252
 30
0.0
 10
31.7289
 20
32.6982
 30
0.0
 10
31.6215
 20
32.7588
 30
0.0
 10
31.6215
 20
32.7588
 30
0.0
 10
31.514
 20
32.8197
 30
0.0
 10
31.4061
 20
32.8658
 30
0.0
 10
31.2974
 20
32.8984
 30
0.0
 10
31.2974
 20
32.8984
 30
0.0
 10
31.1894
 20
32.9305
 30
0.0
 10
31.0775
 20
32.9466
 30
0.0
 10
30.9619
 20
32.947
 30
0.0
 10
30.9619
 20
32.947
 30
0.0
 10
30.8706
 20
32.947
 30
0.0
 10
30.7814
 20
32.9357
 30
0.0
 10
30.6948
 20
32.9119
 30
0.0
 10
30.6948
 20
32.9119
 30
0.0
 10
30.608
 20
32.888
 30
0.0
 10
30.5298
 20
32.8509
 30
0.0
 10
30.4601
 20
32.8011
 30
0.0
 10
30.4601
 20
32.8011
 30
0.0
 10
30.3894
 20
32.7515
 30
0.0
 10
30.3338
 20
32.6873
 30
0.0
 10
30.2925
 20
32.6093
 30
0.0
 10
30.2925
 20
32.6093
 30
0.0
 10
30.2504
 20
32.5311
 30
0.0
 10
30.2291
 20
32.438
 30
0.0
 10
30.2285
 20
32.3294
 30
0.0
 10
30.2285
 20
32.3294
 30
0.0
 10
30.2291
 20
32.2527
 30
0.0
 10
30.2402
 20
32.1799
 30
0.0
 10
30.2628
 20
32.1104
 30
0.0
 10
30.2628
 20
32.1104
 30
0.0
 10
30.2854
 20
32.0411
 30
0.0
 10
30.3157
 20
31.977
 30
0.0
 10
30.3546
 20
31.918
 30
0.0
 10
30.3546
 20
31.918
 30
0.0
 10
30.3928
 20
31.8596
 30
0.0
 10
30.436
 20
31.8073
 30
0.0
 10
30.4846
 20
31.7612
 30
0.0
 10
30.4846
 20
31.7612
 30
0.0
 10
30.4846
 20
31.7612
 30
0.0
 10
30.7251
 20
31.8481
 30
0.0
 10
30.7251
 20
31.8481
 30
0.0
 10
30.7251
 20
31.8481
 30
0.0
 10
30.6921
 20
31.8793
 30
0.0
 10
30.6591
 20
31.9164
 30
0.0
 10
30.6268
 20
31.9599
 30
0.0
 10
30.6268
 20
31.9599
 30
0.0
 10
30.5938
 20
32.0034
 30
0.0
 10
30.5673
 20
32.0514
 30
0.0
 10
30.5454
 20
32.1048
 30
0.0
 10
30.5454
 20
32.1048
 30
0.0
 10
30.5241
 20
32.158
 30
0.0
 10
30.5124
 20
32.2154
 30
0.0
 10
30.5117
 20
32.2766
 30
0.0
 10
30.5117
 20
32.2766
 30
0.0
 10
30.5124
 20
32.3516
 30
0.0
 10
30.5259
 20
32.4147
 30
0.0
 10
30.5524
 20
32.4659
 30
0.0
 10
30.5524
 20
32.4659
 30
0.0
 10
30.5797
 20
32.5166
 30
0.0
 10
30.6159
 20
32.5575
 30
0.0
 10
30.6618
 20
32.588
 30
0.0
 10
30.6618
 20
32.588
 30
0.0
 10
30.7083
 20
32.6186
 30
0.0
 10
30.7606
 20
32.6408
 30
0.0
 10
30.8195
 20
32.6542
 30
0.0
 10
30.8195
 20
32.6542
 30
0.0
 10
30.8785
 20
32.6677
 30
0.0
 10
30.9398
 20
32.6744
 30
0.0
 10
31.0045
 20
32.6738
 30
0.0
 10
31.0045
 20
32.6738
 30
0.0
 10
31.0989
 20
32.6738
 30
0.0
 10
31.1921
 20
32.6589
 30
0.0
 10
31.2845
 20
32.6289
 30
0.0
 10
31.2845
 20
32.6289
 30
0.0
 10
31.3776
 20
32.5989
 30
0.0
 10
31.4746
 20
32.5533
 30
0.0
 10
31.5768
 20
32.4918
 30
0.0
 10
31.5768
 20
32.4918
 30
0.0
 10
31.679
 20
32.4302
 30
0.0
 10
31.791
 20
32.352
 30
0.0
 10
31.9125
 20
32.2575
 30
0.0
 10
31.9125
 20
32.2575
 30
0.0
 10
32.0341
 20
32.1632
 30
0.0
 10
32.1712
 20
32.0514
 30
0.0
 10
32.3238
 20
31.9228
 30
0.0
 10
32.3238
 20
31.9228
 30
0.0
 10
32.3238
 20
31.9228
 30
0.0
 10
32.5838
 20
31.7085
 30
0.0
 10
32.5838
 20
31.7085
 30
0.0
 10
32.5838
 20
31.7085
 30
0.0
 10
32.5838
 20
31.7085
 30
0.0
 10
32.7933
 20
31.7085
 30
0.0
 10
32.7933
 20
31.7085
 30
0.0
 10
32.7933
 20
31.7085
 30
0.0
 10
32.7933
 20
31.7085
 30
0.0
 10
32.7933
 20
32.9968
 30
0.0
 10
32.7933
 20
32.9968
 30
0.0
  0
SPLINE
  5
45
330
1F
100
AcDbEntity
  8
Ilustrace
 62
   250
100
AcDbSpline
210
0.0
220
0.0
230
1.0
 70
    11
 71
     3
 72
    56
 73
    52
 74
     0
 42
0.0000000001
 43
0.0000000001
 40
0.0
 40
0.0
 40
0.0
 40
0.0
 40
0.0714285714285714
 40
0.0714285714285714
 40
0.0714285714285714
 40
0.0714285714285714
 40
0.1428571428571428
 40
0.1428571428571428
 40
0.1428571428571428
 40
0.1428571428571428
 40
0.2142857142857143
 40
0.2142857142857143
 40
0.2142857142857143
 40
0.2142857142857143
 40
0.2857142857142857
 40
0.2857142857142857
 40
0.2857142857142857
 40
0.2857142857142857
 40
0.3571428571428572
 40
0.3571428571428572
 40
0.3571428571428572
 40
0.3571428571428572
 40
0.4285714285714285
 40
0.4285714285714285
 40
0.4285714285714285
 40
0.4285714285714285
 40
0.5
 40
0.5
 40
0.5
 40
0.5
 40
0.5714285714285714
 40
0.5714285714285714
 40
0.5714285714285714
 40
0.5714285714285714
 40
0.6428571428571429
 40
0.6428571428571429
 40
0.6428571428571429
 40
0.6428571428571429
 40
0.7142857142857143
 40
0.7142857142857143
 40
0.7142857142857143
 40
0.7142857142857143
 40
0.7857142857142857
 40
0.7857142857142857
 40
0.7857142857142857
 40
0.7857142857142857
 40
0.8571428571428571
 40
0.8571428571428571
 40
0.8571428571428571
 40
0.8571428571428571
 40
1.0
 40
1.0
 40
1.0
 40
1.0
 10
30.2285
 20
33.9776
 30
0.0
 10
30.2285
 20
33.8747
 30
0.0
 10
30.2569
 20
33.7805
 30
0.0
 10
30.3139
 20
33.6947
 30
0.0
 10
30.3139
 20
33.6947
 30
0.0
 10
30.3707
 20
33.6087
 30
0.0
 10
30.4541
 20
33.5348
 30
0.0
 10
30.5653
 20
33.4717
 30
0.0
 10
30.5653
 20
33.4717
 30
0.0
 10
30.6767
 20
33.4086
 30
0.0
 10
30.8137
 20
33.3599
 30
0.0
 10
30.9767
 20
33.3252
 30
0.0
 10
30.9767
 20
33.3252
 30
0.0
 10
31.1396
 20
33.2911
 30
0.0
 10
31.3272
 20
33.2736
 30
0.0
 10
31.5401
 20
33.273
 30
0.0
 10
31.5401
 20
33.273
 30
0.0
 10
31.8188
 20
33.2761
 30
0.0
 10
32.0541
 20
33.3056
 30
0.0
 10
32.2468
 20
33.3619
 30
0.0
 10
32.2468
 20
33.3619
 30
0.0
 10
32.4396
 20
33.4183
 30
0.0
 10
32.5856
 20
33.4965
 30
0.0
 10
32.6853
 20
33.5958
 30
0.0
 10
32.6853
 20
33.5958
 30
0.0
 10
32.7849
 20
33.6951
 30
0.0
 10
32.8353
 20
33.811
 30
0.0
 10
32.836
 20
33.9434
 30
0.0
 10
32.836
 20
33.9434
 30
0.0
 10
32.8353
 20
34.0919
 30
0.0
 10
32.7836
 20
34.2182
 30
0.0
 10
32.6814
 20
34.3226
 30
0.0
 10
32.6814
 20
34.3226
 30
0.0
 10
32.5792
 20
34.4272
 30
0.0
 10
32.4292
 20
34.5069
 30
0.0
 10
32.2312
 20
34.5617
 30
0.0
 10
32.2312
 20
34.5617
 30
0.0
 10
32.0334
 20
34.617
 30
0.0
 10
31.7915
 20
34.6445
 30
0.0
 10
31.5051
 20
34.645
 30
0.0
 10
31.5051
 20
34.645
 30
0.0
 10
31.2366
 20
34.6445
 30
0.0
 10
31.007
 20
34.6181
 30
0.0
 10
30.8169
 20
34.5658
 30
0.0
 10
30.8169
 20
34.5658
 30
0.0
 10
30.6268
 20
34.5136
 30
0.0
 10
30.4814
 20
34.4376
 30
0.0
 10
30.3811
 20
34.3383
 30
0.0
 10
30.3811
 20
34.3383
 30
0.0
 10
30.2802
 20
34.2389
 30
0.0
 10
30.2291
 20
34.1189
 30
0.0
 10
30.2285
 20
33.9776
 30
0.0
  0
SPLINE
  5
46
330
1F
100
AcDbEntity
  8
Ilustrace
 62
   250
100
AcDbSpline
210
0.0
220
0.0
230
1.0
 70
    11
 71
     3
 72
    56
 73
    52
 74
     0
 42
0.0000000001
 43
0.0000000001
 40
0.0
 40
0.0
 40
0.0
 40
0.0
 40
0.0714285714285714
 40
0.0714285714285714
 40
0.0714285714285714
 40
0.0714285714285714
 40
0.1428571428571428
 40
0.1428571428571428
 40
0.1428571428571428
 40
0.1428571428571428
 40
0.2142857142857143
 40
0.2142857142857143
 40
0.2142857142857143
 40
0.2142857142857143
 40
0.2857142857142857
 40
0.2857142857142857
 40
0.2857142857142857
 40
0.2857142857142857
 40
0.3571428571428572
 40
0.3571428571428572
 40
0.3571428571428572
 40
0.3571428571428572
 40
0.4285714285714285
 40
0.4285714285714285
 40
0.4285714285714285
 40
0.4285714285714285
 40
0.5
 40
0.5
 40
0.5
 40
0.5
 40
0.5714285714285714
 40
0.5714285714285714
 40
0.5714285714285714
 40
0.5714285714285714
 40
0.6428571428571429
 40
0.6428571428571429
 40
0.6428571428571429
 40
0.6428571428571429
 40
0.7142857142857143
 40
0.7142857142857143
 40
0.7142857142857143
 40
0.7142857142857143
 40
0.7857142857142857
 40
0.7857142857142857
 40
0.7857142857142857
 40
0.7857142857142857
 40
0.8571428571428571
 40
0.8571428571428571
 40
0.8571428571428571
 40
0.8571428571428571
 40
1.0
 40
1.0
 40
1.0
 40
1.0
 10
30.4923
 20
33.9589
 30
0.0
 10
30.4929
 20
34.0304
 30
0.0
 10
30.5169
 20
34.0919
 30
0.0
 10
30.5653
 20
34.1437
 30
0.0
 10
30.5653
 20
34.1437
 30
0.0
 10
30.6139
 20
34.1954
 30
0.0
 10
30.6832
 20
34.2378
 30
0.0
 10
30.7735
 20
34.271
 30
0.0
 10
30.7735
 20
34.271
 30
0.0
 10
30.8636
 20
34.3041
 30
0.0
 10
30.9723
 20
34.329
 30
0.0
 10
31.0976
 20
34.345
 30
0.0
 10
31.0976
 20
34.345
 30
0.0
 10
31.2237
 20
34.3609
 30
0.0
 10
31.3647
 20
34.3687
 30
0.0
 10
31.5205
 20
34.3687
 30
0.0
 10
31.5205
 20
34.3687
 30
0.0
 10
31.7366
 20
34.3687
 30
0.0
 10
31.9228
 20
34.3538
 30
0.0
 10
32.0793
 20
34.3238
 30
0.0
 10
32.0793
 20
34.3238
 30
0.0
 10
32.2364
 20
34.2942
 30
0.0
 10
32.3575
 20
34.2488
 30
0.0
 10
32.4429
 20
34.1882
 30
0.0
 10
32.4429
 20
34.1882
 30
0.0
 10
32.5282
 20
34.1277
 30
0.0
 10
32.5709
 20
34.051
 30
0.0
 10
32.5722
 20
33.9589
 30
0.0
 10
32.5722
 20
33.9589
 30
0.0
 10
32.5715
 20
33.8757
 30
0.0
 10
32.5315
 20
33.8038
 30
0.0
 10
32.4511
 20
33.7423
 30
0.0
 10
32.4511
 20
33.7423
 30
0.0
 10
32.3709
 20
33.6812
 30
0.0
 10
32.2546
 20
33.6341
 30
0.0
 10
32.1019
 20
33.6004
 30
0.0
 10
32.1019
 20
33.6004
 30
0.0
 10
31.9488
 20
33.5668
 30
0.0
 10
31.7632
 20
33.5497
 30
0.0
 10
31.5438
 20
33.5492
 30
0.0
 10
31.5438
 20
33.5492
 30
0.0
 10
31.3143
 20
33.5497
 30
0.0
 10
31.1222
 20
33.5678
 30
0.0
 10
30.9656
 20
33.6031
 30
0.0
 10
30.9656
 20
33.6031
 30
0.0
 10
30.8098
 20
33.6383
 30
0.0
 10
30.6921
 20
33.6863
 30
0.0
 10
30.612
 20
33.7479
 30
0.0
 10
30.612
 20
33.7479
 30
0.0
 10
30.5323
 20
33.8094
 30
0.0
 10
30.4923
 20
33.8799
 30
0.0
 10
30.4923
 20
33.9589
 30
0.0
  0
SPLINE
  5
47
330
1F
100
AcDbEntity
  8
Ilustrace
 62
   250
370
    15
100
AcDbSpline
210
0.0
220
0.0
230
1.0
 70
    24
 71
     3
 72
     8
 73
     4
 74
     0
 42
0.0000000001
 43
0.0000000001
 40
0.0
 40
0.0
 40
0.0
 40
0.0
 40
1.0
 40
1.0
 40
1.0
 40
1.0
 10
33.4038
 20
37.5443
 30
0.0
 10
33.4038
 20
37.5443
 30
0.0
 10
33.4038
 20
28.6146
 30
0.0
 10
33.4038
 20
28.6146
 30
0.0
  0
SPLINE
  5
48
330
1F
100
AcDbEntity
  8
Ilustrace
 62
   250
370
    15
100
AcDbSpline
210
0.0
220
0.0
230
1.0
 70
    24
 71
     3
 72
     8
 73
     4
 74
     0
 42
0.0000000001
 43
0.0000000001
 40
0.0
 40
0.0
 40
0.0
 40
0.0
 40
1.0
 40
1.0
 40
1.0
 40
1.0
 10
36.9839
 20
22.3539
 30
0.0
 10
36.9839
 20
22.3539
 30
0.0
 10
36.9839
 20
5.589
 30
0.0
 10
36.9839
 20
5.589
 30
0.0
  0
SPLINE
  5
49
330
1F
100
AcDbEntity
  8
Ilustrace
 62
   250
370
     9
100
AcDbSpline
210
0.0
220
0.0
230
1.0
 70
    11
 71
     3
 72
    32
 73
    28
 74
     0
 42
0.0000000001
 43
0.0000000001
 40
0.0
 40
0.0
 40
0.0
 40
0.0
 40
0.125
 40
0.125
 40
0.125
 40
0.125
 40
0.25
 40
0.25
 40
0.25
 40
0.25
 40
0.375
 40
0.375
 40
0.375
 40
0.375
 40
0.5
 40
0.5
 40
0.5
 40
0.5
 40
0.625
 40
0.625
 40
0.625
 40
0.625
 40
0.75
 40
0.75
 40
0.75
 40
0.75
 40
1.0
 40
1.0
 40
1.0
 40
1.0
 10
33.8401
 20
29.278
 30
0.0
 10
33.8401
 20
29.278
 30
0.0
 10
33.8401
 20
29.278
 30
0.0
 10
33.8401
 20
29.278
 30
0.0
 10
33.8401
 20
29.278
 30
0.0
 10
33.8401
 20
29.278
 30
0.0
 10
33.8401
 20
29.278
 30
0.0
 10
33.8401
 20
29.278
 30
0.0
 10
33.8401
 20
29.278
 30
0.0
 10
33.8401
 20
29.278
 30
0.0
 10
33.3967
 20
30.5508
 30
0.0
 10
33.3967
 20
30.5508
 30
0.0
 10
33.3967
 20
30.5508
 30
0.0
 10
33.3967
 20
30.5508
 30
0.0
 10
32.9533
 20
29.278
 30
0.0
 10
32.9533
 20
29.278
 30
0.0
 10
32.9533
 20
29.278
 30
0.0
 10
32.9533
 20
29.278
 30
0.0
 10
32.9533
 20
29.278
 30
0.0
 10
32.9533
 20
29.278
 30
0.0
 10
32.9533
 20
29.278
 30
0.0
 10
32.9533
 20
29.278
 30
0.0
 10
32.9533
 20
29.278
 30
0.0
 10
32.9533
 20
29.278
 30
0.0
 10
32.9533
 20
29.278
 30
0.0
 10
32.9533
 20
29.278
 30
0.0
 10
33.8401
 20
29.278
 30
0.0
 10
33.8401
 20
29.278
 30
0.0
  0
SPLINE
  5
4A
330
1F
100
AcDbEntity
  8
Ilustrace
 62
   250
370
     9
100
AcDbSpline
210
0.0
220
0.0
230
1.0
 70
    11
 71
     3
 72
    32
 73
    28
 74
     0
 42
0.0000000001
 43
0.0000000001
 40
0.0
 40
0.0
 40
0.0
 40
0.0
 40
0.125
 40
0.125
 40
0.125
 40
0.125
 40
0.25
 40
0.25
 40
0.25
 40
0.25
 40
0.375
 40
0.375
 40
0.375
 40
0.375
 40
0.5
 40
0.5
 40
0.5
 40
0.5
 40
0.625
 40
0.625
 40
0.625
 40
0.625
 40
0.75
 40
0.75
 40
0.75
 40
0.75
 40
1.0
 40
1.0
 40
1.0
 40
1.0
 10
37.4091
 20
21.5779
 30
0.0
 10
37.4091
 20
21.5779
 30
0.0
 10
37.4091
 20
21.5779
 30
0.0
 10
37.4091
 20
21.5779
 30
0.0
 10
37.4091
 20
21.5779
 30
0.0
 10
37.4091
 20
21.5779
 30
0.0
 10
37.4091
 20
21.5779
 30
0.0
 10
37.4091
 20
21.5779
 30
0.0
 10
37.4091
 20
21.5779
 30
0.0
 10
37.4091
 20
21.5779
 30
0.0
 10
36.9657
 20
22.8507
 30
0.0
 10
36.9657
 20
22.8507
 30
0.0
 10
36.9657
 20
22.8507
 30
0.0
 10
36.9657
 20
22.8507
 30
0.0
 10
36.5223
 20
21.5779
 30
0.0
 10
36.5223
 20
21.5779
 30
0.0
 10
36.5223
 20
21.5779
 30
0.0
 10
36.5223
 20
21.5779
 30
0.0
 10
36.5223
 20
21.5779
 30
0.0
 10
36.5223
 20
21.5779
 30
0.0
 10
36.5223
 20
21.5779
 30
0.0
 10
36.5223
 20
21.5779
 30
0.0
 10
36.5223
 20
21.5779
 30
0.0
 10
36.5223
 20
21.5779
 30
0.0
 10
36.5223
 20
21.5779
 30
0.0
 10
36.5223
 20
21.5779
 30
0.0
 10
37.4091
 20
21.5779
 30
0.0
 10
37.4091
 20
21.5779
 30
0.0
  0
SPLINE
  5
4B
330
1F
100
AcDbEntity
  8
Ilustrace
 62
   250
370
     9
100
AcDbSpline
210
0.0
220
0.0
230
1.0
 70
    11
 71
     3
 72
    32
 73
    28
 74
     0
 42
0.0000000001
 43
0.0000000001
 40
0.0
 40
0.0
 40
0.0
 40
0.0
 40
0.125
 40
0.125
 40
0.125
 40
0.125
 40
0.25
 40
0.25
 40
0.25
 40
0.25
 40
0.375
 40
0.375
 40
0.375
 40
0.375
 40
0.5
 40
0.5
 40
0.5
 40
0.5
 40
0.625
 40
0.625
 40
0.625
 40
0.625
 40
0.75
 40
0.75
 40
0.75
 40
0.75
 40
1.0
 40
1.0
 40
1.0
 40
1.0
 10
33.8545
 20
36.8008
 30
0.0
 10
33.8545
 20
36.8008
 30
0.0
 10
33.8545
 20
36.8008
 30
0.0
 10
33.8545
 20
36.8008
 30
0.0
 10
33.8545
 20
36.8008
 30
0.0
 10
33.8545
 20
36.8008
 30
0.0
 10
33.8545
 20
36.8008
 30
0.0
 10
33.8545
 20
36.8008
 30
0.0
 10
33.8545
 20
36.8008
 30
0.0
 10
33.8545
 20
36.8008
 30
0.0
 10
33.4111
 20
35.528
 30
0.0
 10
33.4111
 20
35.528
 30
0.0
 10
33.4111
 20
35.528
 30
0.0
 10
33.4111
 20
35.528
 30
0.0
 10
32.9677
 20
36.8008
 30
0.0
 10
32.9677
 20
36.8008
 30
0.0
 10
32.9677
 20
36.8008
 30
0.0
 10
32.9677
 20
36.8008
 30
0.0
 10
32.9677
 20
36.8008
 30
0.0
 10
32.9677
 20
36.8008
 30
0.0
 10
32.9677
 20
36.8008
 30
0.0
 10
32.9677
 20
36.8008
 30
0.0
 10
32.9677
 20
36.8008
 30
0.0
 10
32.9677
 20
36.8008
 30
0.0
 10
32.9677
 20
36.8008
 30
0.0
 10
32.9677
 20
36.8008
 30
0.0
 10
33.8545
 20
36.8008
 30
0.0
 10
33.8545
 20
36.8008
 30
0.0
  0
SPLINE
  5
4C
330
1F
100
AcDbEntity
  8
Ilustrace
 62
   250
370
     9
100
AcDbSpline
210
0.0
220
0.0
230
1.0
 70
    11
 71
     3
 72
    32
 73
    28
 74
     0
 42
0.0000000001
 43
0.0000000001
 40
0.0
 40
0.0
 40
0.0
 40
0.0
 40
0.125
 40
0.125
 40
0.125
 40
0.125
 40
0.25
 40
0.25
 40
0.25
 40
0.25
 40
0.375
 40
0.375
 40
0.375
 40
0.375
 40
0.5
 40
0.5
 40
0.5
 40
0.5
 40
0.625
 40
0.625
 40
0.625
 40
0.625
 40
0.75
 40
0.75
 40
0.75
 40
0.75
 40
1.0
 40
1.0
 40
1.0
 40
1.0
 10
37.4235
 20
5.9372
 30
0.0
 10
37.4235
 20
5.9372
 30
0.0
 10
37.4235
 20
5.9372
 30
0.0
 10
37.4235
 20
5.9372
 30
0.0
 10
37.4235
 20
5.9372
 30
0.0
 10
37.4235
 20
5.9372
 30
0.0
 10
37.4235
 20
5.9372
 30
0.0
 10
37.4235
 20
5.9372
 30
0.0
 10
37.4235
 20
5.9372
 30
0.0
 10
37.4235
 20
5.9372
 30
0.0
 10
36.9801
 20
4.6644
 30
0.0
 10
36.9801
 20
4.6644
 30
0.0
 10
36.9801
 20
4.6644
 30
0.0
 10
36.9801
 20
4.6644
 30
0.0
 10
36.5367
 20
5.9372
 30
0.0
 10
36.5367
 20
5.9372
 30
0.0
 10
36.5367
 20
5.9372
 30
0.0
 10
36.5367
 20
5.9372
 30
0.0
 10
36.5367
 20
5.9372
 30
0.0
 10
36.5367
 20
5.9372
 30
0.0
 10
36.5367
 20
5.9372
 30
0.0
 10
36.5367
 20
5.9372
 30
0.0
 10
36.5367
 20
5.9372
 30
0.0
 10
36.5367
 20
5.9372
 30
0.0
 10
36.5367
 20
5.9372
 30
0.0
 10
36.5367
 20
5.9372
 30
0.0
 10
37.4235
 20
5.9372
 30
0.0
 10
37.4235
 20
5.9372
 30
0.0
  0
SPLINE
  5
4D
330
1F
100
AcDbEntity
  8
Ilustrace
 62
   250
370
    15
100
AcDbSpline
210
0.0
220
0.0
230
1.0
 70
    24
 71
     3
 72
     8
 73
     4
 74
     0
 42
0.0000000001
 43
0.0000000001
 40
0.0
 40
0.0
 40
0.0
 40
0.0
 40
1.0
 40
1.0
 40
1.0
 40
1.0
 10
29.4058
 20
22.8453
 30
0.0
 10
29.4058
 20
22.8453
 30
0.0
 10
37.5883
 20
22.8453
 30
0.0
 10
37.5883
 20
22.8453
 30
0.0
  0
SPLINE
  5
4E
330
1F
100
AcDbEntity
  8
Ilustrace
 62
   250
100
AcDbSpline
210
0.0
220
0.0
230
1.0
 70
    11
 71
     3
 72
    36
 73
    32
 74
     0
 42
0.0000000001
 43
0.0000000001
 40
0.0
 40
0.0
 40
0.0
 40
0.0
 40
0.1111111111111111
 40
0.1111111111111111
 40
0.1111111111111111
 40
0.1111111111111111
 40
0.2222222222222222
 40
0.2222222222222222
 40
0.2222222222222222
 40
0.2222222222222222
 40
0.3333333333333333
 40
0.3333333333333333
 40
0.3333333333333333
 40
0.3333333333333333
 40
0.4444444444444444
 40
0.4444444444444444
 40
0.4444444444444444
 40
0.4444444444444444
 40
0.5555555555555556
 40
0.5555555555555556
 40
0.5555555555555556
 40
0.5555555555555556
 40
0.6666666666666666
 40
0.6666666666666666
 40
0.6666666666666666
 40
0.6666666666666666
 40
0.7777777777777778
 40
0.7777777777777778
 40
0.7777777777777778
 40
0.7777777777777778
 40
1.0
 40
1.0
 40
1.0
 40
1.0
 10
33.9163
 20
12.375
 30
0.0
 10
33.9163
 20
12.375
 30
0.0
 10
34.1995
 20
12.375
 30
0.0
 10
34.1995
 20
12.375
 30
0.0
 10
34.1995
 20
12.375
 30
0.0
 10
34.1995
 20
12.375
 30
0.0
 10
34.1995
 20
13.3621
 30
0.0
 10
34.1995
 20
13.3621
 30
0.0
 10
34.1995
 20
13.3621
 30
0.0
 10
34.1995
 20
13.3621
 30
0.0
 10
34.2073
 20
13.3621
 30
0.0
 10
34.2073
 20
13.3621
 30
0.0
 10
34.2073
 20
13.3621
 30
0.0
 10
34.2073
 20
13.3621
 30
0.0
 10
36.4385
 20
12.4867
 30
0.0
 10
36.4385
 20
12.4867
 30
0.0
 10
36.4385
 20
12.4867
 30
0.0
 10
36.4385
 20
12.4867
 30
0.0
 10
36.4385
 20
12.7692
 30
0.0
 10
36.4385
 20
12.7692
 30
0.0
 10
36.4385
 20
12.7692
 30
0.0
 10
36.4385
 20
12.7692
 30
0.0
 10
34.1413
 20
13.6477
 30
0.0
 10
34.1413
 20
13.6477
 30
0.0
 10
34.1413
 20
13.6477
 30
0.0
 10
34.1413
 20
13.6477
 30
0.0
 10
33.9163
 20
13.6477
 30
0.0
 10
33.9163
 20
13.6477
 30
0.0
 10
33.9163
 20
13.6477
 30
0.0
 10
33.9163
 20
13.6477
 30
0.0
 10
33.9163
 20
12.375
 30
0.0
 10
33.9163
 20
12.375
 30
0.0
  0
SPLINE
  5
4F
330
1F
100
AcDbEntity
  8
Ilustrace
 62
   250
100
AcDbSpline
210
0.0
220
0.0
230
1.0
 70
    11
 71
     3
 72
   132
 73
   128
 74
     0
 42
0.0000000001
 43
0.0000000001
 40
0.0
 40
0.0
 40
0.0
 40
0.0
 40
0.0303030303030303
 40
0.0303030303030303
 40
0.0303030303030303
 40
0.0303030303030303
 40
0.0606060606060606
 40
0.0606060606060606
 40
0.0606060606060606
 40
0.0606060606060606
 40
0.0909090909090909
 40
0.0909090909090909
 40
0.0909090909090909
 40
0.0909090909090909
 40
0.1212121212121212
 40
0.1212121212121212
 40
0.1212121212121212
 40
0.1212121212121212
 40
0.1515151515151515
 40
0.1515151515151515
 40
0.1515151515151515
 40
0.1515151515151515
 40
0.1818181818181818
 40
0.1818181818181818
 40
0.1818181818181818
 40
0.1818181818181818
 40
0.2121212121212121
 40
0.2121212121212121
 40
0.2121212121212121
 40
0.2121212121212121
 40
0.2424242424242424
 40
0.2424242424242424
 40
0.2424242424242424
 40
0.2424242424242424
 40
0.2727272727272727
 40
0.2727272727272727
 40
0.2727272727272727
 40
0.2727272727272727
 40
0.303030303030303
 40
0.303030303030303
 40
0.303030303030303
 40
0.303030303030303
 40
0.3333333333333333
 40
0.3333333333333333
 40
0.3333333333333333
 40
0.3333333333333333
 40
0.3636363636363636
 40
0.3636363636363636
 40
0.3636363636363636
 40
0.3636363636363636
 40
0.3939393939393939
 40
0.3939393939393939
 40
0.3939393939393939
 40
0.3939393939393939
 40
0.4242424242424243
 40
0.4242424242424243
 40
0.4242424242424243
 40
0.4242424242424243
 40
0.4545454545454545
 40
0.4545454545454545
 40
0.4545454545454545
 40
0.4545454545454545
 40
0.4848484848484849
 40
0.4848484848484849
 40
0.4848484848484849
 40
0.4848484848484849
 40
0.5151515151515151
 40
0.5151515151515151
 40
0.5151515151515151
 40
0.5151515151515151
 40
0.5454545454545454
 40
0.5454545454545454
 40
0.5454545454545454
 40
0.5454545454545454
 40
0.5757575757575758
 40
0.5757575757575758
 40
0.5757575757575758
 40
0.5757575757575758
 40
0.6060606060606061
 40
0.6060606060606061
 40
0.6060606060606061
 40
0.6060606060606061
 40
0.6363636363636364
 40
0.6363636363636364
 40
0.6363636363636364
 40
0.6363636363636364
 40
0.6666666666666666
 40
0.6666666666666666
 40
0.6666666666666666
 40
0.6666666666666666
 40
0.696969696969697
 40
0.696969696969697
 40
0.696969696969697
 40
0.696969696969697
 40
0.7272727272727273
 40
0.7272727272727273
 40
0.7272727272727273
 40
0.7272727272727273
 40
0.7575757575757576
 40
0.7575757575757576
 40
0.7575757575757576
 40
0.7575757575757576
 40
0.7878787878787878
 40
0.7878787878787878
 40
0.7878787878787878
 40
0.7878787878787878
 40
0.8181818181818182
 40
0.8181818181818182
 40
0.8181818181818182
 40
0.8181818181818182
 40
0.8484848484848485
 40
0.8484848484848485
 40
0.8484848484848485
 40
0.8484848484848485
 40
0.8787878787878788
 40
0.8787878787878788
 40
0.8787878787878788
 40
0.8787878787878788
 40
0.9090909090909091
 40
0.9090909090909091
 40
0.9090909090909091
 40
0.9090909090909091
 40
0.9393939393939394
 40
0.9393939393939394
 40
0.9393939393939394
 40
0.9393939393939394
 40
1.0
 40
1.0
 40
1.0
 40
1.0
 10
33.9163
 20
15.1347
 30
0.0
 10
33.9163
 20
15.1347
 30
0.0
 10
33.9163
 20
14.1693
 30
0.0
 10
33.9163
 20
14.1693
 30
0.0
 10
33.9163
 20
14.1693
 30
0.0
 10
33.9163
 20
14.1693
 30
0.0
 10
35.1269
 20
14.0389
 30
0.0
 10
35.1269
 20
14.0389
 30
0.0
 10
35.1269
 20
14.0389
 30
0.0
 10
35.1205
 20
14.0761
 30
0.0
 10
35.1153
 20
14.1176
 30
0.0
 10
35.1108
 20
14.164
 30
0.0
 10
35.1108
 20
14.164
 30
0.0
 10
35.1062
 20
14.2102
 30
0.0
 10
35.1036
 20
14.2628
 30
0.0
 10
35.1036
 20
14.3213
 30
0.0
 10
35.1036
 20
14.3213
 30
0.0
 10
35.1044
 20
14.4548
 30
0.0
 10
35.1282
 20
14.564
 30
0.0
 10
35.1748
 20
14.6488
 30
0.0
 10
35.1748
 20
14.6488
 30
0.0
 10
35.222
 20
14.7342
 30
0.0
 10
35.2867
 20
14.7974
 30
0.0
 10
35.3694
 20
14.8383
 30
0.0
 10
35.3694
 20
14.8383
 30
0.0
 10
35.4529
 20
14.8792
 30
0.0
 10
35.5493
 20
14.8993
 30
0.0
 10
35.6585
 20
14.8987
 30
0.0
 10
35.6585
 20
14.8987
 30
0.0
 10
35.7432
 20
14.8993
 30
0.0
 10
35.819
 20
14.8869
 30
0.0
 10
35.8863
 20
14.8616
 30
0.0
 10
35.8863
 20
14.8616
 30
0.0
 10
35.9541
 20
14.8366
 30
0.0
 10
36.0111
 20
14.802
 30
0.0
 10
36.0588
 20
14.758
 30
0.0
 10
36.0588
 20
14.758
 30
0.0
 10
36.106
 20
14.7141
 30
0.0
 10
36.1423
 20
14.6634
 30
0.0
 10
36.1675
 20
14.606
 30
0.0
 10
36.1675
 20
14.606
 30
0.0
 10
36.1927
 20
14.5485
 30
0.0
 10
36.2056
 20
14.4879
 30
0.0
 10
36.2056
 20
14.4239
 30
0.0
 10
36.2056
 20
14.4239
 30
0.0
 10
36.2051
 20
14.3612
 30
0.0
 10
36.1979
 20
14.3022
 30
0.0
 10
36.1831
 20
14.2469
 30
0.0
 10
36.1831
 20
14.2469
 30
0.0
 10
36.1688
 20
14.1915
 30
0.0
 10
36.1513
 20
14.1418
 30
0.0
 10
36.13
 20
14.0979
 30
0.0
 10
36.13
 20
14.0979
 30
0.0
 10
36.1086
 20
14.0538
 30
0.0
 10
36.0874
 20
14.0177
 30
0.0
 10
36.066
 20
13.9892
 30
0.0
 10
36.066
 20
13.9892
 30
0.0
 10
36.066
 20
13.9892
 30
0.0
 10
36.3259
 20
13.9209
 30
0.0
 10
36.3259
 20
13.9209
 30
0.0
 10
36.3259
 20
13.9209
 30
0.0
 10
36.3524
 20
13.9546
 30
0.0
 10
36.377
 20
13.9964
 30
0.0
 10
36.4009
 20
14.0466
 30
0.0
 10
36.4009
 20
14.0466
 30
0.0
 10
36.4242
 20
14.0968
 30
0.0
 10
36.443
 20
14.1537
 30
0.0
 10
36.4579
 20
14.2174
 30
0.0
 10
36.4579
 20
14.2174
 30
0.0
 10
36.4727
 20
14.2815
 30
0.0
 10
36.4806
 20
14.3503
 30
0.0
 10
36.4812
 20
14.4239
 30
0.0
 10
36.4812
 20
14.4239
 30
0.0
 10
36.4806
 20
14.534
 30
0.0
 10
36.4586
 20
14.6344
 30
0.0
 10
36.4159
 20
14.726
 30
0.0
 10
36.4159
 20
14.726
 30
0.0
 10
36.3731
 20
14.8175
 30
0.0
 10
36.313
 20
14.8968
 30
0.0
 10
36.2355
 20
14.9634
 30
0.0
 10
36.2355
 20
14.9634
 30
0.0
 10
36.1579
 20
15.0307
 30
0.0
 10
36.0667
 20
15.0825
 30
0.0
 10
35.9626
 20
15.1192
 30
0.0
 10
35.9626
 20
15.1192
 30
0.0
 10
35.8577
 20
15.1559
 30
0.0
 10
35.7432
 20
15.1745
 30
0.0
 10
35.6198
 20
15.1751
 30
0.0
 10
35.6198
 20
15.1751
 30
0.0
 10
35.5149
 20
15.1745
 30
0.0
 10
35.4205
 20
15.1611
 30
0.0
 10
35.3371
 20
15.1352
 30
0.0
 10
35.3371
 20
15.1352
 30
0.0
 10
35.2536
 20
15.1094
 30
0.0
 10
35.1818
 20
15.0752
 30
0.0
 10
35.1211
 20
15.0318
 30
0.0
 10
35.1211
 20
15.0318
 30
0.0
 10
35.0604
 20
14.9883
 30
0.0
 10
35.0119
 20
14.9396
 30
0.0
 10
34.9756
 20
14.8864
 30
0.0
 10
34.9756
 20
14.8864
 30
0.0
 10
34.9277
 20
14.8237
 30
0.0
 10
34.8927
 20
14.756
 30
0.0
 10
34.8715
 20
14.682
 30
0.0
 10
34.8715
 20
14.682
 30
0.0
 10
34.8501
 20
14.6081
 30
0.0
 10
34.8392
 20
14.5314
 30
0.0
 10
34.8397
 20
14.4517
 30
0.0
 10
34.8397
 20
14.4517
 30
0.0
 10
34.8397
 20
14.4156
 30
0.0
 10
34.8405
 20
14.3845
 30
0.0
 10
34.8424
 20
14.3591
 30
0.0
 10
34.8424
 20
14.3591
 30
0.0
 10
34.8443
 20
14.3338
 30
0.0
 10
34.8476
 20
14.31
 30
0.0
 10
34.8514
 20
14.2872
 30
0.0
 10
34.8514
 20
14.2872
 30
0.0
 10
34.8514
 20
14.2872
 30
0.0
 10
34.2033
 20
14.3648
 30
0.0
 10
34.2033
 20
14.3648
 30
0.0
 10
34.2033
 20
14.3648
 30
0.0
 10
34.2033
 20
14.3648
 30
0.0
 10
34.2033
 20
15.1347
 30
0.0
 10
34.2033
 20
15.1347
 30
0.0
 10
34.2033
 20
15.1347
 30
0.0
 10
34.2033
 20
15.1347
 30
0.0
 10
33.9163
 20
15.1347
 30
0.0
 10
33.9163
 20
15.1347
 30
0.0
  0
SPLINE
  5
50
330
1F
100
AcDbEntity
  8
Ilustrace
 62
   250
370
    15
100
AcDbSpline
210
0.0
220
0.0
230
1.0
 70
    24
 71
     3
 72
     8
 73
     4
 74
     0
 42
0.0000000001
 43
0.0000000001
 40
0.0
 40
0.0
 40
0.0
 40
0.0
 40
1.0
 40
1.0
 40
1.0
 40
1.0
 10
28.7529
 20
23.3151
 30
0.0
 10
28.7529
 20
23.3151
 30
0.0
 10
28.7529
 20
25.7783
 30
0.0
 10
28.7529
 20
25.7783
 30
0.0
  0
SPLINE
  5
51
330
1F
100
AcDbEntity
  8
Ilustrace
 62
   250
370
    15
100
AcDbSpline
210
0.0
220
0.0
230
1.0
 70
    24
 71
     3
 72
     8
 73
     4
 74
     0
 42
0.0000000001
 43
0.0000000001
 40
0.0
 40
0.0
 40
0.0
 40
0.0
 40
1.0
 40
1.0
 40
1.0
 40
1.0
 10
-32.4459
 20
22.7716
 30
0.0
 10
-32.4459
 20
22.7716
 30
0.0
 10
-34.9091
 20
22.7716
 30
0.0
 10
-34.9091
 20
22.7716
 30
0.0
  0
SPLINE
  5
52
330
1F
100
AcDbEntity
  8
Ilustrace
 62
   250
370
    15
100
AcDbSpline
210
0.0
220
0.0
230
1.0
 70
    24
 71
     3
 72
     8
 73
     4
 74
     0
 42
0.0000000001
 43
0.0000000001
 40
0.0
 40
0.0
 40
0.0
 40
0.0
 40
1.0
 40
1.0
 40
1.0
 40
1.0
 10
-31.5607
 20
22.7859
 30
0.0
 10
-31.5607
 20
22.7859
 30
0.0
 10
-31.5607
 20
25.7784
 30
0.0
 10
-31.5607
 20
25.7784
 30
0.0
  0
SPLINE
  5
53
330
1F
100
AcDbEntity
  8
Ilustrace
 62
   250
370
    15
100
AcDbSpline
210
0.0
220
0.0
230
1.0
 70
    24
 71
     3
 72
     8
 73
     4
 74
     0
 42
0.0000000001
 43
0.0000000001
 40
0.0
 40
0.0
 40
0.0
 40
0.0
 40
1.0
 40
1.0
 40
1.0
 40
1.0
 10
-31.9167
 20
-37.542
 30
0.0
 10
-31.9167
 20
-37.542
 30
0.0
 10
-34.9092
 20
-37.542
 30
0.0
 10
-34.9092
 20
-37.542
 30
0.0
  0
SPLINE
  5
54
330
1F
100
AcDbEntity
  8
Ilustrace
 62
   250
100
AcDbSpline
210
0.0
220
0.0
230
1.0
 70
    11
 71
     3
 72
   124
 73
   120
 74
     0
 42
0.0000000001
 43
0.0000000001
 40
0.0
 40
0.0
 40
0.0
 40
0.0
 40
0.032258064516129
 40
0.032258064516129
 40
0.032258064516129
 40
0.032258064516129
 40
0.0645161290322581
 40
0.0645161290322581
 40
0.0645161290322581
 40
0.0645161290322581
 40
0.0967741935483871
 40
0.0967741935483871
 40
0.0967741935483871
 40
0.0967741935483871
 40
0.1290322580645161
 40
0.1290322580645161
 40
0.1290322580645161
 40
0.1290322580645161
 40
0.1612903225806452
 40
0.1612903225806452
 40
0.1612903225806452
 40
0.1612903225806452
 40
0.1935483870967742
 40
0.1935483870967742
 40
0.1935483870967742
 40
0.1935483870967742
 40
0.2258064516129032
 40
0.2258064516129032
 40
0.2258064516129032
 40
0.2258064516129032
 40
0.2580645161290323
 40
0.2580645161290323
 40
0.2580645161290323
 40
0.2580645161290323
 40
0.2903225806451613
 40
0.2903225806451613
 40
0.2903225806451613
 40
0.2903225806451613
 40
0.3225806451612903
 40
0.3225806451612903
 40
0.3225806451612903
 40
0.3225806451612903
 40
0.3548387096774194
 40
0.3548387096774194
 40
0.3548387096774194
 40
0.3548387096774194
 40
0.3870967741935484
 40
0.3870967741935484
 40
0.3870967741935484
 40
0.3870967741935484
 40
0.4193548387096774
 40
0.4193548387096774
 40
0.4193548387096774
 40
0.4193548387096774
 40
0.4516129032258064
 40
0.4516129032258064
 40
0.4516129032258064
 40
0.4516129032258064
 40
0.4838709677419355
 40
0.4838709677419355
 40
0.4838709677419355
 40
0.4838709677419355
 40
0.5161290322580645
 40
0.5161290322580645
 40
0.5161290322580645
 40
0.5161290322580645
 40
0.5483870967741935
 40
0.5483870967741935
 40
0.5483870967741935
 40
0.5483870967741935
 40
0.5806451612903226
 40
0.5806451612903226
 40
0.5806451612903226
 40
0.5806451612903226
 40
0.6129032258064516
 40
0.6129032258064516
 40
0.6129032258064516
 40
0.6129032258064516
 40
0.6451612903225806
 40
0.6451612903225806
 40
0.6451612903225806
 40
0.6451612903225806
 40
0.6774193548387096
 40
0.6774193548387096
 40
0.6774193548387096
 40
0.6774193548387096
 40
0.7096774193548387
 40
0.7096774193548387
 40
0.7096774193548387
 40
0.7096774193548387
 40
0.7419354838709677
 40
0.7419354838709677
 40
0.7419354838709677
 40
0.7419354838709677
 40
0.7741935483870968
 40
0.7741935483870968
 40
0.7741935483870968
 40
0.7741935483870968
 40
0.8064516129032258
 40
0.8064516129032258
 40
0.8064516129032258
 40
0.8064516129032258
 40
0.8387096774193549
 40
0.8387096774193549
 40
0.8387096774193549
 40
0.8387096774193549
 40
0.8709677419354839
 40
0.8709677419354839
 40
0.8709677419354839
 40
0.8709677419354839
 40
0.9032258064516129
 40
0.9032258064516129
 40
0.9032258064516129
 40
0.9032258064516129
 40
0.9354838709677419
 40
0.9354838709677419
 40
0.9354838709677419
 40
0.9354838709677419
 40
1.0
 40
1.0
 40
1.0
 40
1.0
 10
-0.8639
 20
25.8927
 30
0.0
 10
-0.8639
 20
25.8927
 30
0.0
 10
-0.8639
 20
26.1759
 30
0.0
 10
-0.8639
 20
26.1759
 30
0.0
 10
-0.8639
 20
26.1759
 30
0.0
 10
-0.8639
 20
26.1759
 30
0.0
 10
-1.7674
 20
26.1759
 30
0.0
 10
-1.7674
 20
26.1759
 30
0.0
 10
-1.7674
 20
26.1759
 30
0.0
 10
-1.7674
 20
26.1759
 30
0.0
 10
-1.7674
 20
26.1838
 30
0.0
 10
-1.7674
 20
26.1838
 30
0.0
 10
-1.7674
 20
26.1838
 30
0.0
 10
-1.7674
 20
26.1838
 30
0.0
 10
-1.609
 20
26.3699
 30
0.0
 10
-1.609
 20
26.3699
 30
0.0
 10
-1.609
 20
26.3699
 30
0.0
 10
-1.5024
 20
26.4974
 30
0.0
 10
-1.4062
 20
26.6183
 30
0.0
 10
-1.3209
 20
26.7322
 30
0.0
 10
-1.3209
 20
26.7322
 30
0.0
 10
-1.2355
 20
26.8459
 30
0.0
 10
-1.1625
 20
26.9571
 30
0.0
 10
-1.1019
 20
27.0645
 30
0.0
 10
-1.1019
 20
27.0645
 30
0.0
 10
-1.041
 20
27.172
 30
0.0
 10
-0.9949
 20
27.2799
 30
0.0
 10
-0.9623
 20
27.3886
 30
0.0
 10
-0.9623
 20
27.3886
 30
0.0
 10
-0.9302
 20
27.4966
 30
0.0
 10
-0.9141
 20
27.6085
 30
0.0
 10
-0.9137
 20
27.7241
 30
0.0
 10
-0.9137
 20
27.7241
 30
0.0
 10
-0.9137
 20
27.8154
 30
0.0
 10
-0.925
 20
27.9046
 30
0.0
 10
-0.9488
 20
27.9912
 30
0.0
 10
-0.9488
 20
27.9912
 30
0.0
 10
-0.9727
 20
28.078
 30
0.0
 10
-1.0098
 20
28.1562
 30
0.0
 10
-1.0596
 20
28.2259
 30
0.0
 10
-1.0596
 20
28.2259
 30
0.0
 10
-1.1092
 20
28.2966
 30
0.0
 10
-1.1734
 20
28.3522
 30
0.0
 10
-1.2514
 20
28.3935
 30
0.0
 10
-1.2514
 20
28.3935
 30
0.0
 10
-1.3296
 20
28.4356
 30
0.0
 10
-1.4227
 20
28.4569
 30
0.0
 10
-1.5313
 20
28.4575
 30
0.0
 10
-1.5313
 20
28.4575
 30
0.0
 10
-1.608
 20
28.4569
 30
0.0
 10
-1.6808
 20
28.4458
 30
0.0
 10
-1.7503
 20
28.4232
 30
0.0
 10
-1.7503
 20
28.4232
 30
0.0
 10
-1.8196
 20
28.4006
 30
0.0
 10
-1.8837
 20
28.3703
 30
0.0
 10
-1.9427
 20
28.3314
 30
0.0
 10
-1.9427
 20
28.3314
 30
0.0
 10
-2.0011
 20
28.2932
 30
0.0
 10
-2.0534
 20
28.25
 30
0.0
 10
-2.0995
 20
28.2014
 30
0.0
 10
-2.0995
 20
28.2014
 30
0.0
 10
-2.0995
 20
28.2014
 30
0.0
 10
-2.0126
 20
27.9609
 30
0.0
 10
-2.0126
 20
27.9609
 30
0.0
 10
-2.0126
 20
27.9609
 30
0.0
 10
-1.9814
 20
27.9939
 30
0.0
 10
-1.9443
 20
28.0269
 30
0.0
 10
-1.9008
 20
28.0592
 30
0.0
 10
-1.9008
 20
28.0592
 30
0.0
 10
-1.8573
 20
28.0922
 30
0.0
 10
-1.8093
 20
28.1187
 30
0.0
 10
-1.7559
 20
28.1406
 30
0.0
 10
-1.7559
 20
28.1406
 30
0.0
 10
-1.7027
 20
28.1619
 30
0.0
 10
-1.6453
 20
28.1736
 30
0.0
 10
-1.5841
 20
28.1743
 30
0.0
 10
-1.5841
 20
28.1743
 30
0.0
 10
-1.5091
 20
28.1736
 30
0.0
 10
-1.446
 20
28.1601
 30
0.0
 10
-1.3948
 20
28.1336
 30
0.0
 10
-1.3948
 20
28.1336
 30
0.0
 10
-1.3441
 20
28.1063
 30
0.0
 10
-1.3032
 20
28.0701
 30
0.0
 10
-1.2727
 20
28.0242
 30
0.0
 10
-1.2727
 20
28.0242
 30
0.0
 10
-1.2421
 20
27.9777
 30
0.0
 10
-1.2199
 20
27.9254
 30
0.0
 10
-1.2065
 20
27.8665
 30
0.0
 10
-1.2065
 20
27.8665
 30
0.0
 10
-1.193
 20
27.8075
 30
0.0
 10
-1.1863
 20
27.7462
 30
0.0
 10
-1.1869
 20
27.6815
 30
0.0
 10
-1.1869
 20
27.6815
 30
0.0
 10
-1.1869
 20
27.5871
 30
0.0
 10
-1.2018
 20
27.4939
 30
0.0
 10
-1.2318
 20
27.4015
 30
0.0
 10
-1.2318
 20
27.4015
 30
0.0
 10
-1.2618
 20
27.3084
 30
0.0
 10
-1.3074
 20
27.2114
 30
0.0
 10
-1.3689
 20
27.1092
 30
0.0
 10
-1.3689
 20
27.1092
 30
0.0
 10
-1.4305
 20
27.007
 30
0.0
 10
-1.5087
 20
26.895
 30
0.0
 10
-1.6032
 20
26.7735
 30
0.0
 10
-1.6032
 20
26.7735
 30
0.0
 10
-1.6975
 20
26.6519
 30
0.0
 10
-1.8093
 20
26.5148
 30
0.0
 10
-1.9379
 20
26.3622
 30
0.0
 10
-1.9379
 20
26.3622
 30
0.0
 10
-1.9379
 20
26.3622
 30
0.0
 10
-2.1522
 20
26.1022
 30
0.0
 10
-2.1522
 20
26.1022
 30
0.0
 10
-2.1522
 20
26.1022
 30
0.0
 10
-2.1522
 20
26.1022
 30
0.0
 10
-2.1522
 20
25.8927
 30
0.0
 10
-2.1522
 20
25.8927
 30
0.0
 10
-2.1522
 20
25.8927
 30
0.0
 10
-2.1522
 20
25.8927
 30
0.0
 10
-0.8639
 20
25.8927
 30
0.0
 10
-0.8639
 20
25.8927
 30
0.0
  0
SPLINE
  5
55
330
1F
100
AcDbEntity
  8
Ilustrace
 62
   250
100
AcDbSpline
210
0.0
220
0.0
230
1.0
 70
    11
 71
     3
 72
    48
 73
    44
 74
     0
 42
0.0000000001
 43
0.0000000001
 40
0.0
 40
0.0
 40
0.0
 40
0.0
 40
0.0833333333333333
 40
0.0833333333333333
 40
0.0833333333333333
 40
0.0833333333333333
 40
0.1666666666666667
 40
0.1666666666666667
 40
0.1666666666666667
 40
0.1666666666666667
 40
0.25
 40
0.25
 40
0.25
 40
0.25
 40
0.3333333333333333
 40
0.3333333333333333
 40
0.3333333333333333
 40
0.3333333333333333
 40
0.4166666666666667
 40
0.4166666666666667
 40
0.4166666666666667
 40
0.4166666666666667
 40
0.5
 40
0.5
 40
0.5
 40
0.5
 40
0.5833333333333334
 40
0.5833333333333334
 40
0.5833333333333334
 40
0.5833333333333334
 40
0.6666666666666666
 40
0.6666666666666666
 40
0.6666666666666666
 40
0.6666666666666666
 40
0.75
 40
0.75
 40
0.75
 40
0.75
 40
0.8333333333333334
 40
0.8333333333333334
 40
0.8333333333333334
 40
0.8333333333333334
 40
1.0
 40
1.0
 40
1.0
 40
1.0
 10
0.5421
 20
25.8927
 30
0.0
 10
0.5421
 20
25.8927
 30
0.0
 10
0.5421
 20
26.5833
 30
0.0
 10
0.5421
 20
26.5833
 30
0.0
 10
0.5421
 20
26.5833
 30
0.0
 10
0.5421
 20
26.5833
 30
0.0
 10
0.8246
 20
26.5833
 30
0.0
 10
0.8246
 20
26.5833
 30
0.0
 10
0.8246
 20
26.5833
 30
0.0
 10
0.8246
 20
26.5833
 30
0.0
 10
0.8246
 20
26.8472
 30
0.0
 10
0.8246
 20
26.8472
 30
0.0
 10
0.8246
 20
26.8472
 30
0.0
 10
0.8246
 20
26.8472
 30
0.0
 10
0.5421
 20
26.8472
 30
0.0
 10
0.5421
 20
26.8472
 30
0.0
 10
0.5421
 20
26.8472
 30
0.0
 10
0.5421
 20
26.8472
 30
0.0
 10
0.5421
 20
28.4148
 30
0.0
 10
0.5421
 20
28.4148
 30
0.0
 10
0.5421
 20
28.4148
 30
0.0
 10
0.5421
 20
28.4148
 30
0.0
 10
0.2473
 20
28.4148
 30
0.0
 10
0.2473
 20
28.4148
 30
0.0
 10
0.2473
 20
28.4148
 30
0.0
 10
0.2473
 20
28.4148
 30
0.0
 10
-0.6529
 20
26.8045
 30
0.0
 10
-0.6529
 20
26.8045
 30
0.0
 10
-0.6529
 20
26.8045
 30
0.0
 10
-0.6529
 20
26.8045
 30
0.0
 10
-0.6529
 20
26.5833
 30
0.0
 10
-0.6529
 20
26.5833
 30
0.0
 10
-0.6529
 20
26.5833
 30
0.0
 10
-0.6529
 20
26.5833
 30
0.0
 10
0.2846
 20
26.5833
 30
0.0
 10
0.2846
 20
26.5833
 30
0.0
 10
0.2846
 20
26.5833
 30
0.0
 10
0.2846
 20
26.5833
 30
0.0
 10
0.2846
 20
25.8927
 30
0.0
 10
0.2846
 20
25.8927
 30
0.0
 10
0.2846
 20
25.8927
 30
0.0
 10
0.2846
 20
25.8927
 30
0.0
 10
0.5421
 20
25.8927
 30
0.0
 10
0.5421
 20
25.8927
 30
0.0
  0
SPLINE
  5
56
330
1F
100
AcDbEntity
  8
Ilustrace
 62
   250
100
AcDbSpline
210
0.0
220
0.0
230
1.0
 70
    11
 71
     3
 72
    36
 73
    32
 74
     0
 42
0.0000000001
 43
0.0000000001
 40
0.0
 40
0.0
 40
0.0
 40
0.0
 40
0.1111111111111111
 40
0.1111111111111111
 40
0.1111111111111111
 40
0.1111111111111111
 40
0.2222222222222222
 40
0.2222222222222222
 40
0.2222222222222222
 40
0.2222222222222222
 40
0.3333333333333333
 40
0.3333333333333333
 40
0.3333333333333333
 40
0.3333333333333333
 40
0.4444444444444444
 40
0.4444444444444444
 40
0.4444444444444444
 40
0.4444444444444444
 40
0.5555555555555556
 40
0.5555555555555556
 40
0.5555555555555556
 40
0.5555555555555556
 40
0.6666666666666666
 40
0.6666666666666666
 40
0.6666666666666666
 40
0.6666666666666666
 40
0.7777777777777778
 40
0.7777777777777778
 40
0.7777777777777778
 40
0.7777777777777778
 40
1.0
 40
1.0
 40
1.0
 40
1.0
 10
-0.3767
 20
26.8472
 30
0.0
 10
-0.3767
 20
26.8472
 30
0.0
 10
-0.3767
 20
26.8551
 30
0.0
 10
-0.3767
 20
26.8551
 30
0.0
 10
-0.3767
 20
26.8551
 30
0.0
 10
-0.3767
 20
26.8551
 30
0.0
 10
0.1169
 20
27.7125
 30
0.0
 10
0.1169
 20
27.7125
 30
0.0
 10
0.1169
 20
27.7125
 30
0.0
 10
0.1443
 20
27.7701
 30
0.0
 10
0.1718
 20
27.8283
 30
0.0
 10
0.1987
 20
27.8872
 30
0.0
 10
0.1987
 20
27.8872
 30
0.0
 10
0.2251
 20
27.9467
 30
0.0
 10
0.254
 20
28.0125
 30
0.0
 10
0.2846
 20
28.085
 30
0.0
 10
0.2846
 20
28.085
 30
0.0
 10
0.2846
 20
28.085
 30
0.0
 10
0.2939
 20
28.085
 30
0.0
 10
0.2939
 20
28.085
 30
0.0
 10
0.2939
 20
28.085
 30
0.0
 10
0.2876
 20
27.9532
 30
0.0
 10
0.2846
 20
27.8212
 30
0.0
 10
0.2846
 20
27.6892
 30
0.0
 10
0.2846
 20
27.6892
 30
0.0
 10
0.2846
 20
27.6892
 30
0.0
 10
0.2846
 20
26.8472
 30
0.0
 10
0.2846
 20
26.8472
 30
0.0
 10
0.2846
 20
26.8472
 30
0.0
 10
0.2846
 20
26.8472
 30
0.0
 10
-0.3767
 20
26.8472
 30
0.0
 10
-0.3767
 20
26.8472
 30
0.0
  0
SPLINE
  5
57
330
1F
100
AcDbEntity
  8
Ilustrace
 62
   250
100
AcDbSpline
210
0.0
220
0.0
230
1.0
 70
    11
 71
     3
 72
   124
 73
   120
 74
     0
 42
0.0000000001
 43
0.0000000001
 40
0.0
 40
0.0
 40
0.0
 40
0.0
 40
0.032258064516129
 40
0.032258064516129
 40
0.032258064516129
 40
0.032258064516129
 40
0.0645161290322581
 40
0.0645161290322581
 40
0.0645161290322581
 40
0.0645161290322581
 40
0.0967741935483871
 40
0.0967741935483871
 40
0.0967741935483871
 40
0.0967741935483871
 40
0.1290322580645161
 40
0.1290322580645161
 40
0.1290322580645161
 40
0.1290322580645161
 40
0.1612903225806452
 40
0.1612903225806452
 40
0.1612903225806452
 40
0.1612903225806452
 40
0.1935483870967742
 40
0.1935483870967742
 40
0.1935483870967742
 40
0.1935483870967742
 40
0.2258064516129032
 40
0.2258064516129032
 40
0.2258064516129032
 40
0.2258064516129032
 40
0.2580645161290323
 40
0.2580645161290323
 40
0.2580645161290323
 40
0.2580645161290323
 40
0.2903225806451613
 40
0.2903225806451613
 40
0.2903225806451613
 40
0.2903225806451613
 40
0.3225806451612903
 40
0.3225806451612903
 40
0.3225806451612903
 40
0.3225806451612903
 40
0.3548387096774194
 40
0.3548387096774194
 40
0.3548387096774194
 40
0.3548387096774194
 40
0.3870967741935484
 40
0.3870967741935484
 40
0.3870967741935484
 40
0.3870967741935484
 40
0.4193548387096774
 40
0.4193548387096774
 40
0.4193548387096774
 40
0.4193548387096774
 40
0.4516129032258064
 40
0.4516129032258064
 40
0.4516129032258064
 40
0.4516129032258064
 40
0.4838709677419355
 40
0.4838709677419355
 40
0.4838709677419355
 40
0.4838709677419355
 40
0.5161290322580645
 40
0.5161290322580645
 40
0.5161290322580645
 40
0.5161290322580645
 40
0.5483870967741935
 40
0.5483870967741935
 40
0.5483870967741935
 40
0.5483870967741935
 40
0.5806451612903226
 40
0.5806451612903226
 40
0.5806451612903226
 40
0.5806451612903226
 40
0.6129032258064516
 40
0.6129032258064516
 40
0.6129032258064516
 40
0.6129032258064516
 40
0.6451612903225806
 40
0.6451612903225806
 40
0.6451612903225806
 40
0.6451612903225806
 40
0.6774193548387096
 40
0.6774193548387096
 40
0.6774193548387096
 40
0.6774193548387096
 40
0.7096774193548387
 40
0.7096774193548387
 40
0.7096774193548387
 40
0.7096774193548387
 40
0.7419354838709677
 40
0.7419354838709677
 40
0.7419354838709677
 40
0.7419354838709677
 40
0.7741935483870968
 40
0.7741935483870968
 40
0.7741935483870968
 40
0.7741935483870968
 40
0.8064516129032258
 40
0.8064516129032258
 40
0.8064516129032258
 40
0.8064516129032258
 40
0.8387096774193549
 40
0.8387096774193549
 40
0.8387096774193549
 40
0.8387096774193549
 40
0.8709677419354839
 40
0.8709677419354839
 40
0.8709677419354839
 40
0.8709677419354839
 40
0.9032258064516129
 40
0.9032258064516129
 40
0.9032258064516129
 40
0.9032258064516129
 40
0.9354838709677419
 40
0.9354838709677419
 40
0.9354838709677419
 40
0.9354838709677419
 40
1.0
 40
1.0
 40
1.0
 40
1.0
 10
1.1909
 20
25.854
 30
0.0
 10
1.2235
 20
25.852
 30
0.0
 10
1.2612
 20
25.852
 30
0.0
 10
1.3037
 20
25.8552
 30
0.0
 10
1.3037
 20
25.8552
 30
0.0
 10
1.3462
 20
25.8577
 30
0.0
 10
1.3927
 20
25.8636
 30
0.0
 10
1.4424
 20
25.8733
 30
0.0
 10
1.4424
 20
25.8733
 30
0.0
 10
1.5153
 20
25.8837
 30
0.0
 10
1.5868
 20
25.9036
 30
0.0
 10
1.6565
 20
25.9322
 30
0.0
 10
1.6565
 20
25.9322
 30
0.0
 10
1.7264
 20
25.9612
 30
0.0
 10
1.7931
 20
25.9994
 30
0.0
 10
1.8562
 20
26.046
 30
0.0
 10
1.8562
 20
26.046
 30
0.0
 10
1.9193
 20
26.0925
 30
0.0
 10
1.9769
 20
26.1475
 30
0.0
 10
2.0291
 20
26.2109
 30
0.0
 10
2.0291
 20
26.2109
 30
0.0
 10
2.0958
 20
26.291
 30
0.0
 10
2.1554
 20
26.3875
 30
0.0
 10
2.2076
 20
26.5012
 30
0.0
 10
2.2076
 20
26.5012
 30
0.0
 10
2.2598
 20
26.6144
 30
0.0
 10
2.3007
 20
26.7451
 30
0.0
 10
2.3307
 20
26.8931
 30
0.0
 10
2.3307
 20
26.8931
 30
0.0
 10
2.3607
 20
27.0412
 30
0.0
 10
2.3762
 20
27.2067
 30
0.0
 10
2.3767
 20
27.3904
 30
0.0
 10
2.3767
 20
27.3904
 30
0.0
 10
2.3767
 20
27.5541
 30
0.0
 10
2.3612
 20
27.7008
 30
0.0
 10
2.3307
 20
27.8321
 30
0.0
 10
2.3307
 20
27.8321
 30
0.0
 10
2.3001
 20
27.9634
 30
0.0
 10
2.2557
 20
28.0753
 30
0.0
 10
2.1977
 20
28.1686
 30
0.0
 10
2.1977
 20
28.1686
 30
0.0
 10
2.1397
 20
28.2616
 30
0.0
 10
2.07
 20
28.3327
 30
0.0
 10
1.9876
 20
28.3825
 30
0.0
 10
1.9876
 20
28.3825
 30
0.0
 10
1.9054
 20
28.4324
 30
0.0
 10
1.8127
 20
28.4569
 30
0.0
 10
1.7093
 20
28.4575
 30
0.0
 10
1.7093
 20
28.4575
 30
0.0
 10
1.6059
 20
28.4569
 30
0.0
 10
1.5117
 20
28.4324
 30
0.0
 10
1.4274
 20
28.3845
 30
0.0
 10
1.4274
 20
28.3845
 30
0.0
 10
1.343
 20
28.3373
 30
0.0
 10
1.2706
 20
28.2713
 30
0.0
 10
1.21
 20
28.1885
 30
0.0
 10
1.21
 20
28.1885
 30
0.0
 10
1.149
 20
28.1051
 30
0.0
 10
1.1024
 20
28.01
 30
0.0
 10
1.0698
 20
27.9026
 30
0.0
 10
1.0698
 20
27.9026
 30
0.0
 10
1.0373
 20
27.7953
 30
0.0
 10
1.0208
 20
27.6815
 30
0.0
 10
1.0202
 20
27.5611
 30
0.0
 10
1.0202
 20
27.5611
 30
0.0
 10
1.0208
 20
27.4532
 30
0.0
 10
1.0347
 20
27.3524
 30
0.0
 10
1.0621
 20
27.2591
 30
0.0
 10
1.0621
 20
27.2591
 30
0.0
 10
1.0901
 20
27.1655
 30
0.0
 10
1.13
 20
27.0839
 30
0.0
 10
1.1816
 20
27.0134
 30
0.0
 10
1.1816
 20
27.0134
 30
0.0
 10
1.2334
 20
26.9436
 30
0.0
 10
1.296
 20
26.8886
 30
0.0
 10
1.3684
 20
26.8491
 30
0.0
 10
1.3684
 20
26.8491
 30
0.0
 10
1.4413
 20
26.8097
 30
0.0
 10
1.5226
 20
26.7898
 30
0.0
 10
1.6132
 20
26.7891
 30
0.0
 10
1.6132
 20
26.7891
 30
0.0
 10
1.7156
 20
26.7898
 30
0.0
 10
1.8072
 20
26.8129
 30
0.0
 10
1.8874
 20
26.8588
 30
0.0
 10
1.8874
 20
26.8588
 30
0.0
 10
1.967
 20
26.9047
 30
0.0
 10
2.0353
 20
26.9707
 30
0.0
 10
2.0911
 20
27.0568
 30
0.0
 10
2.0911
 20
27.0568
 30
0.0
 10
2.0911
 20
27.0568
 30
0.0
 10
2.1004
 20
27.0568
 30
0.0
 10
2.1004
 20
27.0568
 30
0.0
 10
2.1004
 20
27.0568
 30
0.0
 10
2.0813
 20
26.9094
 30
0.0
 10
2.0488
 20
26.7799
 30
0.0
 10
2.0031
 20
26.6694
 30
0.0
 10
2.0031
 20
26.6694
 30
0.0
 10
1.9572
 20
26.5582
 30
0.0
 10
1.9007
 20
26.465
 30
0.0
 10
1.8336
 20
26.3893
 30
0.0
 10
1.8336
 20
26.3893
 30
0.0
 10
1.7756
 20
26.3195
 30
0.0
 10
1.7109
 20
26.2652
 30
0.0
 10
1.639
 20
26.225
 30
0.0
 10
1.639
 20
26.225
 30
0.0
 10
1.5671
 20
26.185
 30
0.0
 10
1.4911
 20
26.1585
 30
0.0
 10
1.4113
 20
26.1449
 30
0.0
 10
1.4113
 20
26.1449
 30
0.0
 10
1.3653
 20
26.1391
 30
0.0
 10
1.3239
 20
26.1346
 30
0.0
 10
1.2882
 20
26.1319
 30
0.0
 10
1.2882
 20
26.1319
 30
0.0
 10
1.2525
 20
26.1294
 30
0.0
 10
1.2199
 20
26.1294
 30
0.0
 10
1.1909
 20
26.1332
 30
0.0
 10
1.1909
 20
26.1332
 30
0.0
 10
1.1909
 20
26.1332
 30
0.0
 10
1.1909
 20
25.854
 30
0.0
 10
1.1909
 20
25.854
 30
0.0
  0
SPLINE
  5
58
330
1F
100
AcDbEntity
  8
Ilustrace
 62
   250
100
AcDbSpline
210
0.0
220
0.0
230
1.0
 70
    11
 71
     3
 72
    64
 73
    60
 74
     0
 42
0.0000000001
 43
0.0000000001
 40
0.0
 40
0.0
 40
0.0
 40
0.0
 40
0.0625
 40
0.0625
 40
0.0625
 40
0.0625
 40
0.125
 40
0.125
 40
0.125
 40
0.125
 40
0.1875
 40
0.1875
 40
0.1875
 40
0.1875
 40
0.25
 40
0.25
 40
0.25
 40
0.25
 40
0.3125
 40
0.3125
 40
0.3125
 40
0.3125
 40
0.375
 40
0.375
 40
0.375
 40
0.375
 40
0.4375
 40
0.4375
 40
0.4375
 40
0.4375
 40
0.5
 40
0.5
 40
0.5
 40
0.5
 40
0.5625
 40
0.5625
 40
0.5625
 40
0.5625
 40
0.625
 40
0.625
 40
0.625
 40
0.625
 40
0.6875
 40
0.6875
 40
0.6875
 40
0.6875
 40
0.75
 40
0.75
 40
0.75
 40
0.75
 40
0.8125
 40
0.8125
 40
0.8125
 40
0.8125
 40
0.875
 40
0.875
 40
0.875
 40
0.875
 40
1.0
 40
1.0
 40
1.0
 40
1.0
 10
1.6845
 20
28.1976
 30
0.0
 10
1.7564
 20
28.1969
 30
0.0
 10
1.8191
 20
28.1775
 30
0.0
 10
1.8713
 20
28.1393
 30
0.0
 10
1.8713
 20
28.1393
 30
0.0
 10
1.9235
 20
28.1011
 30
0.0
 10
1.967
 20
28.0475
 30
0.0
 10
2.0006
 20
27.979
 30
0.0
 10
2.0006
 20
27.979
 30
0.0
 10
2.0347
 20
27.9105
 30
0.0
 10
2.0597
 20
27.8296
 30
0.0
 10
2.0762
 20
27.7378
 30
0.0
 10
2.0762
 20
27.7378
 30
0.0
 10
2.0927
 20
27.6452
 30
0.0
 10
2.1004
 20
27.545
 30
0.0
 10
2.1004
 20
27.437
 30
0.0
 10
2.1004
 20
27.437
 30
0.0
 10
2.1004
 20
27.4085
 30
0.0
 10
2.0984
 20
27.3839
 30
0.0
 10
2.0938
 20
27.3646
 30
0.0
 10
2.0938
 20
27.3646
 30
0.0
 10
2.0897
 20
27.3445
 30
0.0
 10
2.0833
 20
27.3258
 30
0.0
 10
2.0756
 20
27.309
 30
0.0
 10
2.0756
 20
27.309
 30
0.0
 10
2.0518
 20
27.2579
 30
0.0
 10
2.0202
 20
27.2127
 30
0.0
 10
1.9815
 20
27.1732
 30
0.0
 10
1.9815
 20
27.1732
 30
0.0
 10
1.9432
 20
27.1338
 30
0.0
 10
1.8981
 20
27.1027
 30
0.0
 10
1.8469
 20
27.0801
 30
0.0
 10
1.8469
 20
27.0801
 30
0.0
 10
1.7957
 20
27.0574
 30
0.0
 10
1.7393
 20
27.0457
 30
0.0
 10
1.6783
 20
27.0452
 30
0.0
 10
1.6783
 20
27.0452
 30
0.0
 10
1.5991
 20
27.0457
 30
0.0
 10
1.5308
 20
27.069
 30
0.0
 10
1.4729
 20
27.1144
 30
0.0
 10
1.4729
 20
27.1144
 30
0.0
 10
1.4149
 20
27.1596
 30
0.0
 10
1.37
 20
27.2216
 30
0.0
 10
1.3384
 20
27.3018
 30
0.0
 10
1.3384
 20
27.3018
 30
0.0
 10
1.3069
 20
27.3821
 30
0.0
 10
1.2908
 20
27.4752
 30
0.0
 10
1.2902
 20
27.5807
 30
0.0
 10
1.2902
 20
27.5807
 30
0.0
 10
1.2908
 20
27.7023
 30
0.0
 10
1.3079
 20
27.809
 30
0.0
 10
1.3414
 20
27.9008
 30
0.0
 10
1.3414
 20
27.9008
 30
0.0
 10
1.3752
 20
27.9932
 30
0.0
 10
1.4212
 20
28.0656
 30
0.0
 10
1.4802
 20
28.118
 30
0.0
 10
1.4802
 20
28.118
 30
0.0
 10
1.5391
 20
28.1704
 30
0.0
 10
1.6074
 20
28.1969
 30
0.0
 10
1.6845
 20
28.1976
 30
0.0
  0
SPLINE
  5
59
330
1F
100
AcDbEntity
  8
Ilustrace
 62
   250
100
AcDbSpline
210
0.0
220
0.0
230
1.0
 70
    11
 71
     3
 72
   124
 73
   120
 74
     0
 42
0.0000000001
 43
0.0000000001
 40
0.0
 40
0.0
 40
0.0
 40
0.0
 40
0.032258064516129
 40
0.032258064516129
 40
0.032258064516129
 40
0.032258064516129
 40
0.0645161290322581
 40
0.0645161290322581
 40
0.0645161290322581
 40
0.0645161290322581
 40
0.0967741935483871
 40
0.0967741935483871
 40
0.0967741935483871
 40
0.0967741935483871
 40
0.1290322580645161
 40
0.1290322580645161
 40
0.1290322580645161
 40
0.1290322580645161
 40
0.1612903225806452
 40
0.1612903225806452
 40
0.1612903225806452
 40
0.1612903225806452
 40
0.1935483870967742
 40
0.1935483870967742
 40
0.1935483870967742
 40
0.1935483870967742
 40
0.2258064516129032
 40
0.2258064516129032
 40
0.2258064516129032
 40
0.2258064516129032
 40
0.2580645161290323
 40
0.2580645161290323
 40
0.2580645161290323
 40
0.2580645161290323
 40
0.2903225806451613
 40
0.2903225806451613
 40
0.2903225806451613
 40
0.2903225806451613
 40
0.3225806451612903
 40
0.3225806451612903
 40
0.3225806451612903
 40
0.3225806451612903
 40
0.3548387096774194
 40
0.3548387096774194
 40
0.3548387096774194
 40
0.3548387096774194
 40
0.3870967741935484
 40
0.3870967741935484
 40
0.3870967741935484
 40
0.3870967741935484
 40
0.4193548387096774
 40
0.4193548387096774
 40
0.4193548387096774
 40
0.4193548387096774
 40
0.4516129032258064
 40
0.4516129032258064
 40
0.4516129032258064
 40
0.4516129032258064
 40
0.4838709677419355
 40
0.4838709677419355
 40
0.4838709677419355
 40
0.4838709677419355
 40
0.5161290322580645
 40
0.5161290322580645
 40
0.5161290322580645
 40
0.5161290322580645
 40
0.5483870967741935
 40
0.5483870967741935
 40
0.5483870967741935
 40
0.5483870967741935
 40
0.5806451612903226
 40
0.5806451612903226
 40
0.5806451612903226
 40
0.5806451612903226
 40
0.6129032258064516
 40
0.6129032258064516
 40
0.6129032258064516
 40
0.6129032258064516
 40
0.6451612903225806
 40
0.6451612903225806
 40
0.6451612903225806
 40
0.6451612903225806
 40
0.6774193548387096
 40
0.6774193548387096
 40
0.6774193548387096
 40
0.6774193548387096
 40
0.7096774193548387
 40
0.7096774193548387
 40
0.7096774193548387
 40
0.7096774193548387
 40
0.7419354838709677
 40
0.7419354838709677
 40
0.7419354838709677
 40
0.7419354838709677
 40
0.7741935483870968
 40
0.7741935483870968
 40
0.7741935483870968
 40
0.7741935483870968
 40
0.8064516129032258
 40
0.8064516129032258
 40
0.8064516129032258
 40
0.8064516129032258
 40
0.8387096774193549
 40
0.8387096774193549
 40
0.8387096774193549
 40
0.8387096774193549
 40
0.8709677419354839
 40
0.8709677419354839
 40
0.8709677419354839
 40
0.8709677419354839
 40
0.9032258064516129
 40
0.9032258064516129
 40
0.9032258064516129
 40
0.9032258064516129
 40
0.9354838709677419
 40
0.9354838709677419
 40
0.9354838709677419
 40
0.9354838709677419
 40
1.0
 40
1.0
 40
1.0
 40
1.0
 10
-35.0235
 20
-6.8452
 30
0.0
 10
-35.0235
 20
-6.8452
 30
0.0
 10
-35.3067
 20
-6.8452
 30
0.0
 10
-35.3067
 20
-6.8452
 30
0.0
 10
-35.3067
 20
-6.8452
 30
0.0
 10
-35.3067
 20
-6.8452
 30
0.0
 10
-35.3067
 20
-7.7487
 30
0.0
 10
-35.3067
 20
-7.7487
 30
0.0
 10
-35.3067
 20
-7.7487
 30
0.0
 10
-35.3067
 20
-7.7487
 30
0.0
 10
-35.3146
 20
-7.7487
 30
0.0
 10
-35.3146
 20
-7.7487
 30
0.0
 10
-35.3146
 20
-7.7487
 30
0.0
 10
-35.3146
 20
-7.7487
 30
0.0
 10
-35.5007
 20
-7.5903
 30
0.0
 10
-35.5007
 20
-7.5903
 30
0.0
 10
-35.5007
 20
-7.5903
 30
0.0
 10
-35.6282
 20
-7.4837
 30
0.0
 10
-35.7491
 20
-7.3875
 30
0.0
 10
-35.863
 20
-7.3022
 30
0.0
 10
-35.863
 20
-7.3022
 30
0.0
 10
-35.9767
 20
-7.2168
 30
0.0
 10
-36.0879
 20
-7.1438
 30
0.0
 10
-36.1953
 20
-7.0832
 30
0.0
 10
-36.1953
 20
-7.0832
 30
0.0
 10
-36.3028
 20
-7.0223
 30
0.0
 10
-36.4107
 20
-6.9762
 30
0.0
 10
-36.5194
 20
-6.9436
 30
0.0
 10
-36.5194
 20
-6.9436
 30
0.0
 10
-36.6274
 20
-6.9115
 30
0.0
 10
-36.7393
 20
-6.8954
 30
0.0
 10
-36.8549
 20
-6.895
 30
0.0
 10
-36.8549
 20
-6.895
 30
0.0
 10
-36.9462
 20
-6.895
 30
0.0
 10
-37.0354
 20
-6.9063
 30
0.0
 10
-37.122
 20
-6.9301
 30
0.0
 10
-37.122
 20
-6.9301
 30
0.0
 10
-37.2088
 20
-6.954
 30
0.0
 10
-37.287
 20
-6.9911
 30
0.0
 10
-37.3567
 20
-7.0409
 30
0.0
 10
-37.3567
 20
-7.0409
 30
0.0
 10
-37.4274
 20
-7.0905
 30
0.0
 10
-37.483
 20
-7.1547
 30
0.0
 10
-37.5243
 20
-7.2327
 30
0.0
 10
-37.5243
 20
-7.2327
 30
0.0
 10
-37.5664
 20
-7.3109
 30
0.0
 10
-37.5877
 20
-7.404
 30
0.0
 10
-37.5883
 20
-7.5126
 30
0.0
 10
-37.5883
 20
-7.5126
 30
0.0
 10
-37.5877
 20
-7.5893
 30
0.0
 10
-37.5766
 20
-7.6621
 30
0.0
 10
-37.554
 20
-7.7316
 30
0.0
 10
-37.554
 20
-7.7316
 30
0.0
 10
-37.5314
 20
-7.8009
 30
0.0
 10
-37.5011
 20
-7.865
 30
0.0
 10
-37.4622
 20
-7.924
 30
0.0
 10
-37.4622
 20
-7.924
 30
0.0
 10
-37.424
 20
-7.9824
 30
0.0
 10
-37.3808
 20
-8.0347
 30
0.0
 10
-37.3322
 20
-8.0808
 30
0.0
 10
-37.3322
 20
-8.0808
 30
0.0
 10
-37.3322
 20
-8.0808
 30
0.0
 10
-37.0917
 20
-7.9939
 30
0.0
 10
-37.0917
 20
-7.9939
 30
0.0
 10
-37.0917
 20
-7.9939
 30
0.0
 10
-37.1247
 20
-7.9627
 30
0.0
 10
-37.1577
 20
-7.9256
 30
0.0
 10
-37.19
 20
-7.8821
 30
0.0
 10
-37.19
 20
-7.8821
 30
0.0
 10
-37.223
 20
-7.8386
 30
0.0
 10
-37.2495
 20
-7.7906
 30
0.0
 10
-37.2714
 20
-7.7372
 30
0.0
 10
-37.2714
 20
-7.7372
 30
0.0
 10
-37.2927
 20
-7.684
 30
0.0
 10
-37.3044
 20
-7.6266
 30
0.0
 10
-37.3051
 20
-7.5654
 30
0.0
 10
-37.3051
 20
-7.5654
 30
0.0
 10
-37.3044
 20
-7.4904
 30
0.0
 10
-37.2909
 20
-7.4273
 30
0.0
 10
-37.2644
 20
-7.3761
 30
0.0
 10
-37.2644
 20
-7.3761
 30
0.0
 10
-37.2371
 20
-7.3254
 30
0.0
 10
-37.2009
 20
-7.2845
 30
0.0
 10
-37.155
 20
-7.254
 30
0.0
 10
-37.155
 20
-7.254
 30
0.0
 10
-37.1085
 20
-7.2234
 30
0.0
 10
-37.0562
 20
-7.2012
 30
0.0
 10
-36.9973
 20
-7.1878
 30
0.0
 10
-36.9973
 20
-7.1878
 30
0.0
 10
-36.9383
 20
-7.1743
 30
0.0
 10
-36.877
 20
-7.1676
 30
0.0
 10
-36.8123
 20
-7.1682
 30
0.0
 10
-36.8123
 20
-7.1682
 30
0.0
 10
-36.7179
 20
-7.1682
 30
0.0
 10
-36.6247
 20
-7.1831
 30
0.0
 10
-36.5323
 20
-7.2131
 30
0.0
 10
-36.5323
 20
-7.2131
 30
0.0
 10
-36.4392
 20
-7.2431
 30
0.0
 10
-36.3422
 20
-7.2887
 30
0.0
 10
-36.24
 20
-7.3502
 30
0.0
 10
-36.24
 20
-7.3502
 30
0.0
 10
-36.1378
 20
-7.4118
 30
0.0
 10
-36.0258
 20
-7.49
 30
0.0
 10
-35.9043
 20
-7.5845
 30
0.0
 10
-35.9043
 20
-7.5845
 30
0.0
 10
-35.7827
 20
-7.6788
 30
0.0
 10
-35.6456
 20
-7.7906
 30
0.0
 10
-35.493
 20
-7.9192
 30
0.0
 10
-35.493
 20
-7.9192
 30
0.0
 10
-35.493
 20
-7.9192
 30
0.0
 10
-35.233
 20
-8.1335
 30
0.0
 10
-35.233
 20
-8.1335
 30
0.0
 10
-35.233
 20
-8.1335
 30
0.0
 10
-35.233
 20
-8.1335
 30
0.0
 10
-35.0235
 20
-8.1335
 30
0.0
 10
-35.0235
 20
-8.1335
 30
0.0
 10
-35.0235
 20
-8.1335
 30
0.0
 10
-35.0235
 20
-8.1335
 30
0.0
 10
-35.0235
 20
-6.8452
 30
0.0
 10
-35.0235
 20
-6.8452
 30
0.0
  0
SPLINE
  5
5A
330
1F
100
AcDbEntity
  8
Ilustrace
 62
   250
100
AcDbSpline
210
0.0
220
0.0
230
1.0
 70
    11
 71
     3
 72
    48
 73
    44
 74
     0
 42
0.0000000001
 43
0.0000000001
 40
0.0
 40
0.0
 40
0.0
 40
0.0
 40
0.0833333333333333
 40
0.0833333333333333
 40
0.0833333333333333
 40
0.0833333333333333
 40
0.1666666666666667
 40
0.1666666666666667
 40
0.1666666666666667
 40
0.1666666666666667
 40
0.25
 40
0.25
 40
0.25
 40
0.25
 40
0.3333333333333333
 40
0.3333333333333333
 40
0.3333333333333333
 40
0.3333333333333333
 40
0.4166666666666667
 40
0.4166666666666667
 40
0.4166666666666667
 40
0.4166666666666667
 40
0.5
 40
0.5
 40
0.5
 40
0.5
 40
0.5833333333333334
 40
0.5833333333333334
 40
0.5833333333333334
 40
0.5833333333333334
 40
0.6666666666666666
 40
0.6666666666666666
 40
0.6666666666666666
 40
0.6666666666666666
 40
0.75
 40
0.75
 40
0.75
 40
0.75
 40
0.8333333333333334
 40
0.8333333333333334
 40
0.8333333333333334
 40
0.8333333333333334
 40
1.0
 40
1.0
 40
1.0
 40
1.0
 10
-35.0235
 20
-5.4392
 30
0.0
 10
-35.0235
 20
-5.4392
 30
0.0
 10
-35.7141
 20
-5.4392
 30
0.0
 10
-35.7141
 20
-5.4392
 30
0.0
 10
-35.7141
 20
-5.4392
 30
0.0
 10
-35.7141
 20
-5.4392
 30
0.0
 10
-35.7141
 20
-5.1567
 30
0.0
 10
-35.7141
 20
-5.1567
 30
0.0
 10
-35.7141
 20
-5.1567
 30
0.0
 10
-35.7141
 20
-5.1567
 30
0.0
 10
-35.978
 20
-5.1567
 30
0.0
 10
-35.978
 20
-5.1567
 30
0.0
 10
-35.978
 20
-5.1567
 30
0.0
 10
-35.978
 20
-5.1567
 30
0.0
 10
-35.978
 20
-5.4392
 30
0.0
 10
-35.978
 20
-5.4392
 30
0.0
 10
-35.978
 20
-5.4392
 30
0.0
 10
-35.978
 20
-5.4392
 30
0.0
 10
-37.5456
 20
-5.4392
 30
0.0
 10
-37.5456
 20
-5.4392
 30
0.0
 10
-37.5456
 20
-5.4392
 30
0.0
 10
-37.5456
 20
-5.4392
 30
0.0
 10
-37.5456
 20
-5.734
 30
0.0
 10
-37.5456
 20
-5.734
 30
0.0
 10
-37.5456
 20
-5.734
 30
0.0
 10
-37.5456
 20
-5.734
 30
0.0
 10
-35.9353
 20
-6.6342
 30
0.0
 10
-35.9353
 20
-6.6342
 30
0.0
 10
-35.9353
 20
-6.6342
 30
0.0
 10
-35.9353
 20
-6.6342
 30
0.0
 10
-35.7141
 20
-6.6342
 30
0.0
 10
-35.7141
 20
-6.6342
 30
0.0
 10
-35.7141
 20
-6.6342
 30
0.0
 10
-35.7141
 20
-6.6342
 30
0.0
 10
-35.7141
 20
-5.6967
 30
0.0
 10
-35.7141
 20
-5.6967
 30
0.0
 10
-35.7141
 20
-5.6967
 30
0.0
 10
-35.7141
 20
-5.6967
 30
0.0
 10
-35.0235
 20
-5.6967
 30
0.0
 10
-35.0235
 20
-5.6967
 30
0.0
 10
-35.0235
 20
-5.6967
 30
0.0
 10
-35.0235
 20
-5.6967
 30
0.0
 10
-35.0235
 20
-5.4392
 30
0.0
 10
-35.0235
 20
-5.4392
 30
0.0
  0
SPLINE
  5
5B
330
1F
100
AcDbEntity
  8
Ilustrace
 62
   250
100
AcDbSpline
210
0.0
220
0.0
230
1.0
 70
    11
 71
     3
 72
    36
 73
    32
 74
     0
 42
0.0000000001
 43
0.0000000001
 40
0.0
 40
0.0
 40
0.0
 40
0.0
 40
0.1111111111111111
 40
0.1111111111111111
 40
0.1111111111111111
 40
0.1111111111111111
 40
0.2222222222222222
 40
0.2222222222222222
 40
0.2222222222222222
 40
0.2222222222222222
 40
0.3333333333333333
 40
0.3333333333333333
 40
0.3333333333333333
 40
0.3333333333333333
 40
0.4444444444444444
 40
0.4444444444444444
 40
0.4444444444444444
 40
0.4444444444444444
 40
0.5555555555555556
 40
0.5555555555555556
 40
0.5555555555555556
 40
0.5555555555555556
 40
0.6666666666666666
 40
0.6666666666666666
 40
0.6666666666666666
 40
0.6666666666666666
 40
0.7777777777777778
 40
0.7777777777777778
 40
0.7777777777777778
 40
0.7777777777777778
 40
1.0
 40
1.0
 40
1.0
 40
1.0
 10
-35.978
 20
-6.358
 30
0.0
 10
-35.978
 20
-6.358
 30
0.0
 10
-35.9859
 20
-6.358
 30
0.0
 10
-35.9859
 20
-6.358
 30
0.0
 10
-35.9859
 20
-6.358
 30
0.0
 10
-35.9859
 20
-6.358
 30
0.0
 10
-36.8433
 20
-5.8644
 30
0.0
 10
-36.8433
 20
-5.8644
 30
0.0
 10
-36.8433
 20
-5.8644
 30
0.0
 10
-36.9009
 20
-5.837
 30
0.0
 10
-36.9591
 20
-5.8095
 30
0.0
 10
-37.018
 20
-5.7826
 30
0.0
 10
-37.018
 20
-5.7826
 30
0.0
 10
-37.0775
 20
-5.7562
 30
0.0
 10
-37.1433
 20
-5.7273
 30
0.0
 10
-37.2158
 20
-5.6967
 30
0.0
 10
-37.2158
 20
-5.6967
 30
0.0
 10
-37.2158
 20
-5.6967
 30
0.0
 10
-37.2158
 20
-5.6874
 30
0.0
 10
-37.2158
 20
-5.6874
 30
0.0
 10
-37.2158
 20
-5.6874
 30
0.0
 10
-37.084
 20
-5.6937
 30
0.0
 10
-36.952
 20
-5.6967
 30
0.0
 10
-36.82
 20
-5.6967
 30
0.0
 10
-36.82
 20
-5.6967
 30
0.0
 10
-36.82
 20
-5.6967
 30
0.0
 10
-35.978
 20
-5.6967
 30
0.0
 10
-35.978
 20
-5.6967
 30
0.0
 10
-35.978
 20
-5.6967
 30
0.0
 10
-35.978
 20
-5.6967
 30
0.0
 10
-35.978
 20
-6.358
 30
0.0
 10
-35.978
 20
-6.358
 30
0.0
  0
SPLINE
  5
5C
330
1F
100
AcDbEntity
  8
Ilustrace
 62
   250
100
AcDbSpline
210
0.0
220
0.0
230
1.0
 70
    11
 71
     3
 72
   124
 73
   120
 74
     0
 42
0.0000000001
 43
0.0000000001
 40
0.0
 40
0.0
 40
0.0
 40
0.0
 40
0.032258064516129
 40
0.032258064516129
 40
0.032258064516129
 40
0.032258064516129
 40
0.0645161290322581
 40
0.0645161290322581
 40
0.0645161290322581
 40
0.0645161290322581
 40
0.0967741935483871
 40
0.0967741935483871
 40
0.0967741935483871
 40
0.0967741935483871
 40
0.1290322580645161
 40
0.1290322580645161
 40
0.1290322580645161
 40
0.1290322580645161
 40
0.1612903225806452
 40
0.1612903225806452
 40
0.1612903225806452
 40
0.1612903225806452
 40
0.1935483870967742
 40
0.1935483870967742
 40
0.1935483870967742
 40
0.1935483870967742
 40
0.2258064516129032
 40
0.2258064516129032
 40
0.2258064516129032
 40
0.2258064516129032
 40
0.2580645161290323
 40
0.2580645161290323
 40
0.2580645161290323
 40
0.2580645161290323
 40
0.2903225806451613
 40
0.2903225806451613
 40
0.2903225806451613
 40
0.2903225806451613
 40
0.3225806451612903
 40
0.3225806451612903
 40
0.3225806451612903
 40
0.3225806451612903
 40
0.3548387096774194
 40
0.3548387096774194
 40
0.3548387096774194
 40
0.3548387096774194
 40
0.3870967741935484
 40
0.3870967741935484
 40
0.3870967741935484
 40
0.3870967741935484
 40
0.4193548387096774
 40
0.4193548387096774
 40
0.4193548387096774
 40
0.4193548387096774
 40
0.4516129032258064
 40
0.4516129032258064
 40
0.4516129032258064
 40
0.4516129032258064
 40
0.4838709677419355
 40
0.4838709677419355
 40
0.4838709677419355
 40
0.4838709677419355
 40
0.5161290322580645
 40
0.5161290322580645
 40
0.5161290322580645
 40
0.5161290322580645
 40
0.5483870967741935
 40
0.5483870967741935
 40
0.5483870967741935
 40
0.5483870967741935
 40
0.5806451612903226
 40
0.5806451612903226
 40
0.5806451612903226
 40
0.5806451612903226
 40
0.6129032258064516
 40
0.6129032258064516
 40
0.6129032258064516
 40
0.6129032258064516
 40
0.6451612903225806
 40
0.6451612903225806
 40
0.6451612903225806
 40
0.6451612903225806
 40
0.6774193548387096
 40
0.6774193548387096
 40
0.6774193548387096
 40
0.6774193548387096
 40
0.7096774193548387
 40
0.7096774193548387
 40
0.7096774193548387
 40
0.7096774193548387
 40
0.7419354838709677
 40
0.7419354838709677
 40
0.7419354838709677
 40
0.7419354838709677
 40
0.7741935483870968
 40
0.7741935483870968
 40
0.7741935483870968
 40
0.7741935483870968
 40
0.8064516129032258
 40
0.8064516129032258
 40
0.8064516129032258
 40
0.8064516129032258
 40
0.8387096774193549
 40
0.8387096774193549
 40
0.8387096774193549
 40
0.8387096774193549
 40
0.8709677419354839
 40
0.8709677419354839
 40
0.8709677419354839
 40
0.8709677419354839
 40
0.9032258064516129
 40
0.9032258064516129
 40
0.9032258064516129
 40
0.9032258064516129
 40
0.9354838709677419
 40
0.9354838709677419
 40
0.9354838709677419
 40
0.9354838709677419
 40
1.0
 40
1.0
 40
1.0
 40
1.0
 10
-34.9848
 20
-4.7904
 30
0.0
 10
-34.9828
 20
-4.7578
 30
0.0
 10
-34.9828
 20
-4.7201
 30
0.0
 10
-34.986
 20
-4.6776
 30
0.0
 10
-34.986
 20
-4.6776
 30
0.0
 10
-34.9885
 20
-4.6351
 30
0.0
 10
-34.9944
 20
-4.5886
 30
0.0
 10
-35.0041
 20
-4.5389
 30
0.0
 10
-35.0041
 20
-4.5389
 30
0.0
 10
-35.0145
 20
-4.466
 30
0.0
 10
-35.0344
 20
-4.3945
 30
0.0
 10
-35.063
 20
-4.3248
 30
0.0
 10
-35.063
 20
-4.3248
 30
0.0
 10
-35.092
 20
-4.2549
 30
0.0
 10
-35.1302
 20
-4.1882
 30
0.0
 10
-35.1768
 20
-4.1251
 30
0.0
 10
-35.1768
 20
-4.1251
 30
0.0
 10
-35.2233
 20
-4.062
 30
0.0
 10
-35.2783
 20
-4.0044
 30
0.0
 10
-35.3417
 20
-3.9522
 30
0.0
 10
-35.3417
 20
-3.9522
 30
0.0
 10
-35.4218
 20
-3.8855
 30
0.0
 10
-35.5183
 20
-3.8259
 30
0.0
 10
-35.632
 20
-3.7737
 30
0.0
 10
-35.632
 20
-3.7737
 30
0.0
 10
-35.7452
 20
-3.7215
 30
0.0
 10
-35.8759
 20
-3.6806
 30
0.0
 10
-36.0239
 20
-3.6506
 30
0.0
 10
-36.0239
 20
-3.6506
 30
0.0
 10
-36.172
 20
-3.6206
 30
0.0
 10
-36.3375
 20
-3.6051
 30
0.0
 10
-36.5212
 20
-3.6046
 30
0.0
 10
-36.5212
 20
-3.6046
 30
0.0
 10
-36.6849
 20
-3.6046
 30
0.0
 10
-36.8316
 20
-3.6201
 30
0.0
 10
-36.9629
 20
-3.6506
 30
0.0
 10
-36.9629
 20
-3.6506
 30
0.0
 10
-37.0942
 20
-3.6812
 30
0.0
 10
-37.2061
 20
-3.7256
 30
0.0
 10
-37.2994
 20
-3.7836
 30
0.0
 10
-37.2994
 20
-3.7836
 30
0.0
 10
-37.3924
 20
-3.8416
 30
0.0
 10
-37.4635
 20
-3.9113
 30
0.0
 10
-37.5133
 20
-3.9937
 30
0.0
 10
-37.5133
 20
-3.9937
 30
0.0
 10
-37.5632
 20
-4.0759
 30
0.0
 10
-37.5877
 20
-4.1686
 30
0.0
 10
-37.5883
 20
-4.272
 30
0.0
 10
-37.5883
 20
-4.272
 30
0.0
 10
-37.5877
 20
-4.3754
 30
0.0
 10
-37.5632
 20
-4.4696
 30
0.0
 10
-37.5153
 20
-4.5539
 30
0.0
 10
-37.5153
 20
-4.5539
 30
0.0
 10
-37.4681
 20
-4.6383
 30
0.0
 10
-37.4021
 20
-4.7107
 30
0.0
 10
-37.3193
 20
-4.7713
 30
0.0
 10
-37.3193
 20
-4.7713
 30
0.0
 10
-37.2359
 20
-4.8323
 30
0.0
 10
-37.1408
 20
-4.8789
 30
0.0
 10
-37.0334
 20
-4.9115
 30
0.0
 10
-37.0334
 20
-4.9115
 30
0.0
 10
-36.9261
 20
-4.944
 30
0.0
 10
-36.8123
 20
-4.9605
 30
0.0
 10
-36.6919
 20
-4.9611
 30
0.0
 10
-36.6919
 20
-4.9611
 30
0.0
 10
-36.584
 20
-4.9605
 30
0.0
 10
-36.4832
 20
-4.9466
 30
0.0
 10
-36.3899
 20
-4.9192
 30
0.0
 10
-36.3899
 20
-4.9192
 30
0.0
 10
-36.2963
 20
-4.8912
 30
0.0
 10
-36.2147
 20
-4.8513
 30
0.0
 10
-36.1442
 20
-4.7997
 30
0.0
 10
-36.1442
 20
-4.7997
 30
0.0
 10
-36.0744
 20
-4.7479
 30
0.0
 10
-36.0194
 20
-4.6853
 30
0.0
 10
-35.9799
 20
-4.6129
 30
0.0
 10
-35.9799
 20
-4.6129
 30
0.0
 10
-35.9405
 20
-4.54
 30
0.0
 10
-35.9206
 20
-4.4587
 30
0.0
 10
-35.9199
 20
-4.3681
 30
0.0
 10
-35.9199
 20
-4.3681
 30
0.0
 10
-35.9206
 20
-4.2657
 30
0.0
 10
-35.9437
 20
-4.1741
 30
0.0
 10
-35.9896
 20
-4.0939
 30
0.0
 10
-35.9896
 20
-4.0939
 30
0.0
 10
-36.0355
 20
-4.0143
 30
0.0
 10
-36.1015
 20
-3.946
 30
0.0
 10
-36.1876
 20
-3.8902
 30
0.0
 10
-36.1876
 20
-3.8902
 30
0.0
 10
-36.1876
 20
-3.8902
 30
0.0
 10
-36.1876
 20
-3.8809
 30
0.0
 10
-36.1876
 20
-3.8809
 30
0.0
 10
-36.1876
 20
-3.8809
 30
0.0
 10
-36.0402
 20
-3.9
 30
0.0
 10
-35.9107
 20
-3.9325
 30
0.0
 10
-35.8002
 20
-3.9782
 30
0.0
 10
-35.8002
 20
-3.9782
 30
0.0
 10
-35.689
 20
-4.0241
 30
0.0
 10
-35.5958
 20
-4.0806
 30
0.0
 10
-35.5201
 20
-4.1477
 30
0.0
 10
-35.5201
 20
-4.1477
 30
0.0
 10
-35.4503
 20
-4.2057
 30
0.0
 10
-35.396
 20
-4.2704
 30
0.0
 10
-35.3558
 20
-4.3423
 30
0.0
 10
-35.3558
 20
-4.3423
 30
0.0
 10
-35.3158
 20
-4.4142
 30
0.0
 10
-35.2893
 20
-4.4902
 30
0.0
 10
-35.2757
 20
-4.57
 30
0.0
 10
-35.2757
 20
-4.57
 30
0.0
 10
-35.2699
 20
-4.616
 30
0.0
 10
-35.2654
 20
-4.6574
 30
0.0
 10
-35.2627
 20
-4.6931
 30
0.0
 10
-35.2627
 20
-4.6931
 30
0.0
 10
-35.2602
 20
-4.7288
 30
0.0
 10
-35.2602
 20
-4.7614
 30
0.0
 10
-35.264
 20
-4.7904
 30
0.0
 10
-35.264
 20
-4.7904
 30
0.0
 10
-35.264
 20
-4.7904
 30
0.0
 10
-34.9848
 20
-4.7904
 30
0.0
 10
-34.9848
 20
-4.7904
 30
0.0
  0
SPLINE
  5
5D
330
1F
100
AcDbEntity
  8
Ilustrace
 62
   250
100
AcDbSpline
210
0.0
220
0.0
230
1.0
 70
    11
 71
     3
 72
    64
 73
    60
 74
     0
 42
0.0000000001
 43
0.0000000001
 40
0.0
 40
0.0
 40
0.0
 40
0.0
 40
0.0625
 40
0.0625
 40
0.0625
 40
0.0625
 40
0.125
 40
0.125
 40
0.125
 40
0.125
 40
0.1875
 40
0.1875
 40
0.1875
 40
0.1875
 40
0.25
 40
0.25
 40
0.25
 40
0.25
 40
0.3125
 40
0.3125
 40
0.3125
 40
0.3125
 40
0.375
 40
0.375
 40
0.375
 40
0.375
 40
0.4375
 40
0.4375
 40
0.4375
 40
0.4375
 40
0.5
 40
0.5
 40
0.5
 40
0.5
 40
0.5625
 40
0.5625
 40
0.5625
 40
0.5625
 40
0.625
 40
0.625
 40
0.625
 40
0.625
 40
0.6875
 40
0.6875
 40
0.6875
 40
0.6875
 40
0.75
 40
0.75
 40
0.75
 40
0.75
 40
0.8125
 40
0.8125
 40
0.8125
 40
0.8125
 40
0.875
 40
0.875
 40
0.875
 40
0.875
 40
1.0
 40
1.0
 40
1.0
 40
1.0
 10
-37.3284
 20
-4.2968
 30
0.0
 10
-37.3277
 20
-4.2249
 30
0.0
 10
-37.3083
 20
-4.1622
 30
0.0
 10
-37.2701
 20
-4.11
 30
0.0
 10
-37.2701
 20
-4.11
 30
0.0
 10
-37.2319
 20
-4.0578
 30
0.0
 10
-37.1783
 20
-4.0143
 30
0.0
 10
-37.1098
 20
-3.9807
 30
0.0
 10
-37.1098
 20
-3.9807
 30
0.0
 10
-37.0413
 20
-3.9466
 30
0.0
 10
-36.9604
 20
-3.9216
 30
0.0
 10
-36.8686
 20
-3.9051
 30
0.0
 10
-36.8686
 20
-3.9051
 30
0.0
 10
-36.776
 20
-3.8886
 30
0.0
 10
-36.6758
 20
-3.8809
 30
0.0
 10
-36.5678
 20
-3.8809
 30
0.0
 10
-36.5678
 20
-3.8809
 30
0.0
 10
-36.5393
 20
-3.8809
 30
0.0
 10
-36.5147
 20
-3.8829
 30
0.0
 10
-36.4954
 20
-3.8875
 30
0.0
 10
-36.4954
 20
-3.8875
 30
0.0
 10
-36.4753
 20
-3.8916
 30
0.0
 10
-36.4566
 20
-3.898
 30
0.0
 10
-36.4398
 20
-3.9057
 30
0.0
 10
-36.4398
 20
-3.9057
 30
0.0
 10
-36.3887
 20
-3.9295
 30
0.0
 10
-36.3435
 20
-3.9611
 30
0.0
 10
-36.304
 20
-3.9998
 30
0.0
 10
-36.304
 20
-3.9998
 30
0.0
 10
-36.2646
 20
-4.0381
 30
0.0
 10
-36.2335
 20
-4.0832
 30
0.0
 10
-36.2109
 20
-4.1344
 30
0.0
 10
-36.2109
 20
-4.1344
 30
0.0
 10
-36.1882
 20
-4.1856
 30
0.0
 10
-36.1765
 20
-4.242
 30
0.0
 10
-36.176
 20
-4.303
 30
0.0
 10
-36.176
 20
-4.303
 30
0.0
 10
-36.1765
 20
-4.3822
 30
0.0
 10
-36.1998
 20
-4.4505
 30
0.0
 10
-36.2452
 20
-4.5084
 30
0.0
 10
-36.2452
 20
-4.5084
 30
0.0
 10
-36.2904
 20
-4.5664
 30
0.0
 10
-36.3524
 20
-4.6113
 30
0.0
 10
-36.4326
 20
-4.6429
 30
0.0
 10
-36.4326
 20
-4.6429
 30
0.0
 10
-36.5129
 20
-4.6744
 30
0.0
 10
-36.606
 20
-4.6905
 30
0.0
 10
-36.7115
 20
-4.6911
 30
0.0
 10
-36.7115
 20
-4.6911
 30
0.0
 10
-36.8331
 20
-4.6905
 30
0.0
 10
-36.9398
 20
-4.6734
 30
0.0
 10
-37.0316
 20
-4.6399
 30
0.0
 10
-37.0316
 20
-4.6399
 30
0.0
 10
-37.124
 20
-4.6061
 30
0.0
 10
-37.1964
 20
-4.5601
 30
0.0
 10
-37.2488
 20
-4.5011
 30
0.0
 10
-37.2488
 20
-4.5011
 30
0.0
 10
-37.3012
 20
-4.4422
 30
0.0
 10
-37.3277
 20
-4.3739
 30
0.0
 10
-37.3284
 20
-4.2968
 30
0.0
  0
SPLINE
  5
5E
330
1F
100
AcDbEntity
  8
Ilustrace
 62
   250
370
    15
100
AcDbSpline
210
0.0
220
0.0
230
1.0
 70
    24
 71
     3
 72
     8
 73
     4
 74
     0
 42
0.0000000001
 43
0.0000000001
 40
0.0
 40
0.0
 40
0.0
 40
0.0
 40
1.0
 40
1.0
 40
1.0
 40
1.0
 10
28.3635
 20
25.3585
 30
0.0
 10
28.3635
 20
25.3585
 30
0.0
 10
-30.4653
 20
25.3585
 30
0.0
 10
-30.4653
 20
25.3585
 30
0.0
  0
SPLINE
  5
5F
330
1F
100
AcDbEntity
  8
Ilustrace
 62
   250
370
    15
100
AcDbSpline
210
0.0
220
0.0
230
1.0
 70
    24
 71
     3
 72
     8
 73
     4
 74
     0
 42
0.0000000001
 43
0.0000000001
 40
0.0
 40
0.0
 40
0.0
 40
0.0
 40
1.0
 40
1.0
 40
1.0
 40
1.0
 10
-34.4893
 20
22.3822
 30
0.0
 10
-34.4893
 20
22.3822
 30
0.0
 10
-34.4893
 20
-36.4466
 30
0.0
 10
-34.4893
 20
-36.4466
 30
0.0
  0
SPLINE
  5
60
330
1F
100
AcDbEntity
  8
Ilustrace
 62
   250
370
     9
100
AcDbSpline
210
0.0
220
0.0
230
1.0
 70
    11
 71
     3
 72
    32
 73
    28
 74
     0
 42
0.0000000001
 43
0.0000000001
 40
0.0
 40
0.0
 40
0.0
 40
0.0
 40
0.125
 40
0.125
 40
0.125
 40
0.125
 40
0.25
 40
0.25
 40
0.25
 40
0.25
 40
0.375
 40
0.375
 40
0.375
 40
0.375
 40
0.5
 40
0.5
 40
0.5
 40
0.5
 40
0.625
 40
0.625
 40
0.625
 40
0.625
 40
0.75
 40
0.75
 40
0.75
 40
0.75
 40
1.0
 40
1.0
 40
1.0
 40
1.0
 10
27.4153
 20
24.9002
 30
0.0
 10
27.4153
 20
24.9002
 30
0.0
 10
27.4153
 20
24.9002
 30
0.0
 10
27.4153
 20
24.9002
 30
0.0
 10
27.4153
 20
24.9002
 30
0.0
 10
27.4153
 20
24.9002
 30
0.0
 10
27.4153
 20
24.9002
 30
0.0
 10
27.4153
 20
24.9002
 30
0.0
 10
27.4153
 20
24.9002
 30
0.0
 10
27.4153
 20
24.9002
 30
0.0
 10
28.6881
 20
25.3436
 30
0.0
 10
28.6881
 20
25.3436
 30
0.0
 10
28.6881
 20
25.3436
 30
0.0
 10
28.6881
 20
25.3436
 30
0.0
 10
27.4153
 20
25.787
 30
0.0
 10
27.4153
 20
25.787
 30
0.0
 10
27.4153
 20
25.787
 30
0.0
 10
27.4153
 20
25.787
 30
0.0
 10
27.4153
 20
25.787
 30
0.0
 10
27.4153
 20
25.787
 30
0.0
 10
27.4153
 20
25.787
 30
0.0
 10
27.4153
 20
25.787
 30
0.0
 10
27.4153
 20
25.787
 30
0.0
 10
27.4153
 20
25.787
 30
0.0
 10
27.4153
 20
25.787
 30
0.0
 10
27.4153
 20
25.787
 30
0.0
 10
27.4153
 20
24.9002
 30
0.0
 10
27.4153
 20
24.9002
 30
0.0
  0
SPLINE
  5
61
330
1F
100
AcDbEntity
  8
Ilustrace
 62
   250
370
     9
100
AcDbSpline
210
0.0
220
0.0
230
1.0
 70
    11
 71
     3
 72
    32
 73
    28
 74
     0
 42
0.0000000001
 43
0.0000000001
 40
0.0
 40
0.0
 40
0.0
 40
0.0
 40
0.125
 40
0.125
 40
0.125
 40
0.125
 40
0.25
 40
0.25
 40
0.25
 40
0.25
 40
0.375
 40
0.375
 40
0.375
 40
0.375
 40
0.5
 40
0.5
 40
0.5
 40
0.5
 40
0.625
 40
0.625
 40
0.625
 40
0.625
 40
0.75
 40
0.75
 40
0.75
 40
0.75
 40
1.0
 40
1.0
 40
1.0
 40
1.0
 10
-34.031
 20
21.434
 30
0.0
 10
-34.031
 20
21.434
 30
0.0
 10
-34.031
 20
21.434
 30
0.0
 10
-34.031
 20
21.434
 30
0.0
 10
-34.031
 20
21.434
 30
0.0
 10
-34.031
 20
21.434
 30
0.0
 10
-34.031
 20
21.434
 30
0.0
 10
-34.031
 20
21.434
 30
0.0
 10
-34.031
 20
21.434
 30
0.0
 10
-34.031
 20
21.434
 30
0.0
 10
-34.4744
 20
22.7068
 30
0.0
 10
-34.4744
 20
22.7068
 30
0.0
 10
-34.4744
 20
22.7068
 30
0.0
 10
-34.4744
 20
22.7068
 30
0.0
 10
-34.9178
 20
21.434
 30
0.0
 10
-34.9178
 20
21.434
 30
0.0
 10
-34.9178
 20
21.434
 30
0.0
 10
-34.9178
 20
21.434
 30
0.0
 10
-34.9178
 20
21.434
 30
0.0
 10
-34.9178
 20
21.434
 30
0.0
 10
-34.9178
 20
21.434
 30
0.0
 10
-34.9178
 20
21.434
 30
0.0
 10
-34.9178
 20
21.434
 30
0.0
 10
-34.9178
 20
21.434
 30
0.0
 10
-34.9178
 20
21.434
 30
0.0
 10
-34.9178
 20
21.434
 30
0.0
 10
-34.031
 20
21.434
 30
0.0
 10
-34.031
 20
21.434
 30
0.0
  0
SPLINE
  5
62
330
1F
100
AcDbEntity
  8
Ilustrace
 62
   250
370
     9
100
AcDbSpline
210
0.0
220
0.0
230
1.0
 70
    11
 71
     3
 72
    32
 73
    28
 74
     0
 42
0.0000000001
 43
0.0000000001
 40
0.0
 40
0.0
 40
0.0
 40
0.0
 40
0.125
 40
0.125
 40
0.125
 40
0.125
 40
0.25
 40
0.25
 40
0.25
 40
0.25
 40
0.375
 40
0.375
 40
0.375
 40
0.375
 40
0.5
 40
0.5
 40
0.5
 40
0.5
 40
0.625
 40
0.625
 40
0.625
 40
0.625
 40
0.75
 40
0.75
 40
0.75
 40
0.75
 40
1.0
 40
1.0
 40
1.0
 40
1.0
 10
-30.2513
 20
24.8548
 30
0.0
 10
-30.2513
 20
24.8548
 30
0.0
 10
-30.2513
 20
24.8548
 30
0.0
 10
-30.2513
 20
24.8548
 30
0.0
 10
-30.2513
 20
24.8548
 30
0.0
 10
-30.2513
 20
24.8548
 30
0.0
 10
-30.2513
 20
24.8548
 30
0.0
 10
-30.2513
 20
24.8548
 30
0.0
 10
-30.2513
 20
24.8548
 30
0.0
 10
-30.2513
 20
24.8548
 30
0.0
 10
-31.5241
 20
25.2982
 30
0.0
 10
-31.5241
 20
25.2982
 30
0.0
 10
-31.5241
 20
25.2982
 30
0.0
 10
-31.5241
 20
25.2982
 30
0.0
 10
-30.2513
 20
25.7416
 30
0.0
 10
-30.2513
 20
25.7416
 30
0.0
 10
-30.2513
 20
25.7416
 30
0.0
 10
-30.2513
 20
25.7416
 30
0.0
 10
-30.2513
 20
25.7416
 30
0.0
 10
-30.2513
 20
25.7416
 30
0.0
 10
-30.2513
 20
25.7416
 30
0.0
 10
-30.2513
 20
25.7416
 30
0.0
 10
-30.2513
 20
25.7416
 30
0.0
 10
-30.2513
 20
25.7416
 30
0.0
 10
-30.2513
 20
25.7416
 30
0.0
 10
-30.2513
 20
25.7416
 30
0.0
 10
-30.2513
 20
24.8548
 30
0.0
 10
-30.2513
 20
24.8548
 30
0.0
  0
SPLINE
  5
63
330
1F
100
AcDbEntity
  8
Ilustrace
 62
   250
370
     9
100
AcDbSpline
210
0.0
220
0.0
230
1.0
 70
    11
 71
     3
 72
    32
 73
    28
 74
     0
 42
0.0000000001
 43
0.0000000001
 40
0.0
 40
0.0
 40
0.0
 40
0.0
 40
0.125
 40
0.125
 40
0.125
 40
0.125
 40
0.25
 40
0.25
 40
0.25
 40
0.25
 40
0.375
 40
0.375
 40
0.375
 40
0.375
 40
0.5
 40
0.5
 40
0.5
 40
0.5
 40
0.625
 40
0.625
 40
0.625
 40
0.625
 40
0.75
 40
0.75
 40
0.75
 40
0.75
 40
1.0
 40
1.0
 40
1.0
 40
1.0
 10
-33.9856
 20
-36.2326
 30
0.0
 10
-33.9856
 20
-36.2326
 30
0.0
 10
-33.9856
 20
-36.2326
 30
0.0
 10
-33.9856
 20
-36.2326
 30
0.0
 10
-33.9856
 20
-36.2326
 30
0.0
 10
-33.9856
 20
-36.2326
 30
0.0
 10
-33.9856
 20
-36.2326
 30
0.0
 10
-33.9856
 20
-36.2326
 30
0.0
 10
-33.9856
 20
-36.2326
 30
0.0
 10
-33.9856
 20
-36.2326
 30
0.0
 10
-34.429
 20
-37.5054
 30
0.0
 10
-34.429
 20
-37.5054
 30
0.0
 10
-34.429
 20
-37.5054
 30
0.0
 10
-34.429
 20
-37.5054
 30
0.0
 10
-34.8724
 20
-36.2326
 30
0.0
 10
-34.8724
 20
-36.2326
 30
0.0
 10
-34.8724
 20
-36.2326
 30
0.0
 10
-34.8724
 20
-36.2326
 30
0.0
 10
-34.8724
 20
-36.2326
 30
0.0
 10
-34.8724
 20
-36.2326
 30
0.0
 10
-34.8724
 20
-36.2326
 30
0.0
 10
-34.8724
 20
-36.2326
 30
0.0
 10
-34.8724
 20
-36.2326
 30
0.0
 10
-34.8724
 20
-36.2326
 30
0.0
 10
-34.8724
 20
-36.2326
 30
0.0
 10
-34.8724
 20
-36.2326
 30
0.0
 10
-33.9856
 20
-36.2326
 30
0.0
 10
-33.9856
 20
-36.2326
 30
0.0
  0
SPLINE
  5
64
330
1F
100
AcDbEntity
  8
Ilustrace
 62
   254
100
AcDbSpline
210
0.0
220
0.0
230
1.0
 70
    11
 71
     3
 72
    84
 73
    80
 74
     0
 42
0.0000000001
 43
0.0000000001
 40
0.0
 40
0.0
 40
0.0
 40
0.0
 40
0.0476190476190476
 40
0.0476190476190476
 40
0.0476190476190476
 40
0.0476190476190476
 40
0.0952380952380952
 40
0.0952380952380952
 40
0.0952380952380952
 40
0.0952380952380952
 40
0.1428571428571428
 40
0.1428571428571428
 40
0.1428571428571428
 40
0.1428571428571428
 40
0.1904761904761905
 40
0.1904761904761905
 40
0.1904761904761905
 40
0.1904761904761905
 40
0.2380952380952381
 40
0.2380952380952381
 40
0.2380952380952381
 40
0.2380952380952381
 40
0.2857142857142857
 40
0.2857142857142857
 40
0.2857142857142857
 40
0.2857142857142857
 40
0.3333333333333333
 40
0.3333333333333333
 40
0.3333333333333333
 40
0.3333333333333333
 40
0.3809523809523809
 40
0.3809523809523809
 40
0.3809523809523809
 40
0.3809523809523809
 40
0.4285714285714285
 40
0.4285714285714285
 40
0.4285714285714285
 40
0.4285714285714285
 40
0.4761904761904762
 40
0.4761904761904762
 40
0.4761904761904762
 40
0.4761904761904762
 40
0.5238095238095238
 40
0.5238095238095238
 40
0.5238095238095238
 40
0.5238095238095238
 40
0.5714285714285714
 40
0.5714285714285714
 40
0.5714285714285714
 40
0.5714285714285714
 40
0.6190476190476191
 40
0.6190476190476191
 40
0.6190476190476191
 40
0.6190476190476191
 40
0.6666666666666666
 40
0.6666666666666666
 40
0.6666666666666666
 40
0.6666666666666666
 40
0.7142857142857143
 40
0.7142857142857143
 40
0.7142857142857143
 40
0.7142857142857143
 40
0.7619047619047619
 40
0.7619047619047619
 40
0.7619047619047619
 40
0.7619047619047619
 40
0.8095238095238095
 40
0.8095238095238095
 40
0.8095238095238095
 40
0.8095238095238095
 40
0.8571428571428571
 40
0.8571428571428571
 40
0.8571428571428571
 40
0.8571428571428571
 40
0.9047619047619048
 40
0.9047619047619048
 40
0.9047619047619048
 40
0.9047619047619048
 40
1.0
 40
1.0
 40
1.0
 40
1.0
 10
-11.4606
 20
30.5159
 30
0.0
 10
-11.4606
 20
30.5159
 30
0.0
 10
-11.4551
 20
31.5412
 30
0.0
 10
-11.4551
 20
31.5412
 30
0.0
 10
-11.4551
 20
31.5412
 30
0.0
 10
-11.4551
 20
31.5412
 30
0.0
 10
-6.6374
 20
31.4806
 30
0.0
 10
-6.6374
 20
31.4806
 30
0.0
 10
-6.6374
 20
31.4806
 30
0.0
 10
-6.6374
 20
31.4806
 30
0.0
 10
-6.6263
 20
30.5325
 30
0.0
 10
-6.6263
 20
30.5325
 30
0.0
 10
-6.6263
 20
30.5325
 30
0.0
 10
-6.6263
 20
30.5325
 30
0.0
 10
15.6046
 20
30.516
 30
0.0
 10
15.6046
 20
30.516
 30
0.0
 10
15.6046
 20
30.516
 30
0.0
 10
15.6046
 20
30.516
 30
0.0
 10
15.6046
 20
31.5193
 30
0.0
 10
15.6046
 20
31.5193
 30
0.0
 10
15.6046
 20
31.5193
 30
0.0
 10
15.6046
 20
31.5193
 30
0.0
 10
20.4884
 20
31.5303
 30
0.0
 10
20.4884
 20
31.5303
 30
0.0
 10
20.4884
 20
31.5303
 30
0.0
 10
20.4884
 20
31.5303
 30
0.0
 10
20.4774
 20
30.5381
 30
0.0
 10
20.4774
 20
30.5381
 30
0.0
 10
20.4774
 20
30.5381
 30
0.0
 10
20.4774
 20
30.5381
 30
0.0
 10
28.6684
 20
30.5601
 30
0.0
 10
28.6684
 20
30.5601
 30
0.0
 10
28.6684
 20
30.5601
 30
0.0
 10
28.6684
 20
30.5601
 30
0.0
 10
28.6904
 20
35.3668
 30
0.0
 10
28.6904
 20
35.3668
 30
0.0
 10
28.6904
 20
35.3668
 30
0.0
 10
28.6904
 20
35.3668
 30
0.0
 10
-30.5875
 20
35.3778
 30
0.0
 10
-30.5875
 20
35.3778
 30
0.0
 10
-30.5875
 20
35.3778
 30
0.0
 10
-30.5875
 20
35.3778
 30
0.0
 10
-31.0946
 20
35.2675
 30
0.0
 10
-31.0946
 20
35.2675
 30
0.0
 10
-31.0946
 20
35.2675
 30
0.0
 10
-31.0946
 20
35.2675
 30
0.0
 10
-31.2931
 20
35.025
 30
0.0
 10
-31.2931
 20
35.025
 30
0.0
 10
-31.2931
 20
35.025
 30
0.0
 10
-31.2931
 20
35.025
 30
0.0
 10
-31.4474
 20
34.7714
 30
0.0
 10
-31.4474
 20
34.7714
 30
0.0
 10
-31.4474
 20
34.7714
 30
0.0
 10
-31.4474
 20
34.7714
 30
0.0
 10
-31.5907
 20
34.3305
 30
0.0
 10
-31.5907
 20
34.3305
 30
0.0
 10
-31.5907
 20
34.3305
 30
0.0
 10
-31.5907
 20
34.3305
 30
0.0
 10
-31.5246
 20
31.4751
 30
0.0
 10
-31.5246
 20
31.4751
 30
0.0
 10
-31.5246
 20
31.4751
 30
0.0
 10
-31.5246
 20
31.4751
 30
0.0
 10
-31.3813
 20
31.0452
 30
0.0
 10
-31.3813
 20
31.0452
 30
0.0
 10
-31.3813
 20
31.0452
 30
0.0
 10
-31.3813
 20
31.0452
 30
0.0
 10
-31.1057
 20
30.6593
 30
0.0
 10
-31.1057
 20
30.6593
 30
0.0
 10
-31.1057
 20
30.6593
 30
0.0
 10
-31.1057
 20
30.6593
 30
0.0
 10
-30.7529
 20
30.5601
 30
0.0
 10
-30.7529
 20
30.5601
 30
0.0
 10
-30.7529
 20
30.5601
 30
0.0
 10
-30.7529
 20
30.5601
 30
0.0
 10
-30.2127
 20
30.505
 30
0.0
 10
-30.2127
 20
30.505
 30
0.0
 10
-30.2127
 20
30.505
 30
0.0
 10
-30.2127
 20
30.505
 30
0.0
 10
-11.4606
 20
30.5159
 30
0.0
 10
-11.4606
 20
30.5159
 30
0.0
  0
SPLINE
  5
65
330
1F
100
AcDbEntity
  8
Ilustrace
 62
   254
100
AcDbSpline
210
0.0
220
0.0
230
1.0
 70
    11
 71
     3
 72
    20
 73
    16
 74
     0
 42
0.0000000001
 43
0.0000000001
 40
0.0
 40
0.0
 40
0.0
 40
0.0
 40
0.2
 40
0.2
 40
0.2
 40
0.2
 40
0.4
 40
0.4
 40
0.4
 40
0.4
 40
0.6
 40
0.6
 40
0.6
 40
0.6
 40
1.0
 40
1.0
 40
1.0
 40
1.0
 10
22.6145
 20
33.2728
 30
0.0
 10
22.8858
 20
33.2728
 30
0.0
 10
23.1052
 20
33.042
 30
0.0
 10
23.1052
 20
32.7574
 30
0.0
 10
23.1052
 20
32.7574
 30
0.0
 10
23.1052
 20
32.4728
 30
0.0
 10
22.8858
 20
32.242
 30
0.0
 10
22.6145
 20
32.242
 30
0.0
 10
22.6145
 20
32.242
 30
0.0
 10
22.3434
 20
32.242
 30
0.0
 10
22.124
 20
32.4728
 30
0.0
 10
22.124
 20
32.7574
 30
0.0
 10
22.124
 20
32.7574
 30
0.0
 10
22.124
 20
33.042
 30
0.0
 10
22.3434
 20
33.2728
 30
0.0
 10
22.6145
 20
33.2728
 30
0.0
  0
SPLINE
  5
66
330
1F
100
AcDbEntity
  8
Ilustrace
 62
   254
100
AcDbSpline
210
0.0
220
0.0
230
1.0
 70
    11
 71
     3
 72
    20
 73
    16
 74
     0
 42
0.0000000001
 43
0.0000000001
 40
0.0
 40
0.0
 40
0.0
 40
0.0
 40
0.2
 40
0.2
 40
0.2
 40
0.2
 40
0.4
 40
0.4
 40
0.4
 40
0.4
 40
0.6
 40
0.6
 40
0.6
 40
0.6
 40
1.0
 40
1.0
 40
1.0
 40
1.0
 10
-3.7335
 20
33.2508
 30
0.0
 10
-3.4622
 20
33.2508
 30
0.0
 10
-3.2428
 20
33.02
 30
0.0
 10
-3.2428
 20
32.7354
 30
0.0
 10
-3.2428
 20
32.7354
 30
0.0
 10
-3.2428
 20
32.4508
 30
0.0
 10
-3.4622
 20
32.22
 30
0.0
 10
-3.7335
 20
32.22
 30
0.0
 10
-3.7335
 20
32.22
 30
0.0
 10
-4.0046
 20
32.22
 30
0.0
 10
-4.224
 20
32.4508
 30
0.0
 10
-4.224
 20
32.7354
 30
0.0
 10
-4.224
 20
32.7354
 30
0.0
 10
-4.224
 20
33.02
 30
0.0
 10
-4.0046
 20
33.2508
 30
0.0
 10
-3.7335
 20
33.2508
 30
0.0
  0
SPLINE
  5
67
330
1F
100
AcDbEntity
  8
Ilustrace
 62
   254
100
AcDbSpline
210
0.0
220
0.0
230
1.0
 70
    11
 71
     3
 72
    20
 73
    16
 74
     0
 42
0.0000000001
 43
0.0000000001
 40
0.0
 40
0.0
 40
0.0
 40
0.0
 40
0.2
 40
0.2
 40
0.2
 40
0.2
 40
0.4
 40
0.4
 40
0.4
 40
0.4
 40
0.6
 40
0.6
 40
0.6
 40
0.6
 40
1.0
 40
1.0
 40
1.0
 40
1.0
 10
-25.5396
 20
33.2383
 30
0.0
 10
-25.2683
 20
33.2383
 30
0.0
 10
-25.0489
 20
33.0075
 30
0.0
 10
-25.0489
 20
32.7229
 30
0.0
 10
-25.0489
 20
32.7229
 30
0.0
 10
-25.0489
 20
32.4383
 30
0.0
 10
-25.2683
 20
32.2075
 30
0.0
 10
-25.5396
 20
32.2075
 30
0.0
 10
-25.5396
 20
32.2075
 30
0.0
 10
-25.8107
 20
32.2075
 30
0.0
 10
-26.0301
 20
32.4383
 30
0.0
 10
-26.0301
 20
32.7229
 30
0.0
 10
-26.0301
 20
32.7229
 30
0.0
 10
-26.0301
 20
33.0075
 30
0.0
 10
-25.8107
 20
33.2383
 30
0.0
 10
-25.5396
 20
33.2383
 30
0.0
  0
SPLINE
  5
68
330
1F
100
AcDbEntity
  8
Ilustrace
 62
   250
370
    30
100
AcDbSpline
210
0.0
220
0.0
230
1.0
 70
    24
 71
     3
 72
     8
 73
     4
 74
     0
 42
0.0000000001
 43
0.0000000001
 40
0.0
 40
0.0
 40
0.0
 40
0.0
 40
1.0
 40
1.0
 40
1.0
 40
1.0
 10
20.4725
 20
30.5375
 30
0.0
 10
20.4725
 20
30.5375
 30
0.0
 10
28.7005
 20
30.5375
 30
0.0
 10
28.7005
 20
30.5375
 30
0.0
  0
SPLINE
  5
69
330
1F
100
AcDbEntity
  8
Ilustrace
 62
   250
370
    30
100
AcDbSpline
210
0.0
220
0.0
230
1.0
 70
    24
 71
     3
 72
     8
 73
     4
 74
     0
 42
0.0000000001
 43
0.0000000001
 40
0.0
 40
0.0
 40
0.0
 40
0.0
 40
1.0
 40
1.0
 40
1.0
 40
1.0
 10
28.7005
 20
31.5296
 30
0.0
 10
28.7005
 20
31.5296
 30
0.0
 10
28.7005
 20
30.5375
 30
0.0
 10
28.7005
 20
30.5375
 30
0.0
  0
SPLINE
  5
6A
330
1F
100
AcDbEntity
  8
Ilustrace
 62
   250
370
    30
100
AcDbSpline
210
0.0
220
0.0
230
1.0
 70
    24
 71
     3
 72
     8
 73
     4
 74
     0
 42
0.0000000001
 43
0.0000000001
 40
0.0
 40
0.0
 40
0.0
 40
0.0
 40
1.0
 40
1.0
 40
1.0
 40
1.0
 10
28.7005
 20
30.5713
 30
0.0
 10
28.7005
 20
30.5713
 30
0.0
 10
28.7005
 20
35.3775
 30
0.0
 10
28.7005
 20
35.3775
 30
0.0
  0
SPLINE
  5
6B
330
1F
100
AcDbEntity
  8
Ilustrace
 62
   250
370
    30
100
AcDbSpline
210
0.0
220
0.0
230
1.0
 70
    24
 71
     3
 72
     8
 73
     4
 74
     0
 42
0.0000000001
 43
0.0000000001
 40
0.0
 40
0.0
 40
0.0
 40
0.0
 40
1.0
 40
1.0
 40
1.0
 40
1.0
 10
28.7005
 20
34.3852
 30
0.0
 10
28.7005
 20
34.3852
 30
0.0
 10
28.7005
 20
34.8813
 30
0.0
 10
28.7005
 20
34.8813
 30
0.0
  0
SPLINE
  5
6C
330
1F
100
AcDbEntity
  8
Ilustrace
 62
   250
370
    30
100
AcDbSpline
210
0.0
220
0.0
230
1.0
 70
    24
 71
     3
 72
     8
 73
     4
 74
     0
 42
0.0000000001
 43
0.0000000001
 40
0.0
 40
0.0
 40
0.0
 40
0.0
 40
1.0
 40
1.0
 40
1.0
 40
1.0
 10
-14.3996
 20
35.3775
 30
0.0
 10
-14.3996
 20
35.3775
 30
0.0
 10
28.7005
 20
35.3775
 30
0.0
 10
28.7005
 20
35.3775
 30
0.0
  0
SPLINE
  5
6D
330
1F
100
AcDbEntity
  8
Ilustrace
 62
   250
370
    30
100
AcDbSpline
210
0.0
220
0.0
230
1.0
 70
    24
 71
     3
 72
     8
 73
     4
 74
     0
 42
0.0000000001
 43
0.0000000001
 40
0.0
 40
0.0
 40
0.0
 40
0.0
 40
1.0
 40
1.0
 40
1.0
 40
1.0
 10
-13.633
 20
30.9005
 30
0.0
 10
-13.633
 20
30.9005
 30
0.0
 10
-11.5712
 20
30.9005
 30
0.0
 10
-11.5712
 20
30.9005
 30
0.0
  0
SPLINE
  5
6E
330
1F
100
AcDbEntity
  8
Ilustrace
 62
   250
370
    30
100
AcDbSpline
210
0.0
220
0.0
230
1.0
 70
    24
 71
     3
 72
     8
 73
     4
 74
     0
 42
0.0000000001
 43
0.0000000001
 40
0.0
 40
0.0
 40
0.0
 40
0.0
 40
1.0
 40
1.0
 40
1.0
 40
1.0
 10
-11.4715
 20
31.5296
 30
0.0
 10
-11.4715
 20
31.5296
 30
0.0
 10
-6.6315
 20
31.5296
 30
0.0
 10
-6.6315
 20
31.5296
 30
0.0
  0
SPLINE
  5
6F
330
1F
100
AcDbEntity
  8
Ilustrace
 62
   250
370
    30
100
AcDbSpline
210
0.0
220
0.0
230
1.0
 70
    24
 71
     3
 72
     8
 73
     4
 74
     0
 42
0.0000000001
 43
0.0000000001
 40
0.0
 40
0.0
 40
0.0
 40
0.0
 40
1.0
 40
1.0
 40
1.0
 40
1.0
 10
-6.6315
 20
30.5375
 30
0.0
 10
-6.6315
 20
30.5375
 30
0.0
 10
15.6326
 20
30.5375
 30
0.0
 10
15.6326
 20
30.5375
 30
0.0
  0
SPLINE
  5
70
330
1F
100
AcDbEntity
  8
Ilustrace
 62
   250
370
    30
100
AcDbSpline
210
0.0
220
0.0
230
1.0
 70
    24
 71
     3
 72
     8
 73
     4
 74
     0
 42
0.0000000001
 43
0.0000000001
 40
0.0
 40
0.0
 40
0.0
 40
0.0
 40
1.0
 40
1.0
 40
1.0
 40
1.0
 10
15.6326
 20
30.7099
 30
0.0
 10
15.6326
 20
30.7099
 30
0.0
 10
15.6326
 20
30.5375
 30
0.0
 10
15.6326
 20
30.5375
 30
0.0
  0
SPLINE
  5
71
330
1F
100
AcDbEntity
  8
Ilustrace
 62
   250
370
    30
100
AcDbSpline
210
0.0
220
0.0
230
1.0
 70
    24
 71
     3
 72
     8
 73
     4
 74
     0
 42
0.0000000001
 43
0.0000000001
 40
0.0
 40
0.0
 40
0.0
 40
0.0
 40
1.0
 40
1.0
 40
1.0
 40
1.0
 10
15.6326
 20
30.5402
 30
0.0
 10
15.6326
 20
30.5402
 30
0.0
 10
15.6326
 20
31.5296
 30
0.0
 10
15.6326
 20
31.5296
 30
0.0
  0
SPLINE
  5
72
330
1F
100
AcDbEntity
  8
Ilustrace
 62
   250
370
    30
100
AcDbSpline
210
0.0
220
0.0
230
1.0
 70
    24
 71
     3
 72
     8
 73
     4
 74
     0
 42
0.0000000001
 43
0.0000000001
 40
0.0
 40
0.0
 40
0.0
 40
0.0
 40
1.0
 40
1.0
 40
1.0
 40
1.0
 10
20.4725
 20
30.5375
 30
0.0
 10
20.4725
 20
30.5375
 30
0.0
 10
20.4725
 20
31.2729
 30
0.0
 10
20.4725
 20
31.2729
 30
0.0
  0
SPLINE
  5
73
330
1F
100
AcDbEntity
  8
Ilustrace
 62
   250
370
    30
100
AcDbSpline
210
0.0
220
0.0
230
1.0
 70
    24
 71
     3
 72
     8
 73
     4
 74
     0
 42
0.0000000001
 43
0.0000000001
 40
0.0
 40
0.0
 40
0.0
 40
0.0
 40
1.0
 40
1.0
 40
1.0
 40
1.0
 10
20.4725
 20
30.5624
 30
0.0
 10
20.4725
 20
30.5624
 30
0.0
 10
20.4725
 20
31.5296
 30
0.0
 10
20.4725
 20
31.5296
 30
0.0
  0
SPLINE
  5
74
330
1F
100
AcDbEntity
  8
Ilustrace
 62
   250
370
    30
100
AcDbSpline
210
0.0
220
0.0
230
1.0
 70
    24
 71
     3
 72
     8
 73
     4
 74
     0
 42
0.0000000001
 43
0.0000000001
 40
0.0
 40
0.0
 40
0.0
 40
0.0
 40
1.0
 40
1.0
 40
1.0
 40
1.0
 10
-6.6315
 20
30.5485
 30
0.0
 10
-6.6315
 20
30.5485
 30
0.0
 10
-6.6315
 20
31.0335
 30
0.0
 10
-6.6315
 20
31.0335
 30
0.0
  0
SPLINE
  5
75
330
1F
100
AcDbEntity
  8
Ilustrace
 62
   250
370
    30
100
AcDbSpline
210
0.0
220
0.0
230
1.0
 70
    24
 71
     3
 72
     8
 73
     4
 74
     0
 42
0.0000000001
 43
0.0000000001
 40
0.0
 40
0.0
 40
0.0
 40
0.0
 40
1.0
 40
1.0
 40
1.0
 40
1.0
 10
-6.6315
 20
30.5375
 30
0.0
 10
-6.6315
 20
30.5375
 30
0.0
 10
-6.6315
 20
31.5296
 30
0.0
 10
-6.6315
 20
31.5296
 30
0.0
  0
SPLINE
  5
76
330
1F
100
AcDbEntity
  8
Ilustrace
 62
   250
370
    30
100
AcDbSpline
210
0.0
220
0.0
230
1.0
 70
    24
 71
     3
 72
     8
 73
     4
 74
     0
 42
0.0000000001
 43
0.0000000001
 40
0.0
 40
0.0
 40
0.0
 40
0.0
 40
1.0
 40
1.0
 40
1.0
 40
1.0
 10
-11.5712
 20
30.5375
 30
0.0
 10
-11.5712
 20
30.5375
 30
0.0
 10
-14.3996
 20
30.5375
 30
0.0
 10
-14.3996
 20
30.5375
 30
0.0
  0
SPLINE
  5
77
330
1F
100
AcDbEntity
  8
Ilustrace
 62
   250
370
    30
100
AcDbSpline
210
0.0
220
0.0
230
1.0
 70
    24
 71
     3
 72
     8
 73
     4
 74
     0
 42
0.0000000001
 43
0.0000000001
 40
0.0
 40
0.0
 40
0.0
 40
0.0
 40
1.0
 40
1.0
 40
1.0
 40
1.0
 10
-11.4715
 20
30.9005
 30
0.0
 10
-11.4715
 20
30.9005
 30
0.0
 10
-13.633
 20
30.9005
 30
0.0
 10
-13.633
 20
30.9005
 30
0.0
  0
SPLINE
  5
78
330
1F
100
AcDbEntity
  8
Ilustrace
 62
   250
370
    30
100
AcDbSpline
210
0.0
220
0.0
230
1.0
 70
    24
 71
     3
 72
     8
 73
     4
 74
     0
 42
0.0000000001
 43
0.0000000001
 40
0.0
 40
0.0
 40
0.0
 40
0.0
 40
1.0
 40
1.0
 40
1.0
 40
1.0
 10
-28.538
 20
30.5375
 30
0.0
 10
-28.538
 20
30.5375
 30
0.0
 10
-11.4715
 20
30.5375
 30
0.0
 10
-11.4715
 20
30.5375
 30
0.0
  0
SPLINE
  5
79
330
1F
100
AcDbEntity
  8
Ilustrace
 62
   250
370
    30
100
AcDbSpline
210
0.0
220
0.0
230
1.0
 70
    24
 71
     3
 72
     8
 73
     4
 74
     0
 42
0.0000000001
 43
0.0000000001
 40
0.0
 40
0.0
 40
0.0
 40
0.0
 40
1.0
 40
1.0
 40
1.0
 40
1.0
 10
-11.4715
 20
30.9005
 30
0.0
 10
-11.4715
 20
30.9005
 30
0.0
 10
-11.4715
 20
30.9197
 30
0.0
 10
-11.4715
 20
30.9197
 30
0.0
  0
SPLINE
  5
7A
330
1F
100
AcDbEntity
  8
Ilustrace
 62
   250
370
    30
100
AcDbSpline
210
0.0
220
0.0
230
1.0
 70
    24
 71
     3
 72
     8
 73
     4
 74
     0
 42
0.0000000001
 43
0.0000000001
 40
0.0
 40
0.0
 40
0.0
 40
0.0
 40
1.0
 40
1.0
 40
1.0
 40
1.0
 10
-11.4715
 20
30.9005
 30
0.0
 10
-11.4715
 20
30.9005
 30
0.0
 10
-11.4715
 20
30.9345
 30
0.0
 10
-11.4715
 20
30.9345
 30
0.0
  0
SPLINE
  5
7B
330
1F
100
AcDbEntity
  8
Ilustrace
 62
   250
370
    30
100
AcDbSpline
210
0.0
220
0.0
230
1.0
 70
    24
 71
     3
 72
     8
 73
     4
 74
     0
 42
0.0000000001
 43
0.0000000001
 40
0.0
 40
0.0
 40
0.0
 40
0.0
 40
1.0
 40
1.0
 40
1.0
 40
1.0
 10
-11.4715
 20
30.9005
 30
0.0
 10
-11.4715
 20
30.9005
 30
0.0
 10
-11.4715
 20
31.5296
 30
0.0
 10
-11.4715
 20
31.5296
 30
0.0
  0
SPLINE
  5
7C
330
1F
100
AcDbEntity
  8
Ilustrace
 62
   250
370
    30
100
AcDbSpline
210
0.0
220
0.0
230
1.0
 70
    24
 71
     3
 72
     8
 73
     4
 74
     0
 42
0.0000000001
 43
0.0000000001
 40
0.0
 40
0.0
 40
0.0
 40
0.0
 40
1.0
 40
1.0
 40
1.0
 40
1.0
 10
-11.4715
 20
30.9762
 30
0.0
 10
-11.4715
 20
30.9762
 30
0.0
 10
-11.4715
 20
30.5375
 30
0.0
 10
-11.4715
 20
30.5375
 30
0.0
  0
SPLINE
  5
7D
330
1F
100
AcDbEntity
  8
Ilustrace
 62
   250
370
    30
100
AcDbSpline
210
0.0
220
0.0
230
1.0
 70
    24
 71
     3
 72
     8
 73
     4
 74
     0
 42
0.0000000001
 43
0.0000000001
 40
0.0
 40
0.0
 40
0.0
 40
0.0
 40
1.0
 40
1.0
 40
1.0
 40
1.0
 10
-11.4715
 20
30.9005
 30
0.0
 10
-11.4715
 20
30.9005
 30
0.0
 10
-11.6881
 20
30.9005
 30
0.0
 10
-11.6881
 20
30.9005
 30
0.0
  0
SPLINE
  5
7E
330
1F
100
AcDbEntity
  8
Ilustrace
 62
   250
370
    30
100
AcDbSpline
210
0.0
220
0.0
230
1.0
 70
    24
 71
     3
 72
     8
 73
     4
 74
     0
 42
0.0000000001
 43
0.0000000001
 40
0.0
 40
0.0
 40
0.0
 40
0.0
 40
1.0
 40
1.0
 40
1.0
 40
1.0
 10
-11.6881
 20
30.5375
 30
0.0
 10
-11.6881
 20
30.5375
 30
0.0
 10
-11.4715
 20
30.5375
 30
0.0
 10
-11.4715
 20
30.5375
 30
0.0
  0
SPLINE
  5
7F
330
1F
100
AcDbEntity
  8
Ilustrace
 62
   250
370
    30
100
AcDbSpline
210
0.0
220
0.0
230
1.0
 70
    24
 71
     3
 72
     8
 73
     4
 74
     0
 42
0.0000000001
 43
0.0000000001
 40
0.0
 40
0.0
 40
0.0
 40
0.0
 40
1.0
 40
1.0
 40
1.0
 40
1.0
 10
-28.1694
 20
30.5375
 30
0.0
 10
-28.1694
 20
30.5375
 30
0.0
 10
-28.1694
 20
30.9005
 30
0.0
 10
-28.1694
 20
30.9005
 30
0.0
  0
SPLINE
  5
80
330
1F
100
AcDbEntity
  8
Ilustrace
 62
   250
370
    30
100
AcDbSpline
210
0.0
220
0.0
230
1.0
 70
    24
 71
     3
 72
     8
 73
     4
 74
     0
 42
0.0000000001
 43
0.0000000001
 40
0.0
 40
0.0
 40
0.0
 40
0.0
 40
1.0
 40
1.0
 40
1.0
 40
1.0
 10
-16.7954
 20
30.5375
 30
0.0
 10
-16.7954
 20
30.5375
 30
0.0
 10
-16.7954
 20
30.9005
 30
0.0
 10
-16.7954
 20
30.9005
 30
0.0
  0
SPLINE
  5
81
330
1F
100
AcDbEntity
  8
Ilustrace
 62
   250
370
    30
100
AcDbSpline
210
0.0
220
0.0
230
1.0
 70
    24
 71
     3
 72
     8
 73
     4
 74
     0
 42
0.0000000001
 43
0.0000000001
 40
0.0
 40
0.0
 40
0.0
 40
0.0
 40
1.0
 40
1.0
 40
1.0
 40
1.0
 10
-27.6288
 20
30.9005
 30
0.0
 10
-27.6288
 20
30.9005
 30
0.0
 10
-27.6288
 20
30.5375
 30
0.0
 10
-27.6288
 20
30.5375
 30
0.0
  0
SPLINE
  5
82
330
1F
100
AcDbEntity
  8
Ilustrace
 62
   250
370
    30
100
AcDbSpline
210
0.0
220
0.0
230
1.0
 70
     8
 71
     3
 72
    16
 73
    12
 74
     0
 42
0.0000000001
 43
0.0000000001
 40
0.0
 40
0.0
 40
0.0
 40
0.0
 40
0.25
 40
0.25
 40
0.25
 40
0.25
 40
0.5
 40
0.5
 40
0.5
 40
0.5
 40
1.0
 40
1.0
 40
1.0
 40
1.0
 10
-31.555
 20
31.4637
 30
0.0
 10
-31.555
 20
31.4637
 30
0.0
 10
-31.5575
 20
31.5296
 30
0.0
 10
-31.5575
 20
31.5296
 30
0.0
 10
-31.5575
 20
31.5296
 30
0.0
 10
-31.5575
 20
31.5296
 30
0.0
 10
-31.5575
 20
32.0137
 30
0.0
 10
-31.5575
 20
32.0137
 30
0.0
 10
-31.5575
 20
32.0137
 30
0.0
 10
-31.5575
 20
32.0137
 30
0.0
 10
-31.5575
 20
33.9013
 30
0.0
 10
-31.5575
 20
33.9013
 30
0.0
  0
SPLINE
  5
83
330
1F
100
AcDbEntity
  8
Ilustrace
 62
   250
370
    30
100
AcDbSpline
210
0.0
220
0.0
230
1.0
 70
     8
 71
     3
 72
    16
 73
    12
 74
     0
 42
0.0000000001
 43
0.0000000001
 40
0.0
 40
0.0
 40
0.0
 40
0.0
 40
0.25
 40
0.25
 40
0.25
 40
0.25
 40
0.5
 40
0.5
 40
0.5
 40
0.5
 40
1.0
 40
1.0
 40
1.0
 40
1.0
 10
-31.5575
 20
33.9013
 30
0.0
 10
-31.5575
 20
34.0754
 30
0.0
 10
-31.5785
 20
34.4374
 30
0.0
 10
-31.5236
 20
34.6421
 30
0.0
 10
-31.5236
 20
34.6421
 30
0.0
 10
-31.4324
 20
34.9826
 30
0.0
 10
-31.1626
 20
35.2524
 30
0.0
 10
-30.8221
 20
35.3437
 30
0.0
 10
-30.8221
 20
35.3437
 30
0.0
 10
-30.6173
 20
35.3985
 30
0.0
 10
-30.2555
 20
35.3775
 30
0.0
 10
-30.0812
 20
35.3775
 30
0.0
  0
SPLINE
  5
84
330
1F
100
AcDbEntity
  8
Ilustrace
 62
   250
370
    30
100
AcDbSpline
210
0.0
220
0.0
230
1.0
 70
     8
 71
     3
 72
    16
 73
    12
 74
     0
 42
0.0000000001
 43
0.0000000001
 40
0.0
 40
0.0
 40
0.0
 40
0.0
 40
0.25
 40
0.25
 40
0.25
 40
0.25
 40
0.5
 40
0.5
 40
0.5
 40
0.5
 40
1.0
 40
1.0
 40
1.0
 40
1.0
 10
-30.0812
 20
35.3775
 30
0.0
 10
-30.0812
 20
35.3775
 30
0.0
 10
-14.8836
 20
35.3775
 30
0.0
 10
-14.8836
 20
35.3775
 30
0.0
 10
-14.8836
 20
35.3775
 30
0.0
 10
-14.8836
 20
35.3775
 30
0.0
 10
-14.3996
 20
35.3775
 30
0.0
 10
-14.3996
 20
35.3775
 30
0.0
 10
-14.3996
 20
35.3775
 30
0.0
 10
-14.3996
 20
35.3775
 30
0.0
 10
-14.3336
 20
35.375
 30
0.0
 10
-14.3336
 20
35.375
 30
0.0
  0
SPLINE
  5
85
330
1F
100
AcDbEntity
  8
Ilustrace
 62
   250
370
    30
100
AcDbSpline
210
0.0
220
0.0
230
1.0
 70
     8
 71
     3
 72
     8
 73
     4
 74
     0
 42
0.0000000001
 43
0.0000000001
 40
0.0
 40
0.0
 40
0.0
 40
0.0
 40
1.0
 40
1.0
 40
1.0
 40
1.0
 10
-13.5681
 20
34.9263
 30
0.0
 10
-13.2216
 20
34.8383
 30
0.0
 10
-12.8931
 20
34.6988
 30
0.0
 10
-12.5694
 20
34.5481
 30
0.0
  0
SPLINE
  5
86
330
1F
100
AcDbEntity
  8
Ilustrace
 62
   250
370
    30
100
AcDbSpline
210
0.0
220
0.0
230
1.0
 70
    24
 71
     3
 72
    12
 73
     8
 74
     0
 42
0.0000000001
 43
0.0000000001
 40
0.0
 40
0.0
 40
0.0
 40
0.0
 40
0.3333333333333333
 40
0.3333333333333333
 40
0.3333333333333333
 40
0.3333333333333333
 40
1.0
 40
1.0
 40
1.0
 40
1.0
 10
15.5211
 20
31.5296
 30
0.0
 10
15.5211
 20
31.5296
 30
0.0
 10
19.9885
 20
31.5296
 30
0.0
 10
19.9885
 20
31.5296
 30
0.0
 10
19.9885
 20
31.5296
 30
0.0
 10
19.9885
 20
31.5296
 30
0.0
 10
20.4725
 20
31.5296
 30
0.0
 10
20.4725
 20
31.5296
 30
0.0
  0
SPLINE
  5
87
330
1F
100
AcDbEntity
  8
Ilustrace
 62
   250
370
    30
100
AcDbSpline
210
0.0
220
0.0
230
1.0
 70
     8
 71
     3
 72
    32
 73
    28
 74
     0
 42
0.0000000001
 43
0.0000000001
 40
0.0
 40
0.0
 40
0.0
 40
0.0
 40
0.125
 40
0.125
 40
0.125
 40
0.125
 40
0.25
 40
0.25
 40
0.25
 40
0.25
 40
0.375
 40
0.375
 40
0.375
 40
0.375
 40
0.5
 40
0.5
 40
0.5
 40
0.5
 40
0.625
 40
0.625
 40
0.625
 40
0.625
 40
0.75
 40
0.75
 40
0.75
 40
0.75
 40
1.0
 40
1.0
 40
1.0
 40
1.0
 10
-12.5694
 20
34.5481
 30
0.0
 10
-12.5694
 20
34.5481
 30
0.0
 10
-12.2317
 20
34.3852
 30
0.0
 10
-12.2317
 20
34.3852
 30
0.0
 10
-12.2317
 20
34.3852
 30
0.0
 10
-12.2317
 20
34.3852
 30
0.0
 10
-12.164
 20
34.3461
 30
0.0
 10
-12.164
 20
34.3461
 30
0.0
 10
-12.164
 20
34.3461
 30
0.0
 10
-12.164
 20
34.3461
 30
0.0
 10
-11.8218
 20
34.004
 30
0.0
 10
-11.8218
 20
34.004
 30
0.0
 10
-11.8218
 20
34.004
 30
0.0
 10
-11.8218
 20
34.004
 30
0.0
 10
-9.6897
 20
31.8719
 30
0.0
 10
-9.6897
 20
31.8719
 30
0.0
 10
-9.6897
 20
31.8719
 30
0.0
 10
-9.6897
 20
31.8719
 30
0.0
 10
-9.3475
 20
31.5296
 30
0.0
 10
-9.3475
 20
31.5296
 30
0.0
 10
-9.3475
 20
31.5296
 30
0.0
 10
-9.3475
 20
31.5296
 30
0.0
 10
-8.8635
 20
31.5296
 30
0.0
 10
-8.8635
 20
31.5296
 30
0.0
 10
-8.8635
 20
31.5296
 30
0.0
 10
-8.8635
 20
31.5296
 30
0.0
 10
-6.5055
 20
31.5296
 30
0.0
 10
-6.5055
 20
31.5296
 30
0.0
  0
SPLINE
  5
88
330
1F
100
AcDbEntity
  8
Ilustrace
 62
   250
370
    30
100
AcDbSpline
210
0.0
220
0.0
230
1.0
 70
    24
 71
     3
 72
     8
 73
     4
 74
     0
 42
0.0000000001
 43
0.0000000001
 40
0.0
 40
0.0
 40
0.0
 40
0.0
 40
1.0
 40
1.0
 40
1.0
 40
1.0
 10
-13.7022
 20
30.8249
 30
0.0
 10
-13.7022
 20
30.8249
 30
0.0
 10
-13.5405
 20
31.0335
 30
0.0
 10
-13.5405
 20
31.0335
 30
0.0
  0
SPLINE
  5
89
330
1F
100
AcDbEntity
  8
Ilustrace
 62
   250
370
    30
100
AcDbSpline
210
0.0
220
0.0
230
1.0
 70
     8
 71
     3
 72
     8
 73
     4
 74
     0
 42
0.0000000001
 43
0.0000000001
 40
0.0
 40
0.0
 40
0.0
 40
0.0
 40
1.0
 40
1.0
 40
1.0
 40
1.0
 10
-13.5405
 20
31.0335
 30
0.0
 10
-13.3525
 20
31.2984
 30
0.0
 10
-13.4075
 20
31.7297
 30
0.0
 10
-13.4075
 20
32.0137
 30
0.0
  0
SPLINE
  5
8A
330
1F
100
AcDbEntity
  8
Ilustrace
 62
   250
370
    30
100
AcDbSpline
210
0.0
220
0.0
230
1.0
 70
    24
 71
     3
 72
     8
 73
     4
 74
     0
 42
0.0000000001
 43
0.0000000001
 40
0.0
 40
0.0
 40
0.0
 40
0.0
 40
1.0
 40
1.0
 40
1.0
 40
1.0
 10
-13.4075
 20
32.0137
 30
0.0
 10
-13.4075
 20
32.0137
 30
0.0
 10
-13.4075
 20
33.9013
 30
0.0
 10
-13.4075
 20
33.9013
 30
0.0
  0
SPLINE
  5
8B
330
1F
100
AcDbEntity
  8
Ilustrace
 62
   250
370
    30
100
AcDbSpline
210
0.0
220
0.0
230
1.0
 70
     8
 71
     3
 72
     8
 73
     4
 74
     0
 42
0.0000000001
 43
0.0000000001
 40
0.0
 40
0.0
 40
0.0
 40
0.0
 40
1.0
 40
1.0
 40
1.0
 40
1.0
 10
-13.4075
 20
33.9013
 30
0.0
 10
-13.4075
 20
34.2618
 30
0.0
 10
-13.3722
 20
34.5633
 30
0.0
 10
-13.5405
 20
34.8813
 30
0.0
  0
SPLINE
  5
8C
330
1F
100
AcDbEntity
  8
Ilustrace
 62
   250
370
    30
100
AcDbSpline
210
0.0
220
0.0
230
1.0
 70
     8
 71
     3
 72
    12
 73
     8
 74
     0
 42
0.0000000001
 43
0.0000000001
 40
0.0
 40
0.0
 40
0.0
 40
0.0
 40
0.3333333333333333
 40
0.3333333333333333
 40
0.3333333333333333
 40
0.3333333333333333
 40
1.0
 40
1.0
 40
1.0
 40
1.0
 10
-30.5653
 20
30.9005
 30
0.0
 10
-30.7083
 20
30.9193
 30
0.0
 10
-30.7517
 20
30.9107
 30
0.0
 10
-30.8798
 20
30.9848
 30
0.0
 10
-30.8798
 20
30.9848
 30
0.0
 10
-31.2604
 20
31.2044
 30
0.0
 10
-31.1944
 20
31.6393
 30
0.0
 10
-31.1944
 20
32.0137
 30
0.0
  0
SPLINE
  5
8D
330
1F
100
AcDbEntity
  8
Ilustrace
 62
   250
370
    30
100
AcDbSpline
210
0.0
220
0.0
230
1.0
 70
    24
 71
     3
 72
     8
 73
     4
 74
     0
 42
0.0000000001
 43
0.0000000001
 40
0.0
 40
0.0
 40
0.0
 40
0.0
 40
1.0
 40
1.0
 40
1.0
 40
1.0
 10
-31.1944
 20
32.0137
 30
0.0
 10
-31.1944
 20
32.0137
 30
0.0
 10
-31.1944
 20
33.9013
 30
0.0
 10
-31.1944
 20
33.9013
 30
0.0
  0
SPLINE
  5
8E
330
1F
100
AcDbEntity
  8
Ilustrace
 62
   250
370
    30
100
AcDbSpline
210
0.0
220
0.0
230
1.0
 70
     8
 71
     3
 72
    16
 73
    12
 74
     0
 42
0.0000000001
 43
0.0000000001
 40
0.0
 40
0.0
 40
0.0
 40
0.0
 40
0.25
 40
0.25
 40
0.25
 40
0.25
 40
0.5
 40
0.5
 40
0.5
 40
0.5
 40
1.0
 40
1.0
 40
1.0
 40
1.0
 10
-31.1944
 20
33.9013
 30
0.0
 10
-31.1944
 20
34.2512
 30
0.0
 10
-31.2614
 20
34.6408
 30
0.0
 10
-30.9518
 20
34.8819
 30
0.0
 10
-30.9518
 20
34.8819
 30
0.0
 10
-30.897
 20
34.9245
 30
0.0
 10
-30.8353
 20
34.9579
 30
0.0
 10
-30.7696
 20
34.9804
 30
0.0
 10
-30.7696
 20
34.9804
 30
0.0
 10
-30.5629
 20
35.0513
 30
0.0
 10
-30.2641
 20
35.0145
 30
0.0
 10
-30.0812
 20
35.0145
 30
0.0
  0
SPLINE
  5
8F
330
1F
100
AcDbEntity
  8
Ilustrace
 62
   250
370
    30
100
AcDbSpline
210
0.0
220
0.0
230
1.0
 70
    24
 71
     3
 72
     8
 73
     4
 74
     0
 42
0.0000000001
 43
0.0000000001
 40
0.0
 40
0.0
 40
0.0
 40
0.0
 40
1.0
 40
1.0
 40
1.0
 40
1.0
 10
-30.0812
 20
35.0145
 30
0.0
 10
-30.0812
 20
35.0145
 30
0.0
 10
-14.8836
 20
35.0145
 30
0.0
 10
-14.8836
 20
35.0145
 30
0.0
  0
SPLINE
  5
90
330
1F
100
AcDbEntity
  8
Ilustrace
 62
   250
370
    30
100
AcDbSpline
210
0.0
220
0.0
230
1.0
 70
     8
 71
     3
 72
    12
 73
     8
 74
     0
 42
0.0000000001
 43
0.0000000001
 40
0.0
 40
0.0
 40
0.0
 40
0.0
 40
0.3333333333333333
 40
0.3333333333333333
 40
0.3333333333333333
 40
0.3333333333333333
 40
1.0
 40
1.0
 40
1.0
 40
1.0
 10
-14.8836
 20
35.0145
 30
0.0
 10
-14.5093
 20
35.0145
 30
0.0
 10
-14.0745
 20
35.0803
 30
0.0
 10
-13.8548
 20
34.6998
 30
0.0
 10
-13.8548
 20
34.6998
 30
0.0
 10
-13.7807
 20
34.5715
 30
0.0
 10
-13.7893
 20
34.5283
 30
0.0
 10
-13.7705
 20
34.3852
 30
0.0
  0
SPLINE
  5
91
330
1F
100
AcDbEntity
  8
Ilustrace
 62
   250
370
    30
100
AcDbSpline
210
0.0
220
0.0
230
1.0
 70
     8
 71
     3
 72
     8
 73
     4
 74
     0
 42
0.0000000001
 43
0.0000000001
 40
0.0
 40
0.0
 40
0.0
 40
0.0
 40
1.0
 40
1.0
 40
1.0
 40
1.0
 10
-14.139
 20
35.3421
 30
0.0
 10
-14.2777
 20
35.3996
 30
0.0
 10
-14.8301
 20
35.3775
 30
0.0
 10
-14.8836
 20
35.3775
 30
0.0
  0
SPLINE
  5
92
330
1F
100
AcDbEntity
  8
Ilustrace
 62
   250
370
    30
100
AcDbSpline
210
0.0
220
0.0
230
1.0
 70
    24
 71
     3
 72
    12
 73
     8
 74
     0
 42
0.0000000001
 43
0.0000000001
 40
0.0
 40
0.0
 40
0.0
 40
0.0
 40
0.3333333333333333
 40
0.3333333333333333
 40
0.3333333333333333
 40
0.3333333333333333
 40
1.0
 40
1.0
 40
1.0
 40
1.0
 10
-14.8836
 20
35.3775
 30
0.0
 10
-14.8836
 20
35.3775
 30
0.0
 10
-16.9164
 20
35.3775
 30
0.0
 10
-16.9164
 20
35.3775
 30
0.0
 10
-16.9164
 20
35.3775
 30
0.0
 10
-16.9164
 20
35.3775
 30
0.0
 10
-17.4004
 20
35.3775
 30
0.0
 10
-17.4004
 20
35.3775
 30
0.0
  0
SPLINE
  5
93
330
1F
100
AcDbEntity
  8
Ilustrace
 62
   250
370
    30
100
AcDbSpline
210
0.0
220
0.0
230
1.0
 70
     8
 71
     3
 72
     8
 73
     4
 74
     0
 42
0.0000000001
 43
0.0000000001
 40
0.0
 40
0.0
 40
0.0
 40
0.0
 40
1.0
 40
1.0
 40
1.0
 40
1.0
 10
-14.3996
 20
35.3775
 30
0.0
 10
-14.0704
 20
35.3652
 30
0.0
 10
-13.6869
 20
35.2006
 30
0.0
 10
-13.5405
 20
34.8813
 30
0.0
  0
SPLINE
  5
94
330
1F
100
AcDbEntity
  8
Ilustrace
 62
   250
370
    30
100
AcDbSpline
210
0.0
220
0.0
230
1.0
 70
    24
 71
     3
 72
     8
 73
     4
 74
     0
 42
0.0000000001
 43
0.0000000001
 40
0.0
 40
0.0
 40
0.0
 40
0.0
 40
1.0
 40
1.0
 40
1.0
 40
1.0
 10
-13.5405
 20
34.8813
 30
0.0
 10
-13.5405
 20
34.8813
 30
0.0
 10
-13.4407
 20
34.6368
 30
0.0
 10
-13.4407
 20
34.6368
 30
0.0
  0
SPLINE
  5
95
330
1F
100
AcDbEntity
  8
Ilustrace
 62
   250
370
    30
100
AcDbSpline
210
0.0
220
0.0
230
1.0
 70
    24
 71
     3
 72
    12
 73
     8
 74
     0
 42
0.0000000001
 43
0.0000000001
 40
0.0
 40
0.0
 40
0.0
 40
0.0
 40
0.3333333333333333
 40
0.3333333333333333
 40
0.3333333333333333
 40
0.3333333333333333
 40
1.0
 40
1.0
 40
1.0
 40
1.0
 10
-28.1694
 20
30.5375
 30
0.0
 10
-28.1694
 20
30.5375
 30
0.0
 10
-28.6535
 20
30.5375
 30
0.0
 10
-28.6535
 20
30.5375
 30
0.0
 10
-28.6535
 20
30.5375
 30
0.0
 10
-28.6535
 20
30.5375
 30
0.0
 10
-30.0812
 20
30.5375
 30
0.0
 10
-30.0812
 20
30.5375
 30
0.0
  0
SPLINE
  5
96
330
1F
100
AcDbEntity
  8
Ilustrace
 62
   250
370
    30
100
AcDbSpline
210
0.0
220
0.0
230
1.0
 70
     8
 71
     3
 72
    12
 73
     8
 74
     0
 42
0.0000000001
 43
0.0000000001
 40
0.0
 40
0.0
 40
0.0
 40
0.0
 40
0.3333333333333333
 40
0.3333333333333333
 40
0.3333333333333333
 40
0.3333333333333333
 40
1.0
 40
1.0
 40
1.0
 40
1.0
 10
-30.0812
 20
30.5375
 30
0.0
 10
-30.292
 20
30.5375
 30
0.0
 10
-30.5636
 20
30.5116
 30
0.0
 10
-30.7861
 20
30.5624
 30
0.0
 10
-30.7861
 20
30.5624
 30
0.0
 10
-31.2445
 20
30.6669
 30
0.0
 10
-31.5403
 20
31.0706
 30
0.0
 10
-31.5575
 20
31.5296
 30
0.0
  0
SPLINE
  5
97
330
1F
100
AcDbEntity
  8
Ilustrace
 62
   250
370
    30
100
AcDbSpline
210
0.0
220
0.0
230
1.0
 70
    24
 71
     3
 72
     8
 73
     4
 74
     0
 42
0.0000000001
 43
0.0000000001
 40
0.0
 40
0.0
 40
0.0
 40
0.0
 40
1.0
 40
1.0
 40
1.0
 40
1.0
 10
-13.7705
 20
31.5296
 30
0.0
 10
-13.7705
 20
31.5296
 30
0.0
 10
-13.792
 20
31.3668
 30
0.0
 10
-13.792
 20
31.3668
 30
0.0
  0
SPLINE
  5
98
330
1F
100
AcDbEntity
  8
Ilustrace
 62
   250
370
    30
100
AcDbSpline
210
0.0
220
0.0
230
1.0
 70
     8
 71
     3
 72
     8
 73
     4
 74
     0
 42
0.0000000001
 43
0.0000000001
 40
0.0
 40
0.0
 40
0.0
 40
0.0
 40
1.0
 40
1.0
 40
1.0
 40
1.0
 10
-13.792
 20
31.3668
 30
0.0
 10
-13.85
 20
31.1502
 30
0.0
 10
-14.0225
 20
30.9796
 30
0.0
 10
-14.2386
 20
30.9217
 30
0.0
  0
SPLINE
  5
99
330
1F
100
AcDbEntity
  8
Ilustrace
 62
   250
370
    30
100
AcDbSpline
210
0.0
220
0.0
230
1.0
 70
     8
 71
     3
 72
    16
 73
    12
 74
     0
 42
0.0000000001
 43
0.0000000001
 40
0.0
 40
0.0
 40
0.0
 40
0.0
 40
0.25
 40
0.25
 40
0.25
 40
0.25
 40
0.5
 40
0.5
 40
0.5
 40
0.5
 40
1.0
 40
1.0
 40
1.0
 40
1.0
 10
-14.2386
 20
30.9217
 30
0.0
 10
-14.2386
 20
30.9217
 30
0.0
 10
-14.3996
 20
30.9005
 30
0.0
 10
-14.3996
 20
30.9005
 30
0.0
 10
-14.3996
 20
30.9005
 30
0.0
 10
-14.3996
 20
30.9005
 30
0.0
 10
-14.8836
 20
30.9005
 30
0.0
 10
-14.8836
 20
30.9005
 30
0.0
 10
-14.8836
 20
30.9005
 30
0.0
 10
-14.8836
 20
30.9005
 30
0.0
 10
-30.0812
 20
30.9005
 30
0.0
 10
-30.0812
 20
30.9005
 30
0.0
  0
SPLINE
  5
9A
330
1F
100
AcDbEntity
  8
Ilustrace
 62
   250
370
    30
100
AcDbSpline
210
0.0
220
0.0
230
1.0
 70
     8
 71
     3
 72
    16
 73
    12
 74
     0
 42
0.0000000001
 43
0.0000000001
 40
0.0
 40
0.0
 40
0.0
 40
0.0
 40
0.25
 40
0.25
 40
0.25
 40
0.25
 40
0.5
 40
0.5
 40
0.5
 40
0.5
 40
1.0
 40
1.0
 40
1.0
 40
1.0
 10
-30.0812
 20
30.9005
 30
0.0
 10
-30.4312
 20
30.9005
 30
0.0
 10
-30.8208
 20
30.8336
 30
0.0
 10
-31.0618
 20
31.1432
 30
0.0
 10
-31.0618
 20
31.1432
 30
0.0
 10
-31.1045
 20
31.198
 30
0.0
 10
-31.1378
 20
31.2599
 30
0.0
 10
-31.1604
 20
31.3255
 30
0.0
 10
-31.1604
 20
31.3255
 30
0.0
 10
-31.1834
 20
31.3923
 30
0.0
 10
-31.1916
 20
31.4595
 30
0.0
 10
-31.1944
 20
31.5296
 30
0.0
  0
SPLINE
  5
9B
330
1F
100
AcDbEntity
  8
Ilustrace
 62
   250
370
    30
100
AcDbSpline
210
0.0
220
0.0
230
1.0
 70
     8
 71
     3
 72
    16
 73
    12
 74
     0
 42
0.0000000001
 43
0.0000000001
 40
0.0
 40
0.0
 40
0.0
 40
0.0
 40
0.25
 40
0.25
 40
0.25
 40
0.25
 40
0.5
 40
0.5
 40
0.5
 40
0.5
 40
1.0
 40
1.0
 40
1.0
 40
1.0
 10
-14.3996
 20
30.9005
 30
0.0
 10
-14.3294
 20
30.9033
 30
0.0
 10
-14.2624
 20
30.9115
 30
0.0
 10
-14.1954
 20
30.9345
 30
0.0
 10
-14.1954
 20
30.9345
 30
0.0
 10
-14.1299
 20
30.9571
 30
0.0
 10
-14.068
 20
30.9906
 30
0.0
 10
-14.0133
 20
31.0332
 30
0.0
 10
-14.0133
 20
31.0332
 30
0.0
 10
-13.7035
 20
31.2741
 30
0.0
 10
-13.7705
 20
31.6638
 30
0.0
 10
-13.7705
 20
32.0137
 30
0.0
  0
SPLINE
  5
9C
330
1F
100
AcDbEntity
  8
Ilustrace
 62
   250
370
    30
100
AcDbSpline
210
0.0
220
0.0
230
1.0
 70
    24
 71
     3
 72
     8
 73
     4
 74
     0
 42
0.0000000001
 43
0.0000000001
 40
0.0
 40
0.0
 40
0.0
 40
0.0
 40
1.0
 40
1.0
 40
1.0
 40
1.0
 10
-13.7705
 20
32.0137
 30
0.0
 10
-13.7705
 20
32.0137
 30
0.0
 10
-13.7705
 20
33.9013
 30
0.0
 10
-13.7705
 20
33.9013
 30
0.0
  0
SPLINE
  5
9D
330
1F
100
AcDbEntity
  8
Ilustrace
 62
   250
370
    30
100
AcDbSpline
210
0.0
220
0.0
230
1.0
 70
     8
 71
     3
 72
    16
 73
    12
 74
     0
 42
0.0000000001
 43
0.0000000001
 40
0.0
 40
0.0
 40
0.0
 40
0.0
 40
0.25
 40
0.25
 40
0.25
 40
0.25
 40
0.5
 40
0.5
 40
0.5
 40
0.5
 40
1.0
 40
1.0
 40
1.0
 40
1.0
 10
-13.7705
 20
33.9013
 30
0.0
 10
-13.7705
 20
34.2512
 30
0.0
 10
-13.7035
 20
34.6408
 30
0.0
 10
-14.0133
 20
34.8819
 30
0.0
 10
-14.0133
 20
34.8819
 30
0.0
 10
-14.068
 20
34.9245
 30
0.0
 10
-14.1299
 20
34.9579
 30
0.0
 10
-14.1954
 20
34.9804
 30
0.0
 10
-14.1954
 20
34.9804
 30
0.0
 10
-14.402
 20
35.0513
 30
0.0
 10
-14.7008
 20
35.0145
 30
0.0
 10
-14.8836
 20
35.0145
 30
0.0
  0
SPLINE
  5
9E
330
1F
100
AcDbEntity
  8
Ilustrace
 62
   250
370
    30
100
AcDbSpline
210
0.0
220
0.0
230
1.0
 70
     8
 71
     3
 72
    16
 73
    12
 74
     0
 42
0.0000000001
 43
0.0000000001
 40
0.0
 40
0.0
 40
0.0
 40
0.0
 40
0.25
 40
0.25
 40
0.25
 40
0.25
 40
0.5
 40
0.5
 40
0.5
 40
0.5
 40
1.0
 40
1.0
 40
1.0
 40
1.0
 10
-14.8836
 20
35.0145
 30
0.0
 10
-14.8836
 20
35.0145
 30
0.0
 10
-30.0812
 20
35.0145
 30
0.0
 10
-30.0812
 20
35.0145
 30
0.0
 10
-30.0812
 20
35.0145
 30
0.0
 10
-30.0812
 20
35.0145
 30
0.0
 10
-30.5653
 20
35.0145
 30
0.0
 10
-30.5653
 20
35.0145
 30
0.0
 10
-30.5653
 20
35.0145
 30
0.0
 10
-30.5653
 20
35.0145
 30
0.0
 10
-30.7281
 20
34.993
 30
0.0
 10
-30.7281
 20
34.993
 30
0.0
  0
SPLINE
  5
9F
330
1F
100
AcDbEntity
  8
Ilustrace
 62
   250
370
    30
100
AcDbSpline
210
0.0
220
0.0
230
1.0
 70
     8
 71
     3
 72
     8
 73
     4
 74
     0
 42
0.0000000001
 43
0.0000000001
 40
0.0
 40
0.0
 40
0.0
 40
0.0
 40
1.0
 40
1.0
 40
1.0
 40
1.0
 10
-30.7281
 20
34.993
 30
0.0
 10
-30.9446
 20
34.935
 30
0.0
 10
-31.1153
 20
34.7625
 30
0.0
 10
-31.1733
 20
34.5463
 30
0.0
  0
SPLINE
  5
A0
330
1F
100
AcDbEntity
  8
Ilustrace
 62
   250
370
    30
100
AcDbSpline
210
0.0
220
0.0
230
1.0
 70
    24
 71
     3
 72
     8
 73
     4
 74
     0
 42
0.0000000001
 43
0.0000000001
 40
0.0
 40
0.0
 40
0.0
 40
0.0
 40
1.0
 40
1.0
 40
1.0
 40
1.0
 10
-31.1733
 20
34.5463
 30
0.0
 10
-31.1733
 20
34.5463
 30
0.0
 10
-31.1944
 20
34.3852
 30
0.0
 10
-31.1944
 20
34.3852
 30
0.0
  0
SPLINE
  5
A1
330
1F
100
AcDbEntity
  8
Ilustrace
 62
   250
370
    30
100
AcDbSpline
210
0.0
220
0.0
230
1.0
 70
     8
 71
     3
 72
    16
 73
    12
 74
     0
 42
0.0000000001
 43
0.0000000001
 40
0.0
 40
0.0
 40
0.0
 40
0.0
 40
0.25
 40
0.25
 40
0.25
 40
0.25
 40
0.5
 40
0.5
 40
0.5
 40
0.5
 40
1.0
 40
1.0
 40
1.0
 40
1.0
 10
-30.883
 20
34.9278
 30
0.0
 10
-30.883
 20
34.9278
 30
0.0
 10
-31.0077
 20
34.8315
 30
0.0
 10
-31.0077
 20
34.8315
 30
0.0
 10
-31.0077
 20
34.8315
 30
0.0
 10
-31.0077
 20
34.8315
 30
0.0
 10
-31.0491
 20
34.7374
 30
0.0
 10
-31.0491
 20
34.7374
 30
0.0
 10
-31.0491
 20
34.7374
 30
0.0
 10
-31.0491
 20
34.7374
 30
0.0
 10
-31.1944
 20
34.3852
 30
0.0
 10
-31.1944
 20
34.3852
 30
0.0
  0
SPLINE
  5
A2
330
1F
100
AcDbEntity
  8
Ilustrace
 62
   250
370
    30
100
AcDbSpline
210
0.0
220
0.0
230
1.0
 70
    24
 71
     3
 72
     8
 73
     4
 74
     0
 42
0.0000000001
 43
0.0000000001
 40
0.0
 40
0.0
 40
0.0
 40
0.0
 40
1.0
 40
1.0
 40
1.0
 40
1.0
 10
-14.148
 20
30.5705
 30
0.0
 10
-14.148
 20
30.5705
 30
0.0
 10
-13.9036
 20
30.6704
 30
0.0
 10
-13.9036
 20
30.6704
 30
0.0
  0
SPLINE
  5
A3
330
1F
100
AcDbEntity
  8
Ilustrace
 62
   250
370
    30
100
AcDbSpline
210
0.0
220
0.0
230
1.0
 70
     8
 71
     3
 72
     8
 73
     4
 74
     0
 42
0.0000000001
 43
0.0000000001
 40
0.0
 40
0.0
 40
0.0
 40
0.0
 40
1.0
 40
1.0
 40
1.0
 40
1.0
 10
-13.9036
 20
30.6704
 30
0.0
 10
-13.7634
 20
30.7347
 30
0.0
 10
-13.6048
 20
30.8932
 30
0.0
 10
-13.5405
 20
31.0335
 30
0.0
  0
SPLINE
  5
A4
330
1F
100
AcDbEntity
  8
Ilustrace
 62
   250
370
    30
100
AcDbSpline
210
0.0
220
0.0
230
1.0
 70
    24
 71
     3
 72
     8
 73
     4
 74
     0
 42
0.0000000001
 43
0.0000000001
 40
0.0
 40
0.0
 40
0.0
 40
0.0
 40
1.0
 40
1.0
 40
1.0
 40
1.0
 10
-13.5405
 20
31.0335
 30
0.0
 10
-13.5405
 20
31.0335
 30
0.0
 10
-13.4407
 20
31.2782
 30
0.0
 10
-13.4407
 20
31.2782
 30
0.0
  0
SPLINE
  5
A5
330
1F
100
AcDbEntity
  8
Ilustrace
 62
   250
370
    30
100
AcDbSpline
210
0.0
220
0.0
230
1.0
 70
     8
 71
     3
 72
     8
 73
     4
 74
     0
 42
0.0000000001
 43
0.0000000001
 40
0.0
 40
0.0
 40
0.0
 40
0.0
 40
1.0
 40
1.0
 40
1.0
 40
1.0
 10
-14.3996
 20
30.5375
 30
0.0
 10
-14.1558
 20
30.5467
 30
0.0
 10
-13.852
 20
30.6275
 30
0.0
 10
-13.6948
 20
30.8323
 30
0.0
  0
SPLINE
  5
A6
330
1F
100
AcDbEntity
  8
Ilustrace
 62
   250
370
    30
100
AcDbSpline
210
0.0
220
0.0
230
1.0
 70
     8
 71
     3
 72
    12
 73
     8
 74
     0
 42
0.0000000001
 43
0.0000000001
 40
0.0
 40
0.0
 40
0.0
 40
0.0
 40
0.3333333333333333
 40
0.3333333333333333
 40
0.3333333333333333
 40
0.3333333333333333
 40
1.0
 40
1.0
 40
1.0
 40
1.0
 10
-30.8841
 20
30.9878
 30
0.0
 10
-30.8841
 20
30.9878
 30
0.0
 10
-30.9858
 20
31.062
 30
0.0
 10
-30.9858
 20
31.062
 30
0.0
 10
-30.9858
 20
31.062
 30
0.0
 10
-30.9858
 20
31.062
 30
0.0
 10
-30.9987
 20
31.0741
 30
0.0
 10
-30.9987
 20
31.0741
 30
0.0
  0
SPLINE
  5
A7
330
1F
100
AcDbEntity
  8
Ilustrace
 62
   250
370
    30
100
AcDbSpline
210
0.0
220
0.0
230
1.0
 70
    24
 71
     3
 72
     8
 73
     4
 74
     0
 42
0.0000000001
 43
0.0000000001
 40
0.0
 40
0.0
 40
0.0
 40
0.0
 40
1.0
 40
1.0
 40
1.0
 40
1.0
 10
-30.5653
 20
35.0145
 30
0.0
 10
-30.5653
 20
35.0145
 30
0.0
 10
-30.6703
 20
34.9929
 30
0.0
 10
-30.6703
 20
34.9929
 30
0.0
  0
SPLINE
  5
A8
330
1F
100
AcDbEntity
  8
Ilustrace
 62
   250
370
    30
100
AcDbSpline
210
0.0
220
0.0
230
1.0
 70
     8
 71
     3
 72
    28
 73
    24
 74
     0
 42
0.0000000001
 43
0.0000000001
 40
0.0
 40
0.0
 40
0.0
 40
0.0
 40
0.1428571428571428
 40
0.1428571428571428
 40
0.1428571428571428
 40
0.1428571428571428
 40
0.2857142857142857
 40
0.2857142857142857
 40
0.2857142857142857
 40
0.2857142857142857
 40
0.4285714285714285
 40
0.4285714285714285
 40
0.4285714285714285
 40
0.4285714285714285
 40
0.5714285714285714
 40
0.5714285714285714
 40
0.5714285714285714
 40
0.5714285714285714
 40
0.7142857142857143
 40
0.7142857142857143
 40
0.7142857142857143
 40
0.7142857142857143
 40
1.0
 40
1.0
 40
1.0
 40
1.0
 10
-25.3998
 20
33.1874
 30
0.0
 10
-25.3287
 20
33.1678
 30
0.0
 10
-25.2639
 20
33.1402
 30
0.0
 10
-25.2057
 20
33.0939
 30
0.0
 10
-25.2057
 20
33.0939
 30
0.0
 10
-24.9935
 20
32.9247
 30
0.0
 10
-24.9643
 20
32.6016
 30
0.0
 10
-25.143
 20
32.397
 30
0.0
 10
-25.143
 20
32.397
 30
0.0
 10
-25.222
 20
32.3067
 30
0.0
 10
-25.326
 20
32.2569
 30
0.0
 10
-25.4425
 20
32.2359
 30
0.0
 10
-25.4425
 20
32.2359
 30
0.0
 10
-25.5976
 20
32.2359
 30
0.0
 10
-25.7258
 20
32.2547
 30
0.0
 10
-25.8419
 20
32.3657
 30
0.0
 10
-25.8419
 20
32.3657
 30
0.0
 10
-26.0755
 20
32.589
 30
0.0
 10
-26.0211
 20
32.9887
 30
0.0
 10
-25.7368
 20
33.1416
 30
0.0
 10
-25.7368
 20
33.1416
 30
0.0
 10
-25.6391
 20
33.1943
 30
0.0
 10
-25.5533
 20
33.1951
 30
0.0
 10
-25.4425
 20
33.1951
 30
0.0
  0
SPLINE
  5
A9
330
1F
100
AcDbEntity
  8
Ilustrace
 62
   250
370
    30
100
AcDbSpline
210
0.0
220
0.0
230
1.0
 70
     8
 71
     3
 72
     8
 73
     4
 74
     0
 42
0.0000000001
 43
0.0000000001
 40
0.0
 40
0.0
 40
0.0
 40
0.0
 40
1.0
 40
1.0
 40
1.0
 40
1.0
 10
-12.2317
 20
34.3852
 30
0.0
 10
-12.8324
 20
34.842
 30
0.0
 10
-13.4684
 20
35.3616
 30
0.0
 10
-14.2579
 20
35.3775
 30
0.0
  0
SPLINE
  5
AA
330
1F
100
AcDbEntity
  8
Ilustrace
 62
   250
370
    30
100
AcDbSpline
210
0.0
220
0.0
230
1.0
 70
    11
 71
     3
 72
    36
 73
    32
 74
     0
 42
0.0000000001
 43
0.0000000001
 40
0.0
 40
0.0
 40
0.0
 40
0.0
 40
0.1111111111111111
 40
0.1111111111111111
 40
0.1111111111111111
 40
0.1111111111111111
 40
0.2222222222222222
 40
0.2222222222222222
 40
0.2222222222222222
 40
0.2222222222222222
 40
0.3333333333333333
 40
0.3333333333333333
 40
0.3333333333333333
 40
0.3333333333333333
 40
0.4444444444444444
 40
0.4444444444444444
 40
0.4444444444444444
 40
0.4444444444444444
 40
0.5555555555555556
 40
0.5555555555555556
 40
0.5555555555555556
 40
0.5555555555555556
 40
0.6666666666666666
 40
0.6666666666666666
 40
0.6666666666666666
 40
0.6666666666666666
 40
0.7777777777777778
 40
0.7777777777777778
 40
0.7777777777777778
 40
0.7777777777777778
 40
1.0
 40
1.0
 40
1.0
 40
1.0
 10
-3.2454
 20
32.6721
 30
0.0
 10
-3.2454
 20
32.8979
 30
0.0
 10
-3.3514
 20
33.1022
 30
0.0
 10
-3.5779
 20
33.1759
 30
0.0
 10
-3.5779
 20
33.1759
 30
0.0
 10
-3.6526
 20
33.2
 30
0.0
 10
-3.71
 20
33.1951
 30
0.0
 10
-3.7925
 20
33.1951
 30
0.0
 10
-3.7925
 20
33.1951
 30
0.0
 10
-3.8796
 20
33.1794
 30
0.0
 10
-3.9592
 20
33.1497
 30
0.0
 10
-4.0293
 20
33.0939
 30
0.0
 10
-4.0293
 20
33.0939
 30
0.0
 10
-4.2681
 20
32.9034
 30
0.0
 10
-4.2681
 20
32.5276
 30
0.0
 10
-4.0293
 20
32.3371
 30
0.0
 10
-4.0293
 20
32.3371
 30
0.0
 10
-3.92
 20
32.25
 30
0.0
 10
-3.7999
 20
32.2297
 30
0.0
 10
-3.6625
 20
32.2359
 30
0.0
 10
-3.6625
 20
32.2359
 30
0.0
 10
-3.6071
 20
32.2384
 30
0.0
 10
-3.5462
 20
32.2633
 30
0.0
 10
-3.4981
 20
32.2893
 30
0.0
 10
-3.4981
 20
32.2893
 30
0.0
 10
-3.4343
 20
32.3237
 30
0.0
 10
-3.3784
 20
32.3724
 30
0.0
 10
-3.3359
 20
32.431
 30
0.0
 10
-3.3359
 20
32.431
 30
0.0
 10
-3.2832
 20
32.5035
 30
0.0
 10
-3.2573
 20
32.5842
 30
0.0
 10
-3.2454
 20
32.6721
 30
0.0
  0
SPLINE
  5
AB
330
1F
100
AcDbEntity
  8
Ilustrace
 62
   250
370
    30
100
AcDbSpline
210
0.0
220
0.0
230
1.0
 70
     8
 71
     3
 72
    40
 73
    36
 74
     0
 42
0.0000000001
 43
0.0000000001
 40
0.0
 40
0.0
 40
0.0
 40
0.0
 40
0.1
 40
0.1
 40
0.1
 40
0.1
 40
0.2
 40
0.2
 40
0.2
 40
0.2
 40
0.3
 40
0.3
 40
0.3
 40
0.3
 40
0.4
 40
0.4
 40
0.4
 40
0.4
 40
0.5
 40
0.5
 40
0.5
 40
0.5
 40
0.6
 40
0.6
 40
0.6
 40
0.6
 40
0.7
 40
0.7
 40
0.7
 40
0.7
 40
0.8
 40
0.8
 40
0.8
 40
0.8
 40
1.0
 40
1.0
 40
1.0
 40
1.0
 10
22.2304
 20
32.4759
 30
0.0
 10
22.1861
 20
32.584
 30
0.0
 10
22.1531
 20
32.6845
 30
0.0
 10
22.1742
 20
32.8018
 30
0.0
 10
22.1742
 20
32.8018
 30
0.0
 10
22.2314
 20
33.1192
 30
0.0
 10
22.5937
 20
33.2957
 30
0.0
 10
22.8799
 20
33.1416
 30
0.0
 10
22.8799
 20
33.1416
 30
0.0
 10
23.0544
 20
33.0478
 30
0.0
 10
23.1412
 20
32.8658
 30
0.0
 10
23.1326
 20
32.6721
 30
0.0
 10
23.1326
 20
32.6721
 30
0.0
 10
23.13
 20
32.6154
 30
0.0
 10
23.111
 20
32.5563
 30
0.0
 10
23.0866
 20
32.5054
 30
0.0
 10
23.0866
 20
32.5054
 30
0.0
 10
23.0552
 20
32.4402
 30
0.0
 10
23.0088
 20
32.3822
 30
0.0
 10
22.9522
 20
32.3371
 30
0.0
 10
22.9522
 20
32.3371
 30
0.0
 10
22.8822
 20
32.2812
 30
0.0
 10
22.8026
 20
32.2517
 30
0.0
 10
22.7154
 20
32.2359
 30
0.0
 10
22.7154
 20
32.2359
 30
0.0
 10
22.6331
 20
32.2359
 30
0.0
 10
22.5757
 20
32.231
 30
0.0
 10
22.501
 20
32.2551
 30
0.0
 10
22.501
 20
32.2551
 30
0.0
 10
22.3039
 20
32.3191
 30
0.0
 10
22.1665
 20
32.5077
 30
0.0
 10
22.1665
 20
32.7155
 30
0.0
 10
22.1665
 20
32.7155
 30
0.0
 10
22.1665
 20
32.8274
 30
0.0
 10
22.1888
 20
32.8541
 30
0.0
 10
22.2304
 20
32.955
 30
0.0
  0
SPLINE
  5
AC
330
1F
100
AcDbEntity
  8
Ilustrace
 62
   254
100
AcDbSpline
210
0.0
220
0.0
230
1.0
 70
    11
 71
     3
 72
    68
 73
    64
 74
     0
 42
0.0000000001
 43
0.0000000001
 40
0.0
 40
0.0
 40
0.0
 40
0.0
 40
0.0588235294117647
 40
0.0588235294117647
 40
0.0588235294117647
 40
0.0588235294117647
 40
0.1176470588235294
 40
0.1176470588235294
 40
0.1176470588235294
 40
0.1176470588235294
 40
0.1764705882352941
 40
0.1764705882352941
 40
0.1764705882352941
 40
0.1764705882352941
 40
0.2352941176470588
 40
0.2352941176470588
 40
0.2352941176470588
 40
0.2352941176470588
 40
0.2941176470588235
 40
0.2941176470588235
 40
0.2941176470588235
 40
0.2941176470588235
 40
0.3529411764705883
 40
0.3529411764705883
 40
0.3529411764705883
 40
0.3529411764705883
 40
0.4117647058823529
 40
0.4117647058823529
 40
0.4117647058823529
 40
0.4117647058823529
 40
0.4705882352941176
 40
0.4705882352941176
 40
0.4705882352941176
 40
0.4705882352941176
 40
0.5294117647058824
 40
0.5294117647058824
 40
0.5294117647058824
 40
0.5294117647058824
 40
0.5882352941176471
 40
0.5882352941176471
 40
0.5882352941176471
 40
0.5882352941176471
 40
0.6470588235294118
 40
0.6470588235294118
 40
0.6470588235294118
 40
0.6470588235294118
 40
0.7058823529411765
 40
0.7058823529411765
 40
0.7058823529411765
 40
0.7058823529411765
 40
0.7647058823529411
 40
0.7647058823529411
 40
0.7647058823529411
 40
0.7647058823529411
 40
0.8235294117647058
 40
0.8235294117647058
 40
0.8235294117647058
 40
0.8235294117647058
 40
0.8823529411764706
 40
0.8823529411764706
 40
0.8823529411764706
 40
0.8823529411764706
 40
1.0
 40
1.0
 40
1.0
 40
1.0
 10
-31.6036
 20
-37.4447
 30
0.0
 10
-31.6036
 20
-37.4447
 30
0.0
 10
-13.4135
 20
-37.4446
 30
0.0
 10
-13.4135
 20
-37.4446
 30
0.0
 10
-13.4135
 20
-37.4446
 30
0.0
 10
-13.4135
 20
-37.4446
 30
0.0
 10
-13.3915
 20
3.6431
 30
0.0
 10
-13.3915
 20
3.6431
 30
0.0
 10
-13.3915
 20
3.6431
 30
0.0
 10
-13.3915
 20
3.6431
 30
0.0
 10
-13.6451
 20
4.4589
 30
0.0
 10
-13.6451
 20
4.4589
 30
0.0
 10
-13.6451
 20
4.4589
 30
0.0
 10
-13.6451
 20
4.4589
 30
0.0
 10
-14.1852
 20
5.2086
 30
0.0
 10
-14.1852
 20
5.2086
 30
0.0
 10
-14.1852
 20
5.2086
 30
0.0
 10
-14.1852
 20
5.2086
 30
0.0
 10
-14.7144
 20
5.8259
 30
0.0
 10
-14.7144
 20
5.8259
 30
0.0
 10
-14.7144
 20
5.8259
 30
0.0
 10
-14.7144
 20
5.8259
 30
0.0
 10
-14.5821
 20
5.9031
 30
0.0
 10
-14.5821
 20
5.9031
 30
0.0
 10
-14.5821
 20
5.9031
 30
0.0
 10
-14.5821
 20
5.9031
 30
0.0
 10
-13.8766
 20
5.3298
 30
0.0
 10
-13.8766
 20
5.3298
 30
0.0
 10
-13.8766
 20
5.3298
 30
0.0
 10
-13.8766
 20
5.3298
 30
0.0
 10
-13.4135
 20
5.0322
 30
0.0
 10
-13.4135
 20
5.0322
 30
0.0
 10
-13.4135
 20
5.0322
 30
0.0
 10
-13.4135
 20
5.0322
 30
0.0
 10
-12.7851
 20
4.6904
 30
0.0
 10
-12.7851
 20
4.6904
 30
0.0
 10
-12.7851
 20
4.6904
 30
0.0
 10
-12.7851
 20
4.6904
 30
0.0
 10
-12.3001
 20
4.6573
 30
0.0
 10
-12.3001
 20
4.6573
 30
0.0
 10
-12.3001
 20
4.6573
 30
0.0
 10
-12.3001
 20
4.6573
 30
0.0
 10
28.7273
 20
4.6242
 30
0.0
 10
28.7273
 20
4.6242
 30
0.0
 10
28.7273
 20
4.6242
 30
0.0
 10
28.7273
 20
4.6242
 30
0.0
 10
28.6832
 20
22.7975
 30
0.0
 10
28.6832
 20
22.7975
 30
0.0
 10
28.6832
 20
22.7975
 30
0.0
 10
28.6832
 20
22.7975
 30
0.0
 10
-31.2229
 20
22.7862
 30
0.0
 10
-31.2229
 20
22.7862
 30
0.0
 10
-31.2229
 20
22.7862
 30
0.0
 10
-31.2229
 20
22.7862
 30
0.0
 10
-31.2174
 20
22.4059
 30
0.0
 10
-31.2174
 20
22.4059
 30
0.0
 10
-31.2174
 20
22.4059
 30
0.0
 10
-31.2174
 20
22.4059
 30
0.0
 10
-31.5206
 20
22.4059
 30
0.0
 10
-31.5206
 20
22.4059
 30
0.0
 10
-31.5206
 20
22.4059
 30
0.0
 10
-31.5206
 20
22.4059
 30
0.0
 10
-31.6036
 20
-37.4447
 30
0.0
 10
-31.6036
 20
-37.4447
 30
0.0
  0
SPLINE
  5
AD
330
1F
100
AcDbEntity
  8
Ilustrace
 62
   254
100
AcDbSpline
210
0.0
220
0.0
230
1.0
 70
    11
 71
     3
 72
    20
 73
    16
 74
     0
 42
0.0000000001
 43
0.0000000001
 40
0.0
 40
0.0
 40
0.0
 40
0.0
 40
0.2
 40
0.2
 40
0.2
 40
0.2
 40
0.4
 40
0.4
 40
0.4
 40
0.4
 40
0.6
 40
0.6
 40
0.6
 40
0.6
 40
1.0
 40
1.0
 40
1.0
 40
1.0
 10
-6.931
 20
17.3787
 30
0.0
 10
-6.931
 20
17.3787
 30
0.0
 10
-6.931
 20
18.8339
 30
0.0
 10
-6.931
 20
18.8339
 30
0.0
 10
-6.931
 20
18.8339
 30
0.0
 10
-6.931
 20
18.8339
 30
0.0
 10
6.144
 20
18.8339
 30
0.0
 10
6.144
 20
18.8339
 30
0.0
 10
6.144
 20
18.8339
 30
0.0
 10
6.144
 20
18.8339
 30
0.0
 10
6.144
 20
17.3787
 30
0.0
 10
6.144
 20
17.3787
 30
0.0
 10
6.144
 20
17.3787
 30
0.0
 10
6.144
 20
17.3787
 30
0.0
 10
-6.931
 20
17.3787
 30
0.0
 10
-6.931
 20
17.3787
 30
0.0
  0
SPLINE
  5
AE
330
1F
100
AcDbEntity
  8
Ilustrace
 62
   254
100
AcDbSpline
210
0.0
220
0.0
230
1.0
 70
    11
 71
     3
 72
    20
 73
    16
 74
     0
 42
0.0000000001
 43
0.0000000001
 40
0.0
 40
0.0
 40
0.0
 40
0.0
 40
0.2
 40
0.2
 40
0.2
 40
0.2
 40
0.4
 40
0.4
 40
0.4
 40
0.4
 40
0.6
 40
0.6
 40
0.6
 40
0.6
 40
1.0
 40
1.0
 40
1.0
 40
1.0
 10
-18.8924
 20
19.4291
 30
0.0
 10
-18.8924
 20
19.4291
 30
0.0
 10
-17.4372
 20
19.4291
 30
0.0
 10
-17.4372
 20
19.4291
 30
0.0
 10
-17.4372
 20
19.4291
 30
0.0
 10
-17.4372
 20
19.4291
 30
0.0
 10
-17.4372
 20
7.1149
 30
0.0
 10
-17.4372
 20
7.1149
 30
0.0
 10
-17.4372
 20
7.1149
 30
0.0
 10
-17.4372
 20
7.1149
 30
0.0
 10
-18.8924
 20
7.1149
 30
0.0
 10
-18.8924
 20
7.1149
 30
0.0
 10
-18.8924
 20
7.1149
 30
0.0
 10
-18.8924
 20
7.1149
 30
0.0
 10
-18.8924
 20
19.4291
 30
0.0
 10
-18.8924
 20
19.4291
 30
0.0
  0
SPLINE
  5
AF
330
1F
100
AcDbEntity
  8
Ilustrace
 62
   254
100
AcDbSpline
210
0.0
220
0.0
230
1.0
 70
    11
 71
     3
 72
    20
 73
    16
 74
     0
 42
0.0000000001
 43
0.0000000001
 40
0.0
 40
0.0
 40
0.0
 40
0.0
 40
0.2
 40
0.2
 40
0.2
 40
0.2
 40
0.4
 40
0.4
 40
0.4
 40
0.4
 40
0.6
 40
0.6
 40
0.6
 40
0.6
 40
1.0
 40
1.0
 40
1.0
 40
1.0
 10
-18.8042
 20
-1.9028
 30
0.0
 10
-18.8042
 20
-1.9028
 30
0.0
 10
-17.349
 20
-1.9028
 30
0.0
 10
-17.349
 20
-1.9028
 30
0.0
 10
-17.349
 20
-1.9028
 30
0.0
 10
-17.349
 20
-1.9028
 30
0.0
 10
-17.349
 20
-14.9778
 30
0.0
 10
-17.349
 20
-14.9778
 30
0.0
 10
-17.349
 20
-14.9778
 30
0.0
 10
-17.349
 20
-14.9778
 30
0.0
 10
-18.8042
 20
-14.9778
 30
0.0
 10
-18.8042
 20
-14.9778
 30
0.0
 10
-18.8042
 20
-14.9778
 30
0.0
 10
-18.8042
 20
-14.9778
 30
0.0
 10
-18.8042
 20
-1.9028
 30
0.0
 10
-18.8042
 20
-1.9028
 30
0.0
  0
SPLINE
  5
B0
330
1F
100
AcDbEntity
  8
Ilustrace
 62
   254
100
AcDbSpline
210
0.0
220
0.0
230
1.0
 70
    11
 71
     3
 72
    20
 73
    16
 74
     0
 42
0.0000000001
 43
0.0000000001
 40
0.0
 40
0.0
 40
0.0
 40
0.0
 40
0.2
 40
0.2
 40
0.2
 40
0.2
 40
0.4
 40
0.4
 40
0.4
 40
0.4
 40
0.6
 40
0.6
 40
0.6
 40
0.6
 40
1.0
 40
1.0
 40
1.0
 40
1.0
 10
9.826
 20
17.3346
 30
0.0
 10
9.826
 20
17.3346
 30
0.0
 10
9.826
 20
18.7898
 30
0.0
 10
9.826
 20
18.7898
 30
0.0
 10
9.826
 20
18.7898
 30
0.0
 10
9.826
 20
18.7898
 30
0.0
 10
22.901
 20
18.7898
 30
0.0
 10
22.901
 20
18.7898
 30
0.0
 10
22.901
 20
18.7898
 30
0.0
 10
22.901
 20
18.7898
 30
0.0
 10
22.901
 20
17.3346
 30
0.0
 10
22.901
 20
17.3346
 30
0.0
 10
22.901
 20
17.3346
 30
0.0
 10
22.901
 20
17.3346
 30
0.0
 10
9.826
 20
17.3346
 30
0.0
 10
9.826
 20
17.3346
 30
0.0
  0
SPLINE
  5
B1
330
1F
100
AcDbEntity
  8
Ilustrace
 62
   254
100
AcDbSpline
210
0.0
220
0.0
230
1.0
 70
    11
 71
     3
 72
    20
 73
    16
 74
     0
 42
0.0000000001
 43
0.0000000001
 40
0.0
 40
0.0
 40
0.0
 40
0.0
 40
0.2
 40
0.2
 40
0.2
 40
0.2
 40
0.4
 40
0.4
 40
0.4
 40
0.4
 40
0.6
 40
0.6
 40
0.6
 40
0.6
 40
1.0
 40
1.0
 40
1.0
 40
1.0
 10
-18.8483
 20
-18.6598
 30
0.0
 10
-18.8483
 20
-18.6598
 30
0.0
 10
-17.3931
 20
-18.6598
 30
0.0
 10
-17.3931
 20
-18.6598
 30
0.0
 10
-17.3931
 20
-18.6598
 30
0.0
 10
-17.3931
 20
-18.6598
 30
0.0
 10
-17.3931
 20
-31.7348
 30
0.0
 10
-17.3931
 20
-31.7348
 30
0.0
 10
-17.3931
 20
-31.7348
 30
0.0
 10
-17.3931
 20
-31.7348
 30
0.0
 10
-18.8483
 20
-31.7348
 30
0.0
 10
-18.8483
 20
-31.7348
 30
0.0
 10
-18.8483
 20
-31.7348
 30
0.0
 10
-18.8483
 20
-31.7348
 30
0.0
 10
-18.8483
 20
-18.6598
 30
0.0
 10
-18.8483
 20
-18.6598
 30
0.0
  0
SPLINE
  5
B2
330
1F
100
AcDbEntity
  8
Ilustrace
 62
   254
100
AcDbSpline
210
0.0
220
0.0
230
1.0
 70
    11
 71
     3
 72
    20
 73
    16
 74
     0
 42
0.0000000001
 43
0.0000000001
 40
0.0
 40
0.0
 40
0.0
 40
0.0
 40
0.2
 40
0.2
 40
0.2
 40
0.2
 40
0.4
 40
0.4
 40
0.4
 40
0.4
 40
0.6
 40
0.6
 40
0.6
 40
0.6
 40
1.0
 40
1.0
 40
1.0
 40
1.0
 10
-6.9752
 20
13.0131
 30
0.0
 10
-6.9752
 20
13.0131
 30
0.0
 10
-6.9752
 20
14.4683
 30
0.0
 10
-6.9752
 20
14.4683
 30
0.0
 10
-6.9752
 20
14.4683
 30
0.0
 10
-6.9752
 20
14.4683
 30
0.0
 10
6.0998
 20
14.4683
 30
0.0
 10
6.0998
 20
14.4683
 30
0.0
 10
6.0998
 20
14.4683
 30
0.0
 10
6.0998
 20
14.4683
 30
0.0
 10
6.0998
 20
13.0131
 30
0.0
 10
6.0998
 20
13.0131
 30
0.0
 10
6.0998
 20
13.0131
 30
0.0
 10
6.0998
 20
13.0131
 30
0.0
 10
-6.9752
 20
13.0131
 30
0.0
 10
-6.9752
 20
13.0131
 30
0.0
  0
SPLINE
  5
B3
330
1F
100
AcDbEntity
  8
Ilustrace
 62
   254
100
AcDbSpline
210
0.0
220
0.0
230
1.0
 70
    11
 71
     3
 72
    20
 73
    16
 74
     0
 42
0.0000000001
 43
0.0000000001
 40
0.0
 40
0.0
 40
0.0
 40
0.0
 40
0.2
 40
0.2
 40
0.2
 40
0.2
 40
0.4
 40
0.4
 40
0.4
 40
0.4
 40
0.6
 40
0.6
 40
0.6
 40
0.6
 40
1.0
 40
1.0
 40
1.0
 40
1.0
 10
-23.258
 20
19.418
 30
0.0
 10
-23.258
 20
19.418
 30
0.0
 10
-21.8028
 20
19.418
 30
0.0
 10
-21.8028
 20
19.418
 30
0.0
 10
-21.8028
 20
19.418
 30
0.0
 10
-21.8028
 20
19.418
 30
0.0
 10
-21.8028
 20
7.1591
 30
0.0
 10
-21.8028
 20
7.1591
 30
0.0
 10
-21.8028
 20
7.1591
 30
0.0
 10
-21.8028
 20
7.1591
 30
0.0
 10
-23.258
 20
7.1591
 30
0.0
 10
-23.258
 20
7.1591
 30
0.0
 10
-23.258
 20
7.1591
 30
0.0
 10
-23.258
 20
7.1591
 30
0.0
 10
-23.258
 20
19.418
 30
0.0
 10
-23.258
 20
19.418
 30
0.0
  0
SPLINE
  5
B4
330
1F
100
AcDbEntity
  8
Ilustrace
 62
   254
100
AcDbSpline
210
0.0
220
0.0
230
1.0
 70
    11
 71
     3
 72
    20
 73
    16
 74
     0
 42
0.0000000001
 43
0.0000000001
 40
0.0
 40
0.0
 40
0.0
 40
0.0
 40
0.2
 40
0.2
 40
0.2
 40
0.2
 40
0.4
 40
0.4
 40
0.4
 40
0.4
 40
0.6
 40
0.6
 40
0.6
 40
0.6
 40
1.0
 40
1.0
 40
1.0
 40
1.0
 10
-23.1698
 20
-1.8586
 30
0.0
 10
-23.1698
 20
-1.8586
 30
0.0
 10
-21.7146
 20
-1.8586
 30
0.0
 10
-21.7146
 20
-1.8586
 30
0.0
 10
-21.7146
 20
-1.8586
 30
0.0
 10
-21.7146
 20
-1.8586
 30
0.0
 10
-21.7146
 20
-14.9336
 30
0.0
 10
-21.7146
 20
-14.9336
 30
0.0
 10
-21.7146
 20
-14.9336
 30
0.0
 10
-21.7146
 20
-14.9336
 30
0.0
 10
-23.1698
 20
-14.9336
 30
0.0
 10
-23.1698
 20
-14.9336
 30
0.0
 10
-23.1698
 20
-14.9336
 30
0.0
 10
-23.1698
 20
-14.9336
 30
0.0
 10
-23.1698
 20
-1.8586
 30
0.0
 10
-23.1698
 20
-1.8586
 30
0.0
  0
SPLINE
  5
B5
330
1F
100
AcDbEntity
  8
Ilustrace
 62
   254
100
AcDbSpline
210
0.0
220
0.0
230
1.0
 70
    11
 71
     3
 72
    20
 73
    16
 74
     0
 42
0.0000000001
 43
0.0000000001
 40
0.0
 40
0.0
 40
0.0
 40
0.0
 40
0.2
 40
0.2
 40
0.2
 40
0.2
 40
0.4
 40
0.4
 40
0.4
 40
0.4
 40
0.6
 40
0.6
 40
0.6
 40
0.6
 40
1.0
 40
1.0
 40
1.0
 40
1.0
 10
9.7818
 20
12.969
 30
0.0
 10
9.7818
 20
12.969
 30
0.0
 10
9.7818
 20
14.4242
 30
0.0
 10
9.7818
 20
14.4242
 30
0.0
 10
9.7818
 20
14.4242
 30
0.0
 10
9.7818
 20
14.4242
 30
0.0
 10
22.8568
 20
14.4242
 30
0.0
 10
22.8568
 20
14.4242
 30
0.0
 10
22.8568
 20
14.4242
 30
0.0
 10
22.8568
 20
14.4242
 30
0.0
 10
22.8568
 20
12.969
 30
0.0
 10
22.8568
 20
12.969
 30
0.0
 10
22.8568
 20
12.969
 30
0.0
 10
22.8568
 20
12.969
 30
0.0
 10
9.7818
 20
12.969
 30
0.0
 10
9.7818
 20
12.969
 30
0.0
  0
SPLINE
  5
B6
330
1F
100
AcDbEntity
  8
Ilustrace
 62
   254
100
AcDbSpline
210
0.0
220
0.0
230
1.0
 70
    11
 71
     3
 72
    20
 73
    16
 74
     0
 42
0.0000000001
 43
0.0000000001
 40
0.0
 40
0.0
 40
0.0
 40
0.0
 40
0.2
 40
0.2
 40
0.2
 40
0.2
 40
0.4
 40
0.4
 40
0.4
 40
0.4
 40
0.6
 40
0.6
 40
0.6
 40
0.6
 40
1.0
 40
1.0
 40
1.0
 40
1.0
 10
-23.2139
 20
-18.6156
 30
0.0
 10
-23.2139
 20
-18.6156
 30
0.0
 10
-21.7587
 20
-18.6156
 30
0.0
 10
-21.7587
 20
-18.6156
 30
0.0
 10
-21.7587
 20
-18.6156
 30
0.0
 10
-21.7587
 20
-18.6156
 30
0.0
 10
-21.7587
 20
-31.6906
 30
0.0
 10
-21.7587
 20
-31.6906
 30
0.0
 10
-21.7587
 20
-31.6906
 30
0.0
 10
-21.7587
 20
-31.6906
 30
0.0
 10
-23.2139
 20
-31.6906
 30
0.0
 10
-23.2139
 20
-31.6906
 30
0.0
 10
-23.2139
 20
-31.6906
 30
0.0
 10
-23.2139
 20
-31.6906
 30
0.0
 10
-23.2139
 20
-18.6156
 30
0.0
 10
-23.2139
 20
-18.6156
 30
0.0
  0
SPLINE
  5
B7
330
1F
100
AcDbEntity
  8
Ilustrace
 62
   254
100
AcDbSpline
210
0.0
220
0.0
230
1.0
 70
    11
 71
     3
 72
    20
 73
    16
 74
     0
 42
0.0000000001
 43
0.0000000001
 40
0.0
 40
0.0
 40
0.0
 40
0.0
 40
0.2
 40
0.2
 40
0.2
 40
0.2
 40
0.4
 40
0.4
 40
0.4
 40
0.4
 40
0.6
 40
0.6
 40
0.6
 40
0.6
 40
1.0
 40
1.0
 40
1.0
 40
1.0
 10
-7.0194
 20
8.6475
 30
0.0
 10
-7.0194
 20
8.6475
 30
0.0
 10
-7.0194
 20
10.1027
 30
0.0
 10
-7.0194
 20
10.1027
 30
0.0
 10
-7.0194
 20
10.1027
 30
0.0
 10
-7.0194
 20
10.1027
 30
0.0
 10
6.0556
 20
10.1027
 30
0.0
 10
6.0556
 20
10.1027
 30
0.0
 10
6.0556
 20
10.1027
 30
0.0
 10
6.0556
 20
10.1027
 30
0.0
 10
6.0556
 20
8.6475
 30
0.0
 10
6.0556
 20
8.6475
 30
0.0
 10
6.0556
 20
8.6475
 30
0.0
 10
6.0556
 20
8.6475
 30
0.0
 10
-7.0194
 20
8.6475
 30
0.0
 10
-7.0194
 20
8.6475
 30
0.0
  0
SPLINE
  5
B8
330
1F
100
AcDbEntity
  8
Ilustrace
 62
   254
100
AcDbSpline
210
0.0
220
0.0
230
1.0
 70
    11
 71
     3
 72
    20
 73
    16
 74
     0
 42
0.0000000001
 43
0.0000000001
 40
0.0
 40
0.0
 40
0.0
 40
0.0
 40
0.2
 40
0.2
 40
0.2
 40
0.2
 40
0.4
 40
0.4
 40
0.4
 40
0.4
 40
0.6
 40
0.6
 40
0.6
 40
0.6
 40
1.0
 40
1.0
 40
1.0
 40
1.0
 10
-27.6236
 20
19.3739
 30
0.0
 10
-27.6236
 20
19.3739
 30
0.0
 10
-26.1684
 20
19.3739
 30
0.0
 10
-26.1684
 20
19.3739
 30
0.0
 10
-26.1684
 20
19.3739
 30
0.0
 10
-26.1684
 20
19.3739
 30
0.0
 10
-26.1684
 20
7.2033
 30
0.0
 10
-26.1684
 20
7.2033
 30
0.0
 10
-26.1684
 20
7.2033
 30
0.0
 10
-26.1684
 20
7.2033
 30
0.0
 10
-27.6236
 20
7.2033
 30
0.0
 10
-27.6236
 20
7.2033
 30
0.0
 10
-27.6236
 20
7.2033
 30
0.0
 10
-27.6236
 20
7.2033
 30
0.0
 10
-27.6236
 20
19.3739
 30
0.0
 10
-27.6236
 20
19.3739
 30
0.0
  0
SPLINE
  5
B9
330
1F
100
AcDbEntity
  8
Ilustrace
 62
   254
100
AcDbSpline
210
0.0
220
0.0
230
1.0
 70
    11
 71
     3
 72
    20
 73
    16
 74
     0
 42
0.0000000001
 43
0.0000000001
 40
0.0
 40
0.0
 40
0.0
 40
0.0
 40
0.2
 40
0.2
 40
0.2
 40
0.2
 40
0.4
 40
0.4
 40
0.4
 40
0.4
 40
0.6
 40
0.6
 40
0.6
 40
0.6
 40
1.0
 40
1.0
 40
1.0
 40
1.0
 10
-27.5354
 20
-1.8144
 30
0.0
 10
-27.5354
 20
-1.8144
 30
0.0
 10
-26.0802
 20
-1.8144
 30
0.0
 10
-26.0802
 20
-1.8144
 30
0.0
 10
-26.0802
 20
-1.8144
 30
0.0
 10
-26.0802
 20
-1.8144
 30
0.0
 10
-26.0802
 20
-14.8894
 30
0.0
 10
-26.0802
 20
-14.8894
 30
0.0
 10
-26.0802
 20
-14.8894
 30
0.0
 10
-26.0802
 20
-14.8894
 30
0.0
 10
-27.5354
 20
-14.8894
 30
0.0
 10
-27.5354
 20
-14.8894
 30
0.0
 10
-27.5354
 20
-14.8894
 30
0.0
 10
-27.5354
 20
-14.8894
 30
0.0
 10
-27.5354
 20
-1.8144
 30
0.0
 10
-27.5354
 20
-1.8144
 30
0.0
  0
SPLINE
  5
BA
330
1F
100
AcDbEntity
  8
Ilustrace
 62
   254
100
AcDbSpline
210
0.0
220
0.0
230
1.0
 70
    11
 71
     3
 72
    20
 73
    16
 74
     0
 42
0.0000000001
 43
0.0000000001
 40
0.0
 40
0.0
 40
0.0
 40
0.0
 40
0.2
 40
0.2
 40
0.2
 40
0.2
 40
0.4
 40
0.4
 40
0.4
 40
0.4
 40
0.6
 40
0.6
 40
0.6
 40
0.6
 40
1.0
 40
1.0
 40
1.0
 40
1.0
 10
9.7376
 20
8.6034
 30
0.0
 10
9.7376
 20
8.6034
 30
0.0
 10
9.7376
 20
10.0586
 30
0.0
 10
9.7376
 20
10.0586
 30
0.0
 10
9.7376
 20
10.0586
 30
0.0
 10
9.7376
 20
10.0586
 30
0.0
 10
22.8126
 20
10.0586
 30
0.0
 10
22.8126
 20
10.0586
 30
0.0
 10
22.8126
 20
10.0586
 30
0.0
 10
22.8126
 20
10.0586
 30
0.0
 10
22.8126
 20
8.6034
 30
0.0
 10
22.8126
 20
8.6034
 30
0.0
 10
22.8126
 20
8.6034
 30
0.0
 10
22.8126
 20
8.6034
 30
0.0
 10
9.7376
 20
8.6034
 30
0.0
 10
9.7376
 20
8.6034
 30
0.0
  0
SPLINE
  5
BB
330
1F
100
AcDbEntity
  8
Ilustrace
 62
   254
100
AcDbSpline
210
0.0
220
0.0
230
1.0
 70
    11
 71
     3
 72
    20
 73
    16
 74
     0
 42
0.0000000001
 43
0.0000000001
 40
0.0
 40
0.0
 40
0.0
 40
0.0
 40
0.2
 40
0.2
 40
0.2
 40
0.2
 40
0.4
 40
0.4
 40
0.4
 40
0.4
 40
0.6
 40
0.6
 40
0.6
 40
0.6
 40
1.0
 40
1.0
 40
1.0
 40
1.0
 10
-27.5795
 20
-18.5714
 30
0.0
 10
-27.5795
 20
-18.5714
 30
0.0
 10
-26.1243
 20
-18.5714
 30
0.0
 10
-26.1243
 20
-18.5714
 30
0.0
 10
-26.1243
 20
-18.5714
 30
0.0
 10
-26.1243
 20
-18.5714
 30
0.0
 10
-26.1243
 20
-31.6464
 30
0.0
 10
-26.1243
 20
-31.6464
 30
0.0
 10
-26.1243
 20
-31.6464
 30
0.0
 10
-26.1243
 20
-31.6464
 30
0.0
 10
-27.5795
 20
-31.6464
 30
0.0
 10
-27.5795
 20
-31.6464
 30
0.0
 10
-27.5795
 20
-31.6464
 30
0.0
 10
-27.5795
 20
-31.6464
 30
0.0
 10
-27.5795
 20
-18.5714
 30
0.0
 10
-27.5795
 20
-18.5714
 30
0.0
  0
SPLINE
  5
BC
330
1F
100
AcDbEntity
  8
Ilustrace
 62
   250
370
    30
100
AcDbSpline
210
0.0
220
0.0
230
1.0
 70
    24
 71
     3
 72
     8
 73
     4
 74
     0
 42
0.0000000001
 43
0.0000000001
 40
0.0
 40
0.0
 40
0.0
 40
0.0
 40
1.0
 40
1.0
 40
1.0
 40
1.0
 10
-31.5575
 20
22.4346
 30
0.0
 10
-31.5575
 20
22.4346
 30
0.0
 10
-31.5575
 20
-37.4605
 30
0.0
 10
-31.5575
 20
-37.4605
 30
0.0
  0
SPLINE
  5
BD
330
1F
100
AcDbEntity
  8
Ilustrace
 62
   250
370
    30
100
AcDbSpline
210
0.0
220
0.0
230
1.0
 70
    24
 71
     3
 72
     8
 73
     4
 74
     0
 42
0.0000000001
 43
0.0000000001
 40
0.0
 40
0.0
 40
0.0
 40
0.0
 40
1.0
 40
1.0
 40
1.0
 40
1.0
 10
-30.5653
 20
-37.4605
 30
0.0
 10
-30.5653
 20
-37.4605
 30
0.0
 10
-28.4114
 20
-37.4605
 30
0.0
 10
-28.4114
 20
-37.4605
 30
0.0
  0
SPLINE
  5
BE
330
1F
100
AcDbEntity
  8
Ilustrace
 62
   250
370
    30
100
AcDbSpline
210
0.0
220
0.0
230
1.0
 70
    24
 71
     3
 72
     8
 73
     4
 74
     0
 42
0.0000000001
 43
0.0000000001
 40
0.0
 40
0.0
 40
0.0
 40
0.0
 40
1.0
 40
1.0
 40
1.0
 40
1.0
 10
-13.4075
 20
-37.4605
 30
0.0
 10
-13.4075
 20
-37.4605
 30
0.0
 10
-31.5575
 20
-37.4605
 30
0.0
 10
-31.5575
 20
-37.4605
 30
0.0
  0
SPLINE
  5
BF
330
1F
100
AcDbEntity
  8
Ilustrace
 62
   250
370
    30
100
AcDbSpline
210
0.0
220
0.0
230
1.0
 70
    24
 71
     3
 72
     8
 73
     4
 74
     0
 42
0.0000000001
 43
0.0000000001
 40
0.0
 40
0.0
 40
0.0
 40
0.0
 40
1.0
 40
1.0
 40
1.0
 40
1.0
 10
-14.3996
 20
-37.4605
 30
0.0
 10
-14.3996
 20
-37.4605
 30
0.0
 10
-16.5535
 20
-37.4605
 30
0.0
 10
-16.5535
 20
-37.4605
 30
0.0
  0
SPLINE
  5
C0
330
1F
100
AcDbEntity
  8
Ilustrace
 62
   250
370
    30
100
AcDbSpline
210
0.0
220
0.0
230
1.0
 70
    24
 71
     3
 72
     8
 73
     4
 74
     0
 42
0.0000000001
 43
0.0000000001
 40
0.0
 40
0.0
 40
0.0
 40
0.0
 40
1.0
 40
1.0
 40
1.0
 40
1.0
 10
28.7005
 20
4.6725
 30
0.0
 10
28.7005
 20
4.6725
 30
0.0
 10
28.7005
 20
5.6398
 30
0.0
 10
28.7005
 20
5.6398
 30
0.0
  0
SPLINE
  5
C1
330
1F
100
AcDbEntity
  8
Ilustrace
 62
   250
370
    30
100
AcDbSpline
210
0.0
220
0.0
230
1.0
 70
    24
 71
     3
 72
     8
 73
     4
 74
     0
 42
0.0000000001
 43
0.0000000001
 40
0.0
 40
0.0
 40
0.0
 40
0.0
 40
1.0
 40
1.0
 40
1.0
 40
1.0
 10
28.7005
 20
22.7975
 30
0.0
 10
28.7005
 20
22.7975
 30
0.0
 10
28.7005
 20
4.6475
 30
0.0
 10
28.7005
 20
4.6475
 30
0.0
  0
SPLINE
  5
C2
330
1F
100
AcDbEntity
  8
Ilustrace
 62
   250
370
    30
100
AcDbSpline
210
0.0
220
0.0
230
1.0
 70
    24
 71
     3
 72
     8
 73
     4
 74
     0
 42
0.0000000001
 43
0.0000000001
 40
0.0
 40
0.0
 40
0.0
 40
0.0
 40
1.0
 40
1.0
 40
1.0
 40
1.0
 10
-18.8525
 20
20.2566
 30
0.0
 10
-18.8525
 20
20.2566
 30
0.0
 10
-18.8525
 20
7.1886
 30
0.0
 10
-18.8525
 20
7.1886
 30
0.0
  0
SPLINE
  5
C3
330
1F
100
AcDbEntity
  8
Ilustrace
 62
   250
370
    30
100
AcDbSpline
210
0.0
220
0.0
230
1.0
 70
    24
 71
     3
 72
     8
 73
     4
 74
     0
 42
0.0000000001
 43
0.0000000001
 40
0.0
 40
0.0
 40
0.0
 40
0.0
 40
1.0
 40
1.0
 40
1.0
 40
1.0
 10
-23.2085
 20
7.1886
 30
0.0
 10
-23.2085
 20
7.1886
 30
0.0
 10
-21.7564
 20
7.1886
 30
0.0
 10
-21.7564
 20
7.1886
 30
0.0
  0
SPLINE
  5
C4
330
1F
100
AcDbEntity
  8
Ilustrace
 62
   250
370
    30
100
AcDbSpline
210
0.0
220
0.0
230
1.0
 70
    24
 71
     3
 72
     8
 73
     4
 74
     0
 42
0.0000000001
 43
0.0000000001
 40
0.0
 40
0.0
 40
0.0
 40
0.0
 40
1.0
 40
1.0
 40
1.0
 40
1.0
 10
-17.4004
 20
20.2566
 30
0.0
 10
-17.4004
 20
20.2566
 30
0.0
 10
-17.4004
 20
7.1886
 30
0.0
 10
-17.4004
 20
7.1886
 30
0.0
  0
SPLINE
  5
C5
330
1F
100
AcDbEntity
  8
Ilustrace
 62
   250
370
    30
100
AcDbSpline
210
0.0
220
0.0
230
1.0
 70
    24
 71
     3
 72
     8
 73
     4
 74
     0
 42
0.0000000001
 43
0.0000000001
 40
0.0
 40
0.0
 40
0.0
 40
0.0
 40
1.0
 40
1.0
 40
1.0
 40
1.0
 10
-18.8525
 20
7.1886
 30
0.0
 10
-18.8525
 20
7.1886
 30
0.0
 10
-17.4004
 20
7.1886
 30
0.0
 10
-17.4004
 20
7.1886
 30
0.0
  0
SPLINE
  5
C6
330
1F
100
AcDbEntity
  8
Ilustrace
 62
   250
370
    30
100
AcDbSpline
210
0.0
220
0.0
230
1.0
 70
    24
 71
     3
 72
     8
 73
     4
 74
     0
 42
0.0000000001
 43
0.0000000001
 40
0.0
 40
0.0
 40
0.0
 40
0.0
 40
1.0
 40
1.0
 40
1.0
 40
1.0
 10
-21.7564
 20
20.2566
 30
0.0
 10
-21.7564
 20
20.2566
 30
0.0
 10
-21.7564
 20
7.1886
 30
0.0
 10
-21.7564
 20
7.1886
 30
0.0
  0
SPLINE
  5
C7
330
1F
100
AcDbEntity
  8
Ilustrace
 62
   250
370
    30
100
AcDbSpline
210
0.0
220
0.0
230
1.0
 70
    24
 71
     3
 72
     8
 73
     4
 74
     0
 42
0.0000000001
 43
0.0000000001
 40
0.0
 40
0.0
 40
0.0
 40
0.0
 40
1.0
 40
1.0
 40
1.0
 40
1.0
 10
-27.5645
 20
7.1886
 30
0.0
 10
-27.5645
 20
7.1886
 30
0.0
 10
-26.1125
 20
7.1886
 30
0.0
 10
-26.1125
 20
7.1886
 30
0.0
  0
SPLINE
  5
C8
330
1F
100
AcDbEntity
  8
Ilustrace
 62
   250
370
    30
100
AcDbSpline
210
0.0
220
0.0
230
1.0
 70
    24
 71
     3
 72
     8
 73
     4
 74
     0
 42
0.0000000001
 43
0.0000000001
 40
0.0
 40
0.0
 40
0.0
 40
0.0
 40
1.0
 40
1.0
 40
1.0
 40
1.0
 10
-23.2085
 20
20.2566
 30
0.0
 10
-23.2085
 20
20.2566
 30
0.0
 10
-23.2085
 20
7.1886
 30
0.0
 10
-23.2085
 20
7.1886
 30
0.0
  0
SPLINE
  5
C9
330
1F
100
AcDbEntity
  8
Ilustrace
 62
   250
370
    30
100
AcDbSpline
210
0.0
220
0.0
230
1.0
 70
    24
 71
     3
 72
     8
 73
     4
 74
     0
 42
0.0000000001
 43
0.0000000001
 40
0.0
 40
0.0
 40
0.0
 40
0.0
 40
1.0
 40
1.0
 40
1.0
 40
1.0
 10
-26.1125
 20
20.2566
 30
0.0
 10
-26.1125
 20
20.2566
 30
0.0
 10
-26.1125
 20
7.1886
 30
0.0
 10
-26.1125
 20
7.1886
 30
0.0
  0
SPLINE
  5
CA
330
1F
100
AcDbEntity
  8
Ilustrace
 62
   250
370
    30
100
AcDbSpline
210
0.0
220
0.0
230
1.0
 70
    24
 71
     3
 72
     8
 73
     4
 74
     0
 42
0.0000000001
 43
0.0000000001
 40
0.0
 40
0.0
 40
0.0
 40
0.0
 40
1.0
 40
1.0
 40
1.0
 40
1.0
 10
-27.5645
 20
7.1886
 30
0.0
 10
-27.5645
 20
7.1886
 30
0.0
 10
-27.5645
 20
20.2566
 30
0.0
 10
-27.5645
 20
20.2566
 30
0.0
  0
SPLINE
  5
CB
330
1F
100
AcDbEntity
  8
Ilustrace
 62
   250
370
    30
100
AcDbSpline
210
0.0
220
0.0
230
1.0
 70
    24
 71
     3
 72
     8
 73
     4
 74
     0
 42
0.0000000001
 43
0.0000000001
 40
0.0
 40
0.0
 40
0.0
 40
0.0
 40
1.0
 40
1.0
 40
1.0
 40
1.0
 10
28.7005
 20
22.7975
 30
0.0
 10
28.7005
 20
22.7975
 30
0.0
 10
-31.1944
 20
22.7975
 30
0.0
 10
-31.1944
 20
22.7975
 30
0.0
  0
SPLINE
  5
CC
330
1F
100
AcDbEntity
  8
Ilustrace
 62
   250
370
    30
100
AcDbSpline
210
0.0
220
0.0
230
1.0
 70
    24
 71
     3
 72
     8
 73
     4
 74
     0
 42
0.0000000001
 43
0.0000000001
 40
0.0
 40
0.0
 40
0.0
 40
0.0
 40
1.0
 40
1.0
 40
1.0
 40
1.0
 10
23.1345
 20
22.7977
 30
0.0
 10
23.1345
 20
22.7977
 30
0.0
 10
-29.9209
 20
22.7975
 30
0.0
 10
-29.9209
 20
22.7975
 30
0.0
  0
SPLINE
  5
CD
330
1F
100
AcDbEntity
  8
Ilustrace
 62
   250
370
    30
100
AcDbSpline
210
0.0
220
0.0
230
1.0
 70
    24
 71
     3
 72
     8
 73
     4
 74
     0
 42
0.0000000001
 43
0.0000000001
 40
0.0
 40
0.0
 40
0.0
 40
0.0
 40
1.0
 40
1.0
 40
1.0
 40
1.0
 10
-27.5645
 20
19.4097
 30
0.0
 10
-27.5645
 20
19.4097
 30
0.0
 10
-26.1125
 20
19.4097
 30
0.0
 10
-26.1125
 20
19.4097
 30
0.0
  0
SPLINE
  5
CE
330
1F
100
AcDbEntity
  8
Ilustrace
 62
   250
370
    30
100
AcDbSpline
210
0.0
220
0.0
230
1.0
 70
    24
 71
     3
 72
     8
 73
     4
 74
     0
 42
0.0000000001
 43
0.0000000001
 40
0.0
 40
0.0
 40
0.0
 40
0.0
 40
1.0
 40
1.0
 40
1.0
 40
1.0
 10
-26.1125
 20
20.2566
 30
0.0
 10
-26.1125
 20
20.2566
 30
0.0
 10
-27.5645
 20
20.2566
 30
0.0
 10
-27.5645
 20
20.2566
 30
0.0
  0
SPLINE
  5
CF
330
1F
100
AcDbEntity
  8
Ilustrace
 62
   250
370
    30
100
AcDbSpline
210
0.0
220
0.0
230
1.0
 70
    24
 71
     3
 72
     8
 73
     4
 74
     0
 42
0.0000000001
 43
0.0000000001
 40
0.0
 40
0.0
 40
0.0
 40
0.0
 40
1.0
 40
1.0
 40
1.0
 40
1.0
 10
-29.7902
 20
22.7975
 30
0.0
 10
-29.7902
 20
22.7975
 30
0.0
 10
-25.9914
 20
22.7977
 30
0.0
 10
-25.9914
 20
22.7977
 30
0.0
  0
SPLINE
  5
D0
330
1F
100
AcDbEntity
  8
Ilustrace
 62
   250
370
    30
100
AcDbSpline
210
0.0
220
0.0
230
1.0
 70
    24
 71
     3
 72
     8
 73
     4
 74
     0
 42
0.0000000001
 43
0.0000000001
 40
0.0
 40
0.0
 40
0.0
 40
0.0
 40
1.0
 40
1.0
 40
1.0
 40
1.0
 10
-23.2085
 20
19.4097
 30
0.0
 10
-23.2085
 20
19.4097
 30
0.0
 10
-21.7564
 20
19.4097
 30
0.0
 10
-21.7564
 20
19.4097
 30
0.0
  0
SPLINE
  5
D1
330
1F
100
AcDbEntity
  8
Ilustrace
 62
   250
370
    30
100
AcDbSpline
210
0.0
220
0.0
230
1.0
 70
    24
 71
     3
 72
     8
 73
     4
 74
     0
 42
0.0000000001
 43
0.0000000001
 40
0.0
 40
0.0
 40
0.0
 40
0.0
 40
1.0
 40
1.0
 40
1.0
 40
1.0
 10
-23.2085
 20
20.2566
 30
0.0
 10
-23.2085
 20
20.2566
 30
0.0
 10
-21.7564
 20
20.2566
 30
0.0
 10
-21.7564
 20
20.2566
 30
0.0
  0
SPLINE
  5
D2
330
1F
100
AcDbEntity
  8
Ilustrace
 62
   250
370
    30
100
AcDbSpline
210
0.0
220
0.0
230
1.0
 70
    24
 71
     3
 72
     8
 73
     4
 74
     0
 42
0.0000000001
 43
0.0000000001
 40
0.0
 40
0.0
 40
0.0
 40
0.0
 40
1.0
 40
1.0
 40
1.0
 40
1.0
 10
22.316
 20
22.7977
 30
0.0
 10
22.316
 20
22.7977
 30
0.0
 10
-25.1729
 20
22.7977
 30
0.0
 10
-25.1729
 20
22.7977
 30
0.0
  0
SPLINE
  5
D3
330
1F
100
AcDbEntity
  8
Ilustrace
 62
   250
370
    30
100
AcDbSpline
210
0.0
220
0.0
230
1.0
 70
    24
 71
     3
 72
     8
 73
     4
 74
     0
 42
0.0000000001
 43
0.0000000001
 40
0.0
 40
0.0
 40
0.0
 40
0.0
 40
1.0
 40
1.0
 40
1.0
 40
1.0
 10
-25.9914
 20
22.7975
 30
0.0
 10
-25.9914
 20
22.7975
 30
0.0
 10
-31.1916
 20
22.7975
 30
0.0
 10
-31.1916
 20
22.7975
 30
0.0
  0
SPLINE
  5
D4
330
1F
100
AcDbEntity
  8
Ilustrace
 62
   250
370
    30
100
AcDbSpline
210
0.0
220
0.0
230
1.0
 70
    24
 71
     3
 72
     8
 73
     4
 74
     0
 42
0.0000000001
 43
0.0000000001
 40
0.0
 40
0.0
 40
0.0
 40
0.0
 40
1.0
 40
1.0
 40
1.0
 40
1.0
 10
-25.9896
 20
22.7977
 30
0.0
 10
-25.9896
 20
22.7977
 30
0.0
 10
-29.9209
 20
22.7975
 30
0.0
 10
-29.9209
 20
22.7975
 30
0.0
  0
SPLINE
  5
D5
330
1F
100
AcDbEntity
  8
Ilustrace
 62
   250
370
    30
100
AcDbSpline
210
0.0
220
0.0
230
1.0
 70
    24
 71
     3
 72
     8
 73
     4
 74
     0
 42
0.0000000001
 43
0.0000000001
 40
0.0
 40
0.0
 40
0.0
 40
0.0
 40
1.0
 40
1.0
 40
1.0
 40
1.0
 10
-25.9836
 20
22.7977
 30
0.0
 10
-25.9836
 20
22.7977
 30
0.0
 10
-29.9195
 20
22.7975
 30
0.0
 10
-29.9195
 20
22.7975
 30
0.0
  0
SPLINE
  5
D6
330
1F
100
AcDbEntity
  8
Ilustrace
 62
   250
370
    30
100
AcDbSpline
210
0.0
220
0.0
230
1.0
 70
    24
 71
     3
 72
     8
 73
     4
 74
     0
 42
0.0000000001
 43
0.0000000001
 40
0.0
 40
0.0
 40
0.0
 40
0.0
 40
1.0
 40
1.0
 40
1.0
 40
1.0
 10
-25.9914
 20
22.7977
 30
0.0
 10
-25.9914
 20
22.7977
 30
0.0
 10
-29.9172
 20
22.7975
 30
0.0
 10
-29.9172
 20
22.7975
 30
0.0
  0
SPLINE
  5
D7
330
1F
100
AcDbEntity
  8
Ilustrace
 62
   250
370
    30
100
AcDbSpline
210
0.0
220
0.0
230
1.0
 70
    24
 71
     3
 72
     8
 73
     4
 74
     0
 42
0.0000000001
 43
0.0000000001
 40
0.0
 40
0.0
 40
0.0
 40
0.0
 40
1.0
 40
1.0
 40
1.0
 40
1.0
 10
-25.9914
 20
22.7977
 30
0.0
 10
-25.9914
 20
22.7977
 30
0.0
 10
-29.914
 20
22.7975
 30
0.0
 10
-29.914
 20
22.7975
 30
0.0
  0
SPLINE
  5
D8
330
1F
100
AcDbEntity
  8
Ilustrace
 62
   250
370
    30
100
AcDbSpline
210
0.0
220
0.0
230
1.0
 70
    24
 71
     3
 72
     8
 73
     4
 74
     0
 42
0.0000000001
 43
0.0000000001
 40
0.0
 40
0.0
 40
0.0
 40
0.0
 40
1.0
 40
1.0
 40
1.0
 40
1.0
 10
-25.9914
 20
22.7977
 30
0.0
 10
-25.9914
 20
22.7977
 30
0.0
 10
-29.91
 20
22.7975
 30
0.0
 10
-29.91
 20
22.7975
 30
0.0
  0
SPLINE
  5
D9
330
1F
100
AcDbEntity
  8
Ilustrace
 62
   250
370
    30
100
AcDbSpline
210
0.0
220
0.0
230
1.0
 70
    24
 71
     3
 72
     8
 73
     4
 74
     0
 42
0.0000000001
 43
0.0000000001
 40
0.0
 40
0.0
 40
0.0
 40
0.0
 40
1.0
 40
1.0
 40
1.0
 40
1.0
 10
-25.9914
 20
22.7977
 30
0.0
 10
-25.9914
 20
22.7977
 30
0.0
 10
-29.905
 20
22.7975
 30
0.0
 10
-29.905
 20
22.7975
 30
0.0
  0
SPLINE
  5
DA
330
1F
100
AcDbEntity
  8
Ilustrace
 62
   250
370
    30
100
AcDbSpline
210
0.0
220
0.0
230
1.0
 70
    24
 71
     3
 72
     8
 73
     4
 74
     0
 42
0.0000000001
 43
0.0000000001
 40
0.0
 40
0.0
 40
0.0
 40
0.0
 40
1.0
 40
1.0
 40
1.0
 40
1.0
 10
-25.9914
 20
22.7977
 30
0.0
 10
-25.9914
 20
22.7977
 30
0.0
 10
-29.8993
 20
22.7975
 30
0.0
 10
-29.8993
 20
22.7975
 30
0.0
  0
SPLINE
  5
DB
330
1F
100
AcDbEntity
  8
Ilustrace
 62
   250
370
    30
100
AcDbSpline
210
0.0
220
0.0
230
1.0
 70
    24
 71
     3
 72
     8
 73
     4
 74
     0
 42
0.0000000001
 43
0.0000000001
 40
0.0
 40
0.0
 40
0.0
 40
0.0
 40
1.0
 40
1.0
 40
1.0
 40
1.0
 10
-25.9914
 20
22.7977
 30
0.0
 10
-25.9914
 20
22.7977
 30
0.0
 10
-29.8928
 20
22.7975
 30
0.0
 10
-29.8928
 20
22.7975
 30
0.0
  0
SPLINE
  5
DC
330
1F
100
AcDbEntity
  8
Ilustrace
 62
   250
370
    30
100
AcDbSpline
210
0.0
220
0.0
230
1.0
 70
    24
 71
     3
 72
     8
 73
     4
 74
     0
 42
0.0000000001
 43
0.0000000001
 40
0.0
 40
0.0
 40
0.0
 40
0.0
 40
1.0
 40
1.0
 40
1.0
 40
1.0
 10
-25.9914
 20
22.7977
 30
0.0
 10
-25.9914
 20
22.7977
 30
0.0
 10
-29.8856
 20
22.7975
 30
0.0
 10
-29.8856
 20
22.7975
 30
0.0
  0
SPLINE
  5
DD
330
1F
100
AcDbEntity
  8
Ilustrace
 62
   250
370
    30
100
AcDbSpline
210
0.0
220
0.0
230
1.0
 70
    24
 71
     3
 72
     8
 73
     4
 74
     0
 42
0.0000000001
 43
0.0000000001
 40
0.0
 40
0.0
 40
0.0
 40
0.0
 40
1.0
 40
1.0
 40
1.0
 40
1.0
 10
-25.9914
 20
22.7977
 30
0.0
 10
-25.9914
 20
22.7977
 30
0.0
 10
-29.8777
 20
22.7975
 30
0.0
 10
-29.8777
 20
22.7975
 30
0.0
  0
SPLINE
  5
DE
330
1F
100
AcDbEntity
  8
Ilustrace
 62
   250
370
    30
100
AcDbSpline
210
0.0
220
0.0
230
1.0
 70
    24
 71
     3
 72
     8
 73
     4
 74
     0
 42
0.0000000001
 43
0.0000000001
 40
0.0
 40
0.0
 40
0.0
 40
0.0
 40
1.0
 40
1.0
 40
1.0
 40
1.0
 10
-25.9914
 20
22.7977
 30
0.0
 10
-25.9914
 20
22.7977
 30
0.0
 10
-29.8693
 20
22.7975
 30
0.0
 10
-29.8693
 20
22.7975
 30
0.0
  0
SPLINE
  5
DF
330
1F
100
AcDbEntity
  8
Ilustrace
 62
   250
370
    30
100
AcDbSpline
210
0.0
220
0.0
230
1.0
 70
    24
 71
     3
 72
     8
 73
     4
 74
     0
 42
0.0000000001
 43
0.0000000001
 40
0.0
 40
0.0
 40
0.0
 40
0.0
 40
1.0
 40
1.0
 40
1.0
 40
1.0
 10
-25.9914
 20
22.7977
 30
0.0
 10
-25.9914
 20
22.7977
 30
0.0
 10
-29.8604
 20
22.7975
 30
0.0
 10
-29.8604
 20
22.7975
 30
0.0
  0
SPLINE
  5
E0
330
1F
100
AcDbEntity
  8
Ilustrace
 62
   250
370
    30
100
AcDbSpline
210
0.0
220
0.0
230
1.0
 70
    24
 71
     3
 72
     8
 73
     4
 74
     0
 42
0.0000000001
 43
0.0000000001
 40
0.0
 40
0.0
 40
0.0
 40
0.0
 40
1.0
 40
1.0
 40
1.0
 40
1.0
 10
-25.9914
 20
22.7977
 30
0.0
 10
-25.9914
 20
22.7977
 30
0.0
 10
-29.8511
 20
22.7975
 30
0.0
 10
-29.8511
 20
22.7975
 30
0.0
  0
SPLINE
  5
E1
330
1F
100
AcDbEntity
  8
Ilustrace
 62
   250
370
    30
100
AcDbSpline
210
0.0
220
0.0
230
1.0
 70
    24
 71
     3
 72
     8
 73
     4
 74
     0
 42
0.0000000001
 43
0.0000000001
 40
0.0
 40
0.0
 40
0.0
 40
0.0
 40
1.0
 40
1.0
 40
1.0
 40
1.0
 10
-25.9914
 20
22.7977
 30
0.0
 10
-25.9914
 20
22.7977
 30
0.0
 10
-29.8413
 20
22.7975
 30
0.0
 10
-29.8413
 20
22.7975
 30
0.0
  0
SPLINE
  5
E2
330
1F
100
AcDbEntity
  8
Ilustrace
 62
   250
370
    30
100
AcDbSpline
210
0.0
220
0.0
230
1.0
 70
    24
 71
     3
 72
     8
 73
     4
 74
     0
 42
0.0000000001
 43
0.0000000001
 40
0.0
 40
0.0
 40
0.0
 40
0.0
 40
1.0
 40
1.0
 40
1.0
 40
1.0
 10
-25.9914
 20
22.7977
 30
0.0
 10
-25.9914
 20
22.7977
 30
0.0
 10
-29.8314
 20
22.7975
 30
0.0
 10
-29.8314
 20
22.7975
 30
0.0
  0
SPLINE
  5
E3
330
1F
100
AcDbEntity
  8
Ilustrace
 62
   250
370
    30
100
AcDbSpline
210
0.0
220
0.0
230
1.0
 70
    24
 71
     3
 72
     8
 73
     4
 74
     0
 42
0.0000000001
 43
0.0000000001
 40
0.0
 40
0.0
 40
0.0
 40
0.0
 40
1.0
 40
1.0
 40
1.0
 40
1.0
 10
-25.9914
 20
22.7977
 30
0.0
 10
-25.9914
 20
22.7977
 30
0.0
 10
-29.8212
 20
22.7975
 30
0.0
 10
-29.8212
 20
22.7975
 30
0.0
  0
SPLINE
  5
E4
330
1F
100
AcDbEntity
  8
Ilustrace
 62
   250
370
    30
100
AcDbSpline
210
0.0
220
0.0
230
1.0
 70
    24
 71
     3
 72
     8
 73
     4
 74
     0
 42
0.0000000001
 43
0.0000000001
 40
0.0
 40
0.0
 40
0.0
 40
0.0
 40
1.0
 40
1.0
 40
1.0
 40
1.0
 10
-25.3579
 20
22.7977
 30
0.0
 10
-25.3579
 20
22.7977
 30
0.0
 10
22.4603
 20
22.7977
 30
0.0
 10
22.4603
 20
22.7977
 30
0.0
  0
SPLINE
  5
E5
330
1F
100
AcDbEntity
  8
Ilustrace
 62
   250
370
    30
100
AcDbSpline
210
0.0
220
0.0
230
1.0
 70
    24
 71
     3
 72
     8
 73
     4
 74
     0
 42
0.0000000001
 43
0.0000000001
 40
0.0
 40
0.0
 40
0.0
 40
0.0
 40
1.0
 40
1.0
 40
1.0
 40
1.0
 10
22.8925
 20
17.3526
 30
0.0
 10
22.8925
 20
17.3526
 30
0.0
 10
22.8925
 20
18.8045
 30
0.0
 10
22.8925
 20
18.8045
 30
0.0
  0
SPLINE
  5
E6
330
1F
100
AcDbEntity
  8
Ilustrace
 62
   250
370
    30
100
AcDbSpline
210
0.0
220
0.0
230
1.0
 70
    24
 71
     3
 72
     8
 73
     4
 74
     0
 42
0.0000000001
 43
0.0000000001
 40
0.0
 40
0.0
 40
0.0
 40
0.0
 40
1.0
 40
1.0
 40
1.0
 40
1.0
 10
22.2861
 20
22.7977
 30
0.0
 10
22.2861
 20
22.7977
 30
0.0
 10
-25.143
 20
22.7977
 30
0.0
 10
-25.143
 20
22.7977
 30
0.0
  0
SPLINE
  5
E7
330
1F
100
AcDbEntity
  8
Ilustrace
 62
   250
370
    30
100
AcDbSpline
210
0.0
220
0.0
230
1.0
 70
    24
 71
     3
 72
     8
 73
     4
 74
     0
 42
0.0000000001
 43
0.0000000001
 40
0.0
 40
0.0
 40
0.0
 40
0.0
 40
1.0
 40
1.0
 40
1.0
 40
1.0
 10
22.259
 20
22.7977
 30
0.0
 10
22.259
 20
22.7977
 30
0.0
 10
-25.1159
 20
22.7977
 30
0.0
 10
-25.1159
 20
22.7977
 30
0.0
  0
SPLINE
  5
E8
330
1F
100
AcDbEntity
  8
Ilustrace
 62
   250
370
    30
100
AcDbSpline
210
0.0
220
0.0
230
1.0
 70
    24
 71
     3
 72
     8
 73
     4
 74
     0
 42
0.0000000001
 43
0.0000000001
 40
0.0
 40
0.0
 40
0.0
 40
0.0
 40
1.0
 40
1.0
 40
1.0
 40
1.0
 10
22.2145
 20
22.7977
 30
0.0
 10
22.2145
 20
22.7977
 30
0.0
 10
-25.0714
 20
22.7977
 30
0.0
 10
-25.0714
 20
22.7977
 30
0.0
  0
SPLINE
  5
E9
330
1F
100
AcDbEntity
  8
Ilustrace
 62
   250
370
    30
100
AcDbSpline
210
0.0
220
0.0
230
1.0
 70
    24
 71
     3
 72
     8
 73
     4
 74
     0
 42
0.0000000001
 43
0.0000000001
 40
0.0
 40
0.0
 40
0.0
 40
0.0
 40
1.0
 40
1.0
 40
1.0
 40
1.0
 10
22.1839
 20
22.7977
 30
0.0
 10
22.1839
 20
22.7977
 30
0.0
 10
-25.0543
 20
22.7977
 30
0.0
 10
-25.0543
 20
22.7977
 30
0.0
  0
SPLINE
  5
EA
330
1F
100
AcDbEntity
  8
Ilustrace
 62
   250
370
    30
100
AcDbSpline
210
0.0
220
0.0
230
1.0
 70
    24
 71
     3
 72
     8
 73
     4
 74
     0
 42
0.0000000001
 43
0.0000000001
 40
0.0
 40
0.0
 40
0.0
 40
0.0
 40
1.0
 40
1.0
 40
1.0
 40
1.0
 10
22.1742
 20
22.7977
 30
0.0
 10
22.1742
 20
22.7977
 30
0.0
 10
-25.0313
 20
22.7977
 30
0.0
 10
-25.0313
 20
22.7977
 30
0.0
  0
SPLINE
  5
EB
330
1F
100
AcDbEntity
  8
Ilustrace
 62
   250
370
    30
100
AcDbSpline
210
0.0
220
0.0
230
1.0
 70
    24
 71
     3
 72
     8
 73
     4
 74
     0
 42
0.0000000001
 43
0.0000000001
 40
0.0
 40
0.0
 40
0.0
 40
0.0
 40
1.0
 40
1.0
 40
1.0
 40
1.0
 10
22.1665
 20
22.7975
 30
0.0
 10
22.1665
 20
22.7975
 30
0.0
 10
-25.0235
 20
22.7975
 30
0.0
 10
-25.0235
 20
22.7975
 30
0.0
  0
SPLINE
  5
EC
330
1F
100
AcDbEntity
  8
Ilustrace
 62
   250
370
    30
100
AcDbSpline
210
0.0
220
0.0
230
1.0
 70
    24
 71
     3
 72
     8
 73
     4
 74
     0
 42
0.0000000001
 43
0.0000000001
 40
0.0
 40
0.0
 40
0.0
 40
0.0
 40
1.0
 40
1.0
 40
1.0
 40
1.0
 10
22.1665
 20
22.7977
 30
0.0
 10
22.1665
 20
22.7977
 30
0.0
 10
-25.0235
 20
22.7977
 30
0.0
 10
-25.0235
 20
22.7977
 30
0.0
  0
SPLINE
  5
ED
330
1F
100
AcDbEntity
  8
Ilustrace
 62
   250
370
    30
100
AcDbSpline
210
0.0
220
0.0
230
1.0
 70
    24
 71
     3
 72
     8
 73
     4
 74
     0
 42
0.0000000001
 43
0.0000000001
 40
0.0
 40
0.0
 40
0.0
 40
0.0
 40
1.0
 40
1.0
 40
1.0
 40
1.0
 10
-25.2057
 20
22.7977
 30
0.0
 10
-25.2057
 20
22.7977
 30
0.0
 10
22.3488
 20
22.7977
 30
0.0
 10
22.3488
 20
22.7977
 30
0.0
  0
SPLINE
  5
EE
330
1F
100
AcDbEntity
  8
Ilustrace
 62
   250
370
    30
100
AcDbSpline
210
0.0
220
0.0
230
1.0
 70
    24
 71
     3
 72
     8
 73
     4
 74
     0
 42
0.0000000001
 43
0.0000000001
 40
0.0
 40
0.0
 40
0.0
 40
0.0
 40
1.0
 40
1.0
 40
1.0
 40
1.0
 10
23.1268
 20
22.7977
 30
0.0
 10
23.1268
 20
22.7977
 30
0.0
 10
28.7005
 20
22.7975
 30
0.0
 10
28.7005
 20
22.7975
 30
0.0
  0
SPLINE
  5
EF
330
1F
100
AcDbEntity
  8
Ilustrace
 62
   250
370
    30
100
AcDbSpline
210
0.0
220
0.0
230
1.0
 70
    24
 71
     3
 72
     8
 73
     4
 74
     0
 42
0.0000000001
 43
0.0000000001
 40
0.0
 40
0.0
 40
0.0
 40
0.0
 40
1.0
 40
1.0
 40
1.0
 40
1.0
 10
28.7005
 20
21.8053
 30
0.0
 10
28.7005
 20
21.8053
 30
0.0
 10
28.7005
 20
22.6646
 30
0.0
 10
28.7005
 20
22.6646
 30
0.0
  0
SPLINE
  5
F0
330
1F
100
AcDbEntity
  8
Ilustrace
 62
   250
370
    30
100
AcDbSpline
210
0.0
220
0.0
230
1.0
 70
    24
 71
     3
 72
     8
 73
     4
 74
     0
 42
0.0000000001
 43
0.0000000001
 40
0.0
 40
0.0
 40
0.0
 40
0.0
 40
1.0
 40
1.0
 40
1.0
 40
1.0
 10
-25.3998
 20
22.7977
 30
0.0
 10
-25.3998
 20
22.7977
 30
0.0
 10
22.501
 20
22.7977
 30
0.0
 10
22.501
 20
22.7977
 30
0.0
  0
SPLINE
  5
F1
330
1F
100
AcDbEntity
  8
Ilustrace
 62
   250
370
    30
100
AcDbSpline
210
0.0
220
0.0
230
1.0
 70
    24
 71
     3
 72
     8
 73
     4
 74
     0
 42
0.0000000001
 43
0.0000000001
 40
0.0
 40
0.0
 40
0.0
 40
0.0
 40
1.0
 40
1.0
 40
1.0
 40
1.0
 10
9.8245
 20
18.8045
 30
0.0
 10
9.8245
 20
18.8045
 30
0.0
 10
22.8925
 20
18.8045
 30
0.0
 10
22.8925
 20
18.8045
 30
0.0
  0
SPLINE
  5
F2
330
1F
100
AcDbEntity
  8
Ilustrace
 62
   250
370
    30
100
AcDbSpline
210
0.0
220
0.0
230
1.0
 70
    24
 71
     3
 72
     8
 73
     4
 74
     0
 42
0.0000000001
 43
0.0000000001
 40
0.0
 40
0.0
 40
0.0
 40
0.0
 40
1.0
 40
1.0
 40
1.0
 40
1.0
 10
22.8925
 20
12.9966
 30
0.0
 10
22.8925
 20
12.9966
 30
0.0
 10
22.8925
 20
14.4485
 30
0.0
 10
22.8925
 20
14.4485
 30
0.0
  0
SPLINE
  5
F3
330
1F
100
AcDbEntity
  8
Ilustrace
 62
   250
370
    30
100
AcDbSpline
210
0.0
220
0.0
230
1.0
 70
    24
 71
     3
 72
     8
 73
     4
 74
     0
 42
0.0000000001
 43
0.0000000001
 40
0.0
 40
0.0
 40
0.0
 40
0.0
 40
1.0
 40
1.0
 40
1.0
 40
1.0
 10
9.8245
 20
14.4485
 30
0.0
 10
9.8245
 20
14.4485
 30
0.0
 10
22.8925
 20
14.4485
 30
0.0
 10
22.8925
 20
14.4485
 30
0.0
  0
SPLINE
  5
F4
330
1F
100
AcDbEntity
  8
Ilustrace
 62
   250
370
    30
100
AcDbSpline
210
0.0
220
0.0
230
1.0
 70
    24
 71
     3
 72
     8
 73
     4
 74
     0
 42
0.0000000001
 43
0.0000000001
 40
0.0
 40
0.0
 40
0.0
 40
0.0
 40
1.0
 40
1.0
 40
1.0
 40
1.0
 10
22.8925
 20
8.6405
 30
0.0
 10
22.8925
 20
8.6405
 30
0.0
 10
22.8925
 20
10.0925
 30
0.0
 10
22.8925
 20
10.0925
 30
0.0
  0
SPLINE
  5
F5
330
1F
100
AcDbEntity
  8
Ilustrace
 62
   250
370
    30
100
AcDbSpline
210
0.0
220
0.0
230
1.0
 70
    24
 71
     3
 72
     8
 73
     4
 74
     0
 42
0.0000000001
 43
0.0000000001
 40
0.0
 40
0.0
 40
0.0
 40
0.0
 40
1.0
 40
1.0
 40
1.0
 40
1.0
 10
22.8925
 20
12.9966
 30
0.0
 10
22.8925
 20
12.9966
 30
0.0
 10
9.8245
 20
12.9966
 30
0.0
 10
9.8245
 20
12.9966
 30
0.0
  0
SPLINE
  5
F6
330
1F
100
AcDbEntity
  8
Ilustrace
 62
   250
370
    30
100
AcDbSpline
210
0.0
220
0.0
230
1.0
 70
    24
 71
     3
 72
     8
 73
     4
 74
     0
 42
0.0000000001
 43
0.0000000001
 40
0.0
 40
0.0
 40
0.0
 40
0.0
 40
1.0
 40
1.0
 40
1.0
 40
1.0
 10
6.1944
 20
8.6405
 30
0.0
 10
6.1944
 20
8.6405
 30
0.0
 10
-6.8734
 20
8.6405
 30
0.0
 10
-6.8734
 20
8.6405
 30
0.0
  0
SPLINE
  5
F7
330
1F
100
AcDbEntity
  8
Ilustrace
 62
   250
370
    30
100
AcDbSpline
210
0.0
220
0.0
230
1.0
 70
    24
 71
     3
 72
     8
 73
     4
 74
     0
 42
0.0000000001
 43
0.0000000001
 40
0.0
 40
0.0
 40
0.0
 40
0.0
 40
1.0
 40
1.0
 40
1.0
 40
1.0
 10
-6.8734
 20
12.9966
 30
0.0
 10
-6.8734
 20
12.9966
 30
0.0
 10
-6.8734
 20
14.4485
 30
0.0
 10
-6.8734
 20
14.4485
 30
0.0
  0
SPLINE
  5
F8
330
1F
100
AcDbEntity
  8
Ilustrace
 62
   250
370
    30
100
AcDbSpline
210
0.0
220
0.0
230
1.0
 70
    24
 71
     3
 72
     8
 73
     4
 74
     0
 42
0.0000000001
 43
0.0000000001
 40
0.0
 40
0.0
 40
0.0
 40
0.0
 40
1.0
 40
1.0
 40
1.0
 40
1.0
 10
-6.8734
 20
18.8045
 30
0.0
 10
-6.8734
 20
18.8045
 30
0.0
 10
6.1944
 20
18.8045
 30
0.0
 10
6.1944
 20
18.8045
 30
0.0
  0
SPLINE
  5
F9
330
1F
100
AcDbEntity
  8
Ilustrace
 62
   250
370
    30
100
AcDbSpline
210
0.0
220
0.0
230
1.0
 70
    24
 71
     3
 72
     8
 73
     4
 74
     0
 42
0.0000000001
 43
0.0000000001
 40
0.0
 40
0.0
 40
0.0
 40
0.0
 40
1.0
 40
1.0
 40
1.0
 40
1.0
 10
9.8245
 20
17.3526
 30
0.0
 10
9.8245
 20
17.3526
 30
0.0
 10
22.8925
 20
17.3526
 30
0.0
 10
22.8925
 20
17.3526
 30
0.0
  0
SPLINE
  5
FA
330
1F
100
AcDbEntity
  8
Ilustrace
 62
   250
370
    30
100
AcDbSpline
210
0.0
220
0.0
230
1.0
 70
    24
 71
     3
 72
     8
 73
     4
 74
     0
 42
0.0000000001
 43
0.0000000001
 40
0.0
 40
0.0
 40
0.0
 40
0.0
 40
1.0
 40
1.0
 40
1.0
 40
1.0
 10
6.1944
 20
12.9966
 30
0.0
 10
6.1944
 20
12.9966
 30
0.0
 10
-6.8734
 20
12.9966
 30
0.0
 10
-6.8734
 20
12.9966
 30
0.0
  0
SPLINE
  5
FB
330
1F
100
AcDbEntity
  8
Ilustrace
 62
   250
370
    30
100
AcDbSpline
210
0.0
220
0.0
230
1.0
 70
    24
 71
     3
 72
     8
 73
     4
 74
     0
 42
0.0000000001
 43
0.0000000001
 40
0.0
 40
0.0
 40
0.0
 40
0.0
 40
1.0
 40
1.0
 40
1.0
 40
1.0
 10
-6.8734
 20
8.6405
 30
0.0
 10
-6.8734
 20
8.6405
 30
0.0
 10
-6.8734
 20
10.0925
 30
0.0
 10
-6.8734
 20
10.0925
 30
0.0
  0
SPLINE
  5
FC
330
1F
100
AcDbEntity
  8
Ilustrace
 62
   250
370
    30
100
AcDbSpline
210
0.0
220
0.0
230
1.0
 70
    24
 71
     3
 72
     8
 73
     4
 74
     0
 42
0.0000000001
 43
0.0000000001
 40
0.0
 40
0.0
 40
0.0
 40
0.0
 40
1.0
 40
1.0
 40
1.0
 40
1.0
 10
6.1944
 20
14.4485
 30
0.0
 10
6.1944
 20
14.4485
 30
0.0
 10
-6.8734
 20
14.4485
 30
0.0
 10
-6.8734
 20
14.4485
 30
0.0
  0
SPLINE
  5
FD
330
1F
100
AcDbEntity
  8
Ilustrace
 62
   250
370
    30
100
AcDbSpline
210
0.0
220
0.0
230
1.0
 70
    24
 71
     3
 72
     8
 73
     4
 74
     0
 42
0.0000000001
 43
0.0000000001
 40
0.0
 40
0.0
 40
0.0
 40
0.0
 40
1.0
 40
1.0
 40
1.0
 40
1.0
 10
-6.8734
 20
17.3526
 30
0.0
 10
-6.8734
 20
17.3526
 30
0.0
 10
-6.8734
 20
18.8045
 30
0.0
 10
-6.8734
 20
18.8045
 30
0.0
  0
SPLINE
  5
FE
330
1F
100
AcDbEntity
  8
Ilustrace
 62
   250
370
    30
100
AcDbSpline
210
0.0
220
0.0
230
1.0
 70
    24
 71
     3
 72
     8
 73
     4
 74
     0
 42
0.0000000001
 43
0.0000000001
 40
0.0
 40
0.0
 40
0.0
 40
0.0
 40
1.0
 40
1.0
 40
1.0
 40
1.0
 10
-6.8734
 20
17.3526
 30
0.0
 10
-6.8734
 20
17.3526
 30
0.0
 10
6.1944
 20
17.3526
 30
0.0
 10
6.1944
 20
17.3526
 30
0.0
  0
SPLINE
  5
FF
330
1F
100
AcDbEntity
  8
Ilustrace
 62
   250
370
    30
100
AcDbSpline
210
0.0
220
0.0
230
1.0
 70
    24
 71
     3
 72
     8
 73
     4
 74
     0
 42
0.0000000001
 43
0.0000000001
 40
0.0
 40
0.0
 40
0.0
 40
0.0
 40
1.0
 40
1.0
 40
1.0
 40
1.0
 10
6.1944
 20
18.8045
 30
0.0
 10
6.1944
 20
18.8045
 30
0.0
 10
6.1944
 20
17.3526
 30
0.0
 10
6.1944
 20
17.3526
 30
0.0
  0
SPLINE
  5
100
330
1F
100
AcDbEntity
  8
Ilustrace
 62
   250
370
    30
100
AcDbSpline
210
0.0
220
0.0
230
1.0
 70
    24
 71
     3
 72
     8
 73
     4
 74
     0
 42
0.0000000001
 43
0.0000000001
 40
0.0
 40
0.0
 40
0.0
 40
0.0
 40
1.0
 40
1.0
 40
1.0
 40
1.0
 10
9.8245
 20
17.3526
 30
0.0
 10
9.8245
 20
17.3526
 30
0.0
 10
9.8245
 20
18.8045
 30
0.0
 10
9.8245
 20
18.8045
 30
0.0
  0
SPLINE
  5
101
330
1F
100
AcDbEntity
  8
Ilustrace
 62
   250
370
    30
100
AcDbSpline
210
0.0
220
0.0
230
1.0
 70
    24
 71
     3
 72
     8
 73
     4
 74
     0
 42
0.0000000001
 43
0.0000000001
 40
0.0
 40
0.0
 40
0.0
 40
0.0
 40
1.0
 40
1.0
 40
1.0
 40
1.0
 10
9.8245
 20
14.4485
 30
0.0
 10
9.8245
 20
14.4485
 30
0.0
 10
9.8245
 20
12.9966
 30
0.0
 10
9.8245
 20
12.9966
 30
0.0
  0
SPLINE
  5
102
330
1F
100
AcDbEntity
  8
Ilustrace
 62
   250
370
    30
100
AcDbSpline
210
0.0
220
0.0
230
1.0
 70
    24
 71
     3
 72
     8
 73
     4
 74
     0
 42
0.0000000001
 43
0.0000000001
 40
0.0
 40
0.0
 40
0.0
 40
0.0
 40
1.0
 40
1.0
 40
1.0
 40
1.0
 10
9.8245
 20
8.6405
 30
0.0
 10
9.8245
 20
8.6405
 30
0.0
 10
22.8925
 20
8.6405
 30
0.0
 10
22.8925
 20
8.6405
 30
0.0
  0
SPLINE
  5
103
330
1F
100
AcDbEntity
  8
Ilustrace
 62
   250
370
    30
100
AcDbSpline
210
0.0
220
0.0
230
1.0
 70
    24
 71
     3
 72
     8
 73
     4
 74
     0
 42
0.0000000001
 43
0.0000000001
 40
0.0
 40
0.0
 40
0.0
 40
0.0
 40
1.0
 40
1.0
 40
1.0
 40
1.0
 10
22.8925
 20
10.0925
 30
0.0
 10
22.8925
 20
10.0925
 30
0.0
 10
9.8245
 20
10.0925
 30
0.0
 10
9.8245
 20
10.0925
 30
0.0
  0
SPLINE
  5
104
330
1F
100
AcDbEntity
  8
Ilustrace
 62
   250
370
    30
100
AcDbSpline
210
0.0
220
0.0
230
1.0
 70
    24
 71
     3
 72
     8
 73
     4
 74
     0
 42
0.0000000001
 43
0.0000000001
 40
0.0
 40
0.0
 40
0.0
 40
0.0
 40
1.0
 40
1.0
 40
1.0
 40
1.0
 10
6.1944
 20
14.4485
 30
0.0
 10
6.1944
 20
14.4485
 30
0.0
 10
6.1944
 20
12.9966
 30
0.0
 10
6.1944
 20
12.9966
 30
0.0
  0
SPLINE
  5
105
330
1F
100
AcDbEntity
  8
Ilustrace
 62
   250
370
    30
100
AcDbSpline
210
0.0
220
0.0
230
1.0
 70
    24
 71
     3
 72
     8
 73
     4
 74
     0
 42
0.0000000001
 43
0.0000000001
 40
0.0
 40
0.0
 40
0.0
 40
0.0
 40
1.0
 40
1.0
 40
1.0
 40
1.0
 10
6.1944
 20
10.0925
 30
0.0
 10
6.1944
 20
10.0925
 30
0.0
 10
-6.8734
 20
10.0925
 30
0.0
 10
-6.8734
 20
10.0925
 30
0.0
  0
SPLINE
  5
106
330
1F
100
AcDbEntity
  8
Ilustrace
 62
   250
370
    30
100
AcDbSpline
210
0.0
220
0.0
230
1.0
 70
    24
 71
     3
 72
     8
 73
     4
 74
     0
 42
0.0000000001
 43
0.0000000001
 40
0.0
 40
0.0
 40
0.0
 40
0.0
 40
1.0
 40
1.0
 40
1.0
 40
1.0
 10
6.1944
 20
8.6405
 30
0.0
 10
6.1944
 20
8.6405
 30
0.0
 10
6.1944
 20
10.0925
 30
0.0
 10
6.1944
 20
10.0925
 30
0.0
  0
SPLINE
  5
107
330
1F
100
AcDbEntity
  8
Ilustrace
 62
   250
370
    30
100
AcDbSpline
210
0.0
220
0.0
230
1.0
 70
    24
 71
     3
 72
     8
 73
     4
 74
     0
 42
0.0000000001
 43
0.0000000001
 40
0.0
 40
0.0
 40
0.0
 40
0.0
 40
1.0
 40
1.0
 40
1.0
 40
1.0
 10
9.8245
 20
10.0925
 30
0.0
 10
9.8245
 20
10.0925
 30
0.0
 10
9.8245
 20
8.6405
 30
0.0
 10
9.8245
 20
8.6405
 30
0.0
  0
SPLINE
  5
108
330
1F
100
AcDbEntity
  8
Ilustrace
 62
   250
370
    30
100
AcDbSpline
210
0.0
220
0.0
230
1.0
 70
    24
 71
     3
 72
     8
 73
     4
 74
     0
 42
0.0000000001
 43
0.0000000001
 40
0.0
 40
0.0
 40
0.0
 40
0.0
 40
1.0
 40
1.0
 40
1.0
 40
1.0
 10
22.3839
 20
22.7977
 30
0.0
 10
22.3839
 20
22.7977
 30
0.0
 10
-25.2781
 20
22.7977
 30
0.0
 10
-25.2781
 20
22.7977
 30
0.0
  0
SPLINE
  5
109
330
1F
100
AcDbEntity
  8
Ilustrace
 62
   250
370
    30
100
AcDbSpline
210
0.0
220
0.0
230
1.0
 70
    24
 71
     3
 72
     8
 73
     4
 74
     0
 42
0.0000000001
 43
0.0000000001
 40
0.0
 40
0.0
 40
0.0
 40
0.0
 40
1.0
 40
1.0
 40
1.0
 40
1.0
 10
-18.8525
 20
20.2566
 30
0.0
 10
-18.8525
 20
20.2566
 30
0.0
 10
-17.4004
 20
20.2566
 30
0.0
 10
-17.4004
 20
20.2566
 30
0.0
  0
SPLINE
  5
10A
330
1F
100
AcDbEntity
  8
Ilustrace
 62
   250
370
    30
100
AcDbSpline
210
0.0
220
0.0
230
1.0
 70
    24
 71
     3
 72
     8
 73
     4
 74
     0
 42
0.0000000001
 43
0.0000000001
 40
0.0
 40
0.0
 40
0.0
 40
0.0
 40
1.0
 40
1.0
 40
1.0
 40
1.0
 10
-17.4004
 20
19.4097
 30
0.0
 10
-17.4004
 20
19.4097
 30
0.0
 10
-18.8525
 20
19.4097
 30
0.0
 10
-18.8525
 20
19.4097
 30
0.0
  0
SPLINE
  5
10B
330
1F
100
AcDbEntity
  8
Ilustrace
 62
   250
370
    30
100
AcDbSpline
210
0.0
220
0.0
230
1.0
 70
    24
 71
     3
 72
     8
 73
     4
 74
     0
 42
0.0000000001
 43
0.0000000001
 40
0.0
 40
0.0
 40
0.0
 40
0.0
 40
1.0
 40
1.0
 40
1.0
 40
1.0
 10
-26.1125
 20
-1.8865
 30
0.0
 10
-26.1125
 20
-1.8865
 30
0.0
 10
-27.5645
 20
-1.8865
 30
0.0
 10
-27.5645
 20
-1.8865
 30
0.0
  0
SPLINE
  5
10C
330
1F
100
AcDbEntity
  8
Ilustrace
 62
   250
370
    30
100
AcDbSpline
210
0.0
220
0.0
230
1.0
 70
    24
 71
     3
 72
     8
 73
     4
 74
     0
 42
0.0000000001
 43
0.0000000001
 40
0.0
 40
0.0
 40
0.0
 40
0.0
 40
1.0
 40
1.0
 40
1.0
 40
1.0
 10
-27.5645
 20
-14.9545
 30
0.0
 10
-27.5645
 20
-14.9545
 30
0.0
 10
-27.5645
 20
-1.8865
 30
0.0
 10
-27.5645
 20
-1.8865
 30
0.0
  0
SPLINE
  5
10D
330
1F
100
AcDbEntity
  8
Ilustrace
 62
   250
370
    30
100
AcDbSpline
210
0.0
220
0.0
230
1.0
 70
    24
 71
     3
 72
     8
 73
     4
 74
     0
 42
0.0000000001
 43
0.0000000001
 40
0.0
 40
0.0
 40
0.0
 40
0.0
 40
1.0
 40
1.0
 40
1.0
 40
1.0
 10
-23.2085
 20
-1.8865
 30
0.0
 10
-23.2085
 20
-1.8865
 30
0.0
 10
-21.7564
 20
-1.8865
 30
0.0
 10
-21.7564
 20
-1.8865
 30
0.0
  0
SPLINE
  5
10E
330
1F
100
AcDbEntity
  8
Ilustrace
 62
   250
370
    30
100
AcDbSpline
210
0.0
220
0.0
230
1.0
 70
    24
 71
     3
 72
     8
 73
     4
 74
     0
 42
0.0000000001
 43
0.0000000001
 40
0.0
 40
0.0
 40
0.0
 40
0.0
 40
1.0
 40
1.0
 40
1.0
 40
1.0
 10
-17.4004
 20
-14.9545
 30
0.0
 10
-17.4004
 20
-14.9545
 30
0.0
 10
-17.4004
 20
-1.8865
 30
0.0
 10
-17.4004
 20
-1.8865
 30
0.0
  0
SPLINE
  5
10F
330
1F
100
AcDbEntity
  8
Ilustrace
 62
   250
370
    30
100
AcDbSpline
210
0.0
220
0.0
230
1.0
 70
    24
 71
     3
 72
     8
 73
     4
 74
     0
 42
0.0000000001
 43
0.0000000001
 40
0.0
 40
0.0
 40
0.0
 40
0.0
 40
1.0
 40
1.0
 40
1.0
 40
1.0
 10
-18.8525
 20
-1.8865
 30
0.0
 10
-18.8525
 20
-1.8865
 30
0.0
 10
-17.4004
 20
-1.8865
 30
0.0
 10
-17.4004
 20
-1.8865
 30
0.0
  0
SPLINE
  5
110
330
1F
100
AcDbEntity
  8
Ilustrace
 62
   250
370
    30
100
AcDbSpline
210
0.0
220
0.0
230
1.0
 70
    24
 71
     3
 72
     8
 73
     4
 74
     0
 42
0.0000000001
 43
0.0000000001
 40
0.0
 40
0.0
 40
0.0
 40
0.0
 40
1.0
 40
1.0
 40
1.0
 40
1.0
 10
-21.7564
 20
-14.9545
 30
0.0
 10
-21.7564
 20
-14.9545
 30
0.0
 10
-21.7564
 20
-1.8865
 30
0.0
 10
-21.7564
 20
-1.8865
 30
0.0
  0
SPLINE
  5
111
330
1F
100
AcDbEntity
  8
Ilustrace
 62
   250
370
    30
100
AcDbSpline
210
0.0
220
0.0
230
1.0
 70
    24
 71
     3
 72
     8
 73
     4
 74
     0
 42
0.0000000001
 43
0.0000000001
 40
0.0
 40
0.0
 40
0.0
 40
0.0
 40
1.0
 40
1.0
 40
1.0
 40
1.0
 10
-18.8525
 20
-1.8865
 30
0.0
 10
-18.8525
 20
-1.8865
 30
0.0
 10
-18.8525
 20
-14.9545
 30
0.0
 10
-18.8525
 20
-14.9545
 30
0.0
  0
SPLINE
  5
112
330
1F
100
AcDbEntity
  8
Ilustrace
 62
   250
370
    30
100
AcDbSpline
210
0.0
220
0.0
230
1.0
 70
    24
 71
     3
 72
     8
 73
     4
 74
     0
 42
0.0000000001
 43
0.0000000001
 40
0.0
 40
0.0
 40
0.0
 40
0.0
 40
1.0
 40
1.0
 40
1.0
 40
1.0
 10
-17.4004
 20
-31.6525
 30
0.0
 10
-17.4004
 20
-31.6525
 30
0.0
 10
-17.4004
 20
-18.5845
 30
0.0
 10
-17.4004
 20
-18.5845
 30
0.0
  0
SPLINE
  5
113
330
1F
100
AcDbEntity
  8
Ilustrace
 62
   250
370
    30
100
AcDbSpline
210
0.0
220
0.0
230
1.0
 70
    24
 71
     3
 72
     8
 73
     4
 74
     0
 42
0.0000000001
 43
0.0000000001
 40
0.0
 40
0.0
 40
0.0
 40
0.0
 40
1.0
 40
1.0
 40
1.0
 40
1.0
 10
-23.2085
 20
-18.5845
 30
0.0
 10
-23.2085
 20
-18.5845
 30
0.0
 10
-21.7564
 20
-18.5845
 30
0.0
 10
-21.7564
 20
-18.5845
 30
0.0
  0
SPLINE
  5
114
330
1F
100
AcDbEntity
  8
Ilustrace
 62
   250
370
    30
100
AcDbSpline
210
0.0
220
0.0
230
1.0
 70
    24
 71
     3
 72
     8
 73
     4
 74
     0
 42
0.0000000001
 43
0.0000000001
 40
0.0
 40
0.0
 40
0.0
 40
0.0
 40
1.0
 40
1.0
 40
1.0
 40
1.0
 10
-23.2085
 20
-14.9545
 30
0.0
 10
-23.2085
 20
-14.9545
 30
0.0
 10
-21.7564
 20
-14.9545
 30
0.0
 10
-21.7564
 20
-14.9545
 30
0.0
  0
SPLINE
  5
115
330
1F
100
AcDbEntity
  8
Ilustrace
 62
   250
370
    30
100
AcDbSpline
210
0.0
220
0.0
230
1.0
 70
    24
 71
     3
 72
     8
 73
     4
 74
     0
 42
0.0000000001
 43
0.0000000001
 40
0.0
 40
0.0
 40
0.0
 40
0.0
 40
1.0
 40
1.0
 40
1.0
 40
1.0
 10
-18.8525
 20
-14.9545
 30
0.0
 10
-18.8525
 20
-14.9545
 30
0.0
 10
-17.4004
 20
-14.9545
 30
0.0
 10
-17.4004
 20
-14.9545
 30
0.0
  0
SPLINE
  5
116
330
1F
100
AcDbEntity
  8
Ilustrace
 62
   250
370
    30
100
AcDbSpline
210
0.0
220
0.0
230
1.0
 70
    24
 71
     3
 72
     8
 73
     4
 74
     0
 42
0.0000000001
 43
0.0000000001
 40
0.0
 40
0.0
 40
0.0
 40
0.0
 40
1.0
 40
1.0
 40
1.0
 40
1.0
 10
-18.8525
 20
-18.5845
 30
0.0
 10
-18.8525
 20
-18.5845
 30
0.0
 10
-17.4004
 20
-18.5845
 30
0.0
 10
-17.4004
 20
-18.5845
 30
0.0
  0
SPLINE
  5
117
330
1F
100
AcDbEntity
  8
Ilustrace
 62
   250
370
    30
100
AcDbSpline
210
0.0
220
0.0
230
1.0
 70
    24
 71
     3
 72
     8
 73
     4
 74
     0
 42
0.0000000001
 43
0.0000000001
 40
0.0
 40
0.0
 40
0.0
 40
0.0
 40
1.0
 40
1.0
 40
1.0
 40
1.0
 10
-18.8525
 20
-18.5845
 30
0.0
 10
-18.8525
 20
-18.5845
 30
0.0
 10
-18.8525
 20
-31.6525
 30
0.0
 10
-18.8525
 20
-31.6525
 30
0.0
  0
SPLINE
  5
118
330
1F
100
AcDbEntity
  8
Ilustrace
 62
   250
370
    30
100
AcDbSpline
210
0.0
220
0.0
230
1.0
 70
    24
 71
     3
 72
     8
 73
     4
 74
     0
 42
0.0000000001
 43
0.0000000001
 40
0.0
 40
0.0
 40
0.0
 40
0.0
 40
1.0
 40
1.0
 40
1.0
 40
1.0
 10
-21.7564
 20
-31.6525
 30
0.0
 10
-21.7564
 20
-31.6525
 30
0.0
 10
-23.2085
 20
-31.6525
 30
0.0
 10
-23.2085
 20
-31.6525
 30
0.0
  0
SPLINE
  5
119
330
1F
100
AcDbEntity
  8
Ilustrace
 62
   250
370
    30
100
AcDbSpline
210
0.0
220
0.0
230
1.0
 70
    24
 71
     3
 72
     8
 73
     4
 74
     0
 42
0.0000000001
 43
0.0000000001
 40
0.0
 40
0.0
 40
0.0
 40
0.0
 40
1.0
 40
1.0
 40
1.0
 40
1.0
 10
-27.5645
 20
-18.5845
 30
0.0
 10
-27.5645
 20
-18.5845
 30
0.0
 10
-27.5645
 20
-31.6525
 30
0.0
 10
-27.5645
 20
-31.6525
 30
0.0
  0
SPLINE
  5
11A
330
1F
100
AcDbEntity
  8
Ilustrace
 62
   250
370
    30
100
AcDbSpline
210
0.0
220
0.0
230
1.0
 70
    24
 71
     3
 72
     8
 73
     4
 74
     0
 42
0.0000000001
 43
0.0000000001
 40
0.0
 40
0.0
 40
0.0
 40
0.0
 40
1.0
 40
1.0
 40
1.0
 40
1.0
 10
-26.1125
 20
-31.6525
 30
0.0
 10
-26.1125
 20
-31.6525
 30
0.0
 10
-27.5645
 20
-31.6525
 30
0.0
 10
-27.5645
 20
-31.6525
 30
0.0
  0
SPLINE
  5
11B
330
1F
100
AcDbEntity
  8
Ilustrace
 62
   250
370
    30
100
AcDbSpline
210
0.0
220
0.0
230
1.0
 70
    24
 71
     3
 72
     8
 73
     4
 74
     0
 42
0.0000000001
 43
0.0000000001
 40
0.0
 40
0.0
 40
0.0
 40
0.0
 40
1.0
 40
1.0
 40
1.0
 40
1.0
 10
-23.2085
 20
-18.5845
 30
0.0
 10
-23.2085
 20
-18.5845
 30
0.0
 10
-23.2085
 20
-31.6525
 30
0.0
 10
-23.2085
 20
-31.6525
 30
0.0
  0
SPLINE
  5
11C
330
1F
100
AcDbEntity
  8
Ilustrace
 62
   250
370
    30
100
AcDbSpline
210
0.0
220
0.0
230
1.0
 70
    24
 71
     3
 72
     8
 73
     4
 74
     0
 42
0.0000000001
 43
0.0000000001
 40
0.0
 40
0.0
 40
0.0
 40
0.0
 40
1.0
 40
1.0
 40
1.0
 40
1.0
 10
-18.8525
 20
-31.6525
 30
0.0
 10
-18.8525
 20
-31.6525
 30
0.0
 10
-17.4004
 20
-31.6525
 30
0.0
 10
-17.4004
 20
-31.6525
 30
0.0
  0
SPLINE
  5
11D
330
1F
100
AcDbEntity
  8
Ilustrace
 62
   250
370
    30
100
AcDbSpline
210
0.0
220
0.0
230
1.0
 70
    24
 71
     3
 72
     8
 73
     4
 74
     0
 42
0.0000000001
 43
0.0000000001
 40
0.0
 40
0.0
 40
0.0
 40
0.0
 40
1.0
 40
1.0
 40
1.0
 40
1.0
 10
-21.7564
 20
-18.5845
 30
0.0
 10
-21.7564
 20
-18.5845
 30
0.0
 10
-21.7564
 20
-31.6525
 30
0.0
 10
-21.7564
 20
-31.6525
 30
0.0
  0
SPLINE
  5
11E
330
1F
100
AcDbEntity
  8
Ilustrace
 62
   250
370
    30
100
AcDbSpline
210
0.0
220
0.0
230
1.0
 70
    24
 71
     3
 72
     8
 73
     4
 74
     0
 42
0.0000000001
 43
0.0000000001
 40
0.0
 40
0.0
 40
0.0
 40
0.0
 40
1.0
 40
1.0
 40
1.0
 40
1.0
 10
-26.1125
 20
-31.6525
 30
0.0
 10
-26.1125
 20
-31.6525
 30
0.0
 10
-26.1125
 20
-18.5845
 30
0.0
 10
-26.1125
 20
-18.5845
 30
0.0
  0
SPLINE
  5
11F
330
1F
100
AcDbEntity
  8
Ilustrace
 62
   250
370
    30
100
AcDbSpline
210
0.0
220
0.0
230
1.0
 70
    24
 71
     3
 72
     8
 73
     4
 74
     0
 42
0.0000000001
 43
0.0000000001
 40
0.0
 40
0.0
 40
0.0
 40
0.0
 40
1.0
 40
1.0
 40
1.0
 40
1.0
 10
-23.2085
 20
-1.8865
 30
0.0
 10
-23.2085
 20
-1.8865
 30
0.0
 10
-23.2085
 20
-14.9545
 30
0.0
 10
-23.2085
 20
-14.9545
 30
0.0
  0
SPLINE
  5
120
330
1F
100
AcDbEntity
  8
Ilustrace
 62
   250
370
    30
100
AcDbSpline
210
0.0
220
0.0
230
1.0
 70
    24
 71
     3
 72
     8
 73
     4
 74
     0
 42
0.0000000001
 43
0.0000000001
 40
0.0
 40
0.0
 40
0.0
 40
0.0
 40
1.0
 40
1.0
 40
1.0
 40
1.0
 10
-26.1125
 20
-18.5845
 30
0.0
 10
-26.1125
 20
-18.5845
 30
0.0
 10
-27.5645
 20
-18.5845
 30
0.0
 10
-27.5645
 20
-18.5845
 30
0.0
  0
SPLINE
  5
121
330
1F
100
AcDbEntity
  8
Ilustrace
 62
   250
370
    30
100
AcDbSpline
210
0.0
220
0.0
230
1.0
 70
    24
 71
     3
 72
     8
 73
     4
 74
     0
 42
0.0000000001
 43
0.0000000001
 40
0.0
 40
0.0
 40
0.0
 40
0.0
 40
1.0
 40
1.0
 40
1.0
 40
1.0
 10
-26.1125
 20
-14.9545
 30
0.0
 10
-26.1125
 20
-14.9545
 30
0.0
 10
-27.5645
 20
-14.9545
 30
0.0
 10
-27.5645
 20
-14.9545
 30
0.0
  0
SPLINE
  5
122
330
1F
100
AcDbEntity
  8
Ilustrace
 62
   250
370
    30
100
AcDbSpline
210
0.0
220
0.0
230
1.0
 70
    24
 71
     3
 72
     8
 73
     4
 74
     0
 42
0.0000000001
 43
0.0000000001
 40
0.0
 40
0.0
 40
0.0
 40
0.0
 40
1.0
 40
1.0
 40
1.0
 40
1.0
 10
-26.1125
 20
-14.9545
 30
0.0
 10
-26.1125
 20
-14.9545
 30
0.0
 10
-26.1125
 20
-1.8865
 30
0.0
 10
-26.1125
 20
-1.8865
 30
0.0
  0
SPLINE
  5
123
330
1F
100
AcDbEntity
  8
Ilustrace
 62
   250
370
    30
100
AcDbSpline
210
0.0
220
0.0
230
1.0
 70
     8
 71
     3
 72
    16
 73
    12
 74
     0
 42
0.0000000001
 43
0.0000000001
 40
0.0
 40
0.0
 40
0.0
 40
0.0
 40
0.25
 40
0.25
 40
0.25
 40
0.25
 40
0.5
 40
0.5
 40
0.5
 40
0.5
 40
1.0
 40
1.0
 40
1.0
 40
1.0
 10
-30.5653
 20
21.8055
 30
0.0
 10
-30.5653
 20
21.8055
 30
0.0
 10
-30.8345
 20
21.9155
 30
0.0
 10
-30.8345
 20
21.9155
 30
0.0
 10
-30.8345
 20
21.9155
 30
0.0
 10
-30.8345
 20
21.9155
 30
0.0
 10
-31.0614
 20
22.0151
 30
0.0
 10
-31.0614
 20
22.0151
 30
0.0
 10
-31.0614
 20
22.0151
 30
0.0
 10
-31.0614
 20
22.0151
 30
0.0
 10
-31.2671
 20
22.1201
 30
0.0
 10
-31.2671
 20
22.1201
 30
0.0
  0
SPLINE
  5
124
330
1F
100
AcDbEntity
  8
Ilustrace
 62
   250
370
    30
100
AcDbSpline
210
0.0
220
0.0
230
1.0
 70
     8
 71
     3
 72
     8
 73
     4
 74
     0
 42
0.0000000001
 43
0.0000000001
 40
0.0
 40
0.0
 40
0.0
 40
0.0
 40
1.0
 40
1.0
 40
1.0
 40
1.0
 10
-31.2671
 20
22.1201
 30
0.0
 10
-31.3832
 20
22.1801
 30
0.0
 10
-31.5559
 20
22.2867
 30
0.0
 10
-31.5575
 20
22.4346
 30
0.0
  0
SPLINE
  5
125
330
1F
100
AcDbEntity
  8
Ilustrace
 62
   250
370
    30
100
AcDbSpline
210
0.0
220
0.0
230
1.0
 70
     8
 71
     3
 72
    16
 73
    12
 74
     0
 42
0.0000000001
 43
0.0000000001
 40
0.0
 40
0.0
 40
0.0
 40
0.0
 40
0.25
 40
0.25
 40
0.25
 40
0.25
 40
0.5
 40
0.5
 40
0.5
 40
0.5
 40
1.0
 40
1.0
 40
1.0
 40
1.0
 10
-30.5653
 20
21.8055
 30
0.0
 10
-30.5653
 20
21.8055
 30
0.0
 10
-30.7418
 20
22.2286
 30
0.0
 10
-30.7418
 20
22.2286
 30
0.0
 10
-30.7418
 20
22.2286
 30
0.0
 10
-30.7418
 20
22.2286
 30
0.0
 10
-30.8083
 20
22.3711
 30
0.0
 10
-30.8083
 20
22.3711
 30
0.0
 10
-30.8083
 20
22.3711
 30
0.0
 10
-30.8083
 20
22.3711
 30
0.0
 10
-30.88
 20
22.507
 30
0.0
 10
-30.88
 20
22.507
 30
0.0
  0
SPLINE
  5
126
330
1F
100
AcDbEntity
  8
Ilustrace
 62
   250
370
    30
100
AcDbSpline
210
0.0
220
0.0
230
1.0
 70
     8
 71
     3
 72
     8
 73
     4
 74
     0
 42
0.0000000001
 43
0.0000000001
 40
0.0
 40
0.0
 40
0.0
 40
0.0
 40
1.0
 40
1.0
 40
1.0
 40
1.0
 10
-30.88
 20
22.507
 30
0.0
 10
-30.942
 20
22.6171
 30
0.0
 10
-31.0436
 20
22.7901
 30
0.0
 10
-31.1905
 20
22.7975
 30
0.0
  0
SPLINE
  5
127
330
1F
100
AcDbEntity
  8
Ilustrace
 62
   250
370
    30
100
AcDbSpline
210
0.0
220
0.0
230
1.0
 70
     8
 71
     3
 72
    12
 73
     8
 74
     0
 42
0.0000000001
 43
0.0000000001
 40
0.0
 40
0.0
 40
0.0
 40
0.0
 40
0.3333333333333333
 40
0.3333333333333333
 40
0.3333333333333333
 40
0.3333333333333333
 40
1.0
 40
1.0
 40
1.0
 40
1.0
 10
-14.5933
 20
5.8333
 30
0.0
 10
-14.5933
 20
5.8333
 30
0.0
 10
-14.3996
 20
5.498
 30
0.0
 10
-14.3996
 20
5.498
 30
0.0
 10
-14.3996
 20
5.498
 30
0.0
 10
-14.3996
 20
5.498
 30
0.0
 10
-14.0979
 20
5.0995
 30
0.0
 10
-14.0979
 20
5.0995
 30
0.0
  0
SPLINE
  5
128
330
1F
100
AcDbEntity
  8
Ilustrace
 62
   250
370
    30
100
AcDbSpline
210
0.0
220
0.0
230
1.0
 70
     8
 71
     3
 72
    12
 73
     8
 74
     0
 42
0.0000000001
 43
0.0000000001
 40
0.0
 40
0.0
 40
0.0
 40
0.0
 40
0.3333333333333333
 40
0.3333333333333333
 40
0.3333333333333333
 40
0.3333333333333333
 40
1.0
 40
1.0
 40
1.0
 40
1.0
 10
-14.0979
 20
5.0995
 30
0.0
 10
-13.8135
 20
4.7134
 30
0.0
 10
-13.5353
 20
4.2872
 30
0.0
 10
-13.4412
 20
3.8096
 30
0.0
 10
-13.4412
 20
3.8096
 30
0.0
 10
-13.3915
 20
3.556
 30
0.0
 10
-13.4075
 20
3.2358
 30
0.0
 10
-13.4075
 20
2.9879
 30
0.0
  0
SPLINE
  5
129
330
1F
100
AcDbEntity
  8
Ilustrace
 62
   250
370
    30
100
AcDbSpline
210
0.0
220
0.0
230
1.0
 70
    24
 71
     3
 72
    12
 73
     8
 74
     0
 42
0.0000000001
 43
0.0000000001
 40
0.0
 40
0.0
 40
0.0
 40
0.0
 40
0.3333333333333333
 40
0.3333333333333333
 40
0.3333333333333333
 40
0.3333333333333333
 40
1.0
 40
1.0
 40
1.0
 40
1.0
 10
-13.4075
 20
2.9879
 30
0.0
 10
-13.4075
 20
2.9879
 30
0.0
 10
-13.4075
 20
-36.9765
 30
0.0
 10
-13.4075
 20
-36.9765
 30
0.0
 10
-13.4075
 20
-36.9765
 30
0.0
 10
-13.4075
 20
-36.9765
 30
0.0
 10
-13.4075
 20
-37.4605
 30
0.0
 10
-13.4075
 20
-37.4605
 30
0.0
  0
SPLINE
  5
12A
330
1F
100
AcDbEntity
  8
Ilustrace
 62
   250
370
    30
100
AcDbSpline
210
0.0
220
0.0
230
1.0
 70
     8
 71
     3
 72
    12
 73
     8
 74
     0
 42
0.0000000001
 43
0.0000000001
 40
0.0
 40
0.0
 40
0.0
 40
0.0
 40
0.3333333333333333
 40
0.3333333333333333
 40
0.3333333333333333
 40
0.3333333333333333
 40
1.0
 40
1.0
 40
1.0
 40
1.0
 10
-14.5933
 20
5.8333
 30
0.0
 10
-14.5933
 20
5.8333
 30
0.0
 10
-14.2579
 20
5.6398
 30
0.0
 10
-14.2579
 20
5.6398
 30
0.0
 10
-14.2579
 20
5.6398
 30
0.0
 10
-14.2579
 20
5.6398
 30
0.0
 10
-13.8594
 20
5.3381
 30
0.0
 10
-13.8594
 20
5.3381
 30
0.0
  0
SPLINE
  5
12B
330
1F
100
AcDbEntity
  8
Ilustrace
 62
   250
370
    30
100
AcDbSpline
210
0.0
220
0.0
230
1.0
 70
     8
 71
     3
 72
    12
 73
     8
 74
     0
 42
0.0000000001
 43
0.0000000001
 40
0.0
 40
0.0
 40
0.0
 40
0.0
 40
0.3333333333333333
 40
0.3333333333333333
 40
0.3333333333333333
 40
0.3333333333333333
 40
1.0
 40
1.0
 40
1.0
 40
1.0
 10
-13.8594
 20
5.3381
 30
0.0
 10
-13.4888
 20
5.065
 30
0.0
 10
-13.0845
 20
4.8007
 30
0.0
 10
-12.6301
 20
4.6945
 30
0.0
 10
-12.6301
 20
4.6945
 30
0.0
 10
-12.3402
 20
4.6268
 30
0.0
 10
-12.0436
 20
4.6475
 30
0.0
 10
-11.7477
 20
4.6475
 30
0.0
  0
SPLINE
  5
12C
330
1F
100
AcDbEntity
  8
Ilustrace
 62
   250
370
    30
100
AcDbSpline
210
0.0
220
0.0
230
1.0
 70
    24
 71
     3
 72
    12
 73
     8
 74
     0
 42
0.0000000001
 43
0.0000000001
 40
0.0
 40
0.0
 40
0.0
 40
0.0
 40
0.3333333333333333
 40
0.3333333333333333
 40
0.3333333333333333
 40
0.3333333333333333
 40
1.0
 40
1.0
 40
1.0
 40
1.0
 10
-11.7477
 20
4.6475
 30
0.0
 10
-11.7477
 20
4.6475
 30
0.0
 10
28.2165
 20
4.6475
 30
0.0
 10
28.2165
 20
4.6475
 30
0.0
 10
28.2165
 20
4.6475
 30
0.0
 10
28.2165
 20
4.6475
 30
0.0
 10
28.7005
 20
4.6475
 30
0.0
 10
28.7005
 20
4.6475
 30
0.0
  0
SPLINE
  5
12D
330
1F
100
AcDbEntity
  8
Ilustrace
 62
   250
370
    30
100
AcDbSpline
210
0.0
220
0.0
230
1.0
 70
    24
 71
     3
 72
     8
 73
     4
 74
     0
 42
0.0000000001
 43
0.0000000001
 40
0.0
 40
0.0
 40
0.0
 40
0.0
 40
1.0
 40
1.0
 40
1.0
 40
1.0
 10
-31.5575
 20
22.4346
 30
0.0
 10
-31.5575
 20
22.4346
 30
0.0
 10
-31.1944
 20
22.4347
 30
0.0
 10
-31.1944
 20
22.4347
 30
0.0
  0
SPLINE
  5
12E
330
1F
100
AcDbEntity
  8
Ilustrace
 62
   250
370
    30
100
AcDbSpline
210
0.0
220
0.0
230
1.0
 70
     8
 71
     3
 72
     8
 73
     4
 74
     0
 42
0.0000000001
 43
0.0000000001
 40
0.0
 40
0.0
 40
0.0
 40
0.0
 40
1.0
 40
1.0
 40
1.0
 40
1.0
 10
-31.1944
 20
22.4347
 30
0.0
 10
-31.0068
 20
22.426
 30
0.0
 10
-30.8761
 20
22.2558
 30
0.0
 10
-30.775
 20
22.1201
 30
0.0
  0
SPLINE
  5
12F
330
1F
100
AcDbEntity
  8
Ilustrace
 62
   250
370
    30
100
AcDbSpline
210
0.0
220
0.0
230
1.0
 70
    24
 71
     3
 72
     8
 73
     4
 74
     0
 42
0.0000000001
 43
0.0000000001
 40
0.0
 40
0.0
 40
0.0
 40
0.0
 40
1.0
 40
1.0
 40
1.0
 40
1.0
 10
-30.775
 20
22.1201
 30
0.0
 10
-30.775
 20
22.1201
 30
0.0
 10
-30.5653
 20
21.8055
 30
0.0
 10
-30.5653
 20
21.8055
 30
0.0
  0
SPLINE
  5
130
330
1F
100
AcDbEntity
  8
Ilustrace
 62
   250
370
    30
100
AcDbSpline
210
0.0
220
0.0
230
1.0
 70
     8
 71
     3
 72
     8
 73
     4
 74
     0
 42
0.0000000001
 43
0.0000000001
 40
0.0
 40
0.0
 40
0.0
 40
0.0
 40
1.0
 40
1.0
 40
1.0
 40
1.0
 10
-31.1944
 20
22.7975
 30
0.0
 10
-31.1944
 20
22.6396
 30
0.0
 10
-31.2468
 20
22.3699
 30
0.0
 10
-31.1103
 20
22.2251
 30
0.0
  0
SPLINE
  5
131
330
1F
100
AcDbEntity
  8
Ilustrace
 62
   250
370
    30
100
AcDbSpline
210
0.0
220
0.0
230
1.0
 70
     8
 71
     3
 72
    16
 73
    12
 74
     0
 42
0.0000000001
 43
0.0000000001
 40
0.0
 40
0.0
 40
0.0
 40
0.0
 40
0.25
 40
0.25
 40
0.25
 40
0.25
 40
0.5
 40
0.5
 40
0.5
 40
0.5
 40
1.0
 40
1.0
 40
1.0
 40
1.0
 10
-31.1103
 20
22.2251
 30
0.0
 10
-31.1103
 20
22.2251
 30
0.0
 10
-31.0103
 20
22.1201
 30
0.0
 10
-31.0103
 20
22.1201
 30
0.0
 10
-31.0103
 20
22.1201
 30
0.0
 10
-31.0103
 20
22.1201
 30
0.0
 10
-30.8798
 20
22.0151
 30
0.0
 10
-30.8798
 20
22.0151
 30
0.0
 10
-30.8798
 20
22.0151
 30
0.0
 10
-30.8798
 20
22.0151
 30
0.0
 10
-30.5653
 20
21.8055
 30
0.0
 10
-30.5653
 20
21.8055
 30
0.0
  0
SPLINE
  5
132
330
1F
100
AcDbEntity
  8
Ilustrace
 62
   250
370
    15
100
AcDbSpline
210
0.0
220
0.0
230
1.0
 70
    24
 71
     3
 72
     8
 73
     4
 74
     0
 42
0.0000000001
 43
0.0000000001
 40
0.0
 40
0.0
 40
0.0
 40
0.0
 40
1.0
 40
1.0
 40
1.0
 40
1.0
 10
-30.493
 20
21.7519
 30
0.0
 10
-30.493
 20
21.7519
 30
0.0
 10
28.7442
 20
21.7519
 30
0.0
 10
28.7442
 20
21.7519
 30
0.0
  0
SPLINE
  5
133
330
1F
100
AcDbEntity
  8
Ilustrace
 62
   250
370
    15
100
AcDbSpline
210
0.0
220
0.0
230
1.0
 70
    24
 71
     3
 72
     8
 73
     4
 74
     0
 42
0.0000000001
 43
0.0000000001
 40
0.0
 40
0.0
 40
0.0
 40
0.0
 40
1.0
 40
1.0
 40
1.0
 40
1.0
 10
-30.4636
 20
-37.5443
 30
0.0
 10
-30.4636
 20
-37.5443
 30
0.0
 10
-30.4636
 20
21.6929
 30
0.0
 10
-30.4636
 20
21.6929
 30
0.0
  0
SPLINE
  5
134
330
1F
100
AcDbEntity
  8
Ilustrace
 62
   250
370
    15
100
AcDbSpline
210
0.0
220
0.0
230
1.0
 70
    24
 71
     3
 72
     8
 73
     4
 74
     0
 42
0.0000000001
 43
0.0000000001
 40
0.0
 40
0.0
 40
0.0
 40
0.0
 40
1.0
 40
1.0
 40
1.0
 40
1.0
 10
-14.3391
 20
5.9868
 30
0.0
 10
-14.3391
 20
5.9868
 30
0.0
 10
28.6559
 20
5.9868
 30
0.0
 10
28.6559
 20
5.9868
 30
0.0
  0
SPLINE
  5
135
330
1F
100
AcDbEntity
  8
Ilustrace
 62
   250
370
    15
100
AcDbSpline
210
0.0
220
0.0
230
1.0
 70
    24
 71
     3
 72
     8
 73
     4
 74
     0
 42
0.0000000001
 43
0.0000000001
 40
0.0
 40
0.0
 40
0.0
 40
0.0
 40
1.0
 40
1.0
 40
1.0
 40
1.0
 10
-14.758
 20
-37.2948
 30
0.0
 10
-14.758
 20
-37.2948
 30
0.0
 10
-14.758
 20
5.7002
 30
0.0
 10
-14.758
 20
5.7002
 30
0.0
  0
SPLINE
  5
136
330
1F
100
AcDbEntity
  8
Ilustrace
 62
   250
370
    15
100
AcDbSpline
210
0.0
220
0.0
230
1.0
 70
    24
 71
     3
 72
     8
 73
     4
 74
     0
 42
0.0000000001
 43
0.0000000001
 40
0.0
 40
0.0
 40
0.0
 40
0.0
 40
1.0
 40
1.0
 40
1.0
 40
1.0
 10
22.8132
 20
-0.4371
 30
0.0
 10
22.8132
 20
-0.4371
 30
0.0
 10
22.8132
 20
8.1619
 30
0.0
 10
22.8132
 20
8.1619
 30
0.0
  0
SPLINE
  5
137
330
1F
100
AcDbEntity
  8
Ilustrace
 62
   250
370
    15
100
AcDbSpline
210
0.0
220
0.0
230
1.0
 70
    24
 71
     3
 72
     8
 73
     4
 74
     0
 42
0.0000000001
 43
0.0000000001
 40
0.0
 40
0.0
 40
0.0
 40
0.0
 40
1.0
 40
1.0
 40
1.0
 40
1.0
 10
9.893
 20
-0.3489
 30
0.0
 10
9.893
 20
-0.3489
 30
0.0
 10
9.893
 20
8.0738
 30
0.0
 10
9.893
 20
8.0738
 30
0.0
  0
SPLINE
  5
138
330
1F
100
AcDbEntity
  8
Ilustrace
 62
   250
100
AcDbSpline
210
0.0
220
0.0
230
1.0
 70
    11
 71
     3
 72
   132
 73
   128
 74
     0
 42
0.0000000001
 43
0.0000000001
 40
0.0
 40
0.0
 40
0.0
 40
0.0
 40
0.0303030303030303
 40
0.0303030303030303
 40
0.0303030303030303
 40
0.0303030303030303
 40
0.0606060606060606
 40
0.0606060606060606
 40
0.0606060606060606
 40
0.0606060606060606
 40
0.0909090909090909
 40
0.0909090909090909
 40
0.0909090909090909
 40
0.0909090909090909
 40
0.1212121212121212
 40
0.1212121212121212
 40
0.1212121212121212
 40
0.1212121212121212
 40
0.1515151515151515
 40
0.1515151515151515
 40
0.1515151515151515
 40
0.1515151515151515
 40
0.1818181818181818
 40
0.1818181818181818
 40
0.1818181818181818
 40
0.1818181818181818
 40
0.2121212121212121
 40
0.2121212121212121
 40
0.2121212121212121
 40
0.2121212121212121
 40
0.2424242424242424
 40
0.2424242424242424
 40
0.2424242424242424
 40
0.2424242424242424
 40
0.2727272727272727
 40
0.2727272727272727
 40
0.2727272727272727
 40
0.2727272727272727
 40
0.303030303030303
 40
0.303030303030303
 40
0.303030303030303
 40
0.303030303030303
 40
0.3333333333333333
 40
0.3333333333333333
 40
0.3333333333333333
 40
0.3333333333333333
 40
0.3636363636363636
 40
0.3636363636363636
 40
0.3636363636363636
 40
0.3636363636363636
 40
0.3939393939393939
 40
0.3939393939393939
 40
0.3939393939393939
 40
0.3939393939393939
 40
0.4242424242424243
 40
0.4242424242424243
 40
0.4242424242424243
 40
0.4242424242424243
 40
0.4545454545454545
 40
0.4545454545454545
 40
0.4545454545454545
 40
0.4545454545454545
 40
0.4848484848484849
 40
0.4848484848484849
 40
0.4848484848484849
 40
0.4848484848484849
 40
0.5151515151515151
 40
0.5151515151515151
 40
0.5151515151515151
 40
0.5151515151515151
 40
0.5454545454545454
 40
0.5454545454545454
 40
0.5454545454545454
 40
0.5454545454545454
 40
0.5757575757575758
 40
0.5757575757575758
 40
0.5757575757575758
 40
0.5757575757575758
 40
0.6060606060606061
 40
0.6060606060606061
 40
0.6060606060606061
 40
0.6060606060606061
 40
0.6363636363636364
 40
0.6363636363636364
 40
0.6363636363636364
 40
0.6363636363636364
 40
0.6666666666666666
 40
0.6666666666666666
 40
0.6666666666666666
 40
0.6666666666666666
 40
0.696969696969697
 40
0.696969696969697
 40
0.696969696969697
 40
0.696969696969697
 40
0.7272727272727273
 40
0.7272727272727273
 40
0.7272727272727273
 40
0.7272727272727273
 40
0.7575757575757576
 40
0.7575757575757576
 40
0.7575757575757576
 40
0.7575757575757576
 40
0.7878787878787878
 40
0.7878787878787878
 40
0.7878787878787878
 40
0.7878787878787878
 40
0.8181818181818182
 40
0.8181818181818182
 40
0.8181818181818182
 40
0.8181818181818182
 40
0.8484848484848485
 40
0.8484848484848485
 40
0.8484848484848485
 40
0.8484848484848485
 40
0.8787878787878788
 40
0.8787878787878788
 40
0.8787878787878788
 40
0.8787878787878788
 40
0.9090909090909091
 40
0.9090909090909091
 40
0.9090909090909091
 40
0.9090909090909091
 40
0.9393939393939394
 40
0.9393939393939394
 40
0.9393939393939394
 40
0.9393939393939394
 40
1.0
 40
1.0
 40
1.0
 40
1.0
 10
16.149
 20
3.2036
 30
0.0
 10
16.149
 20
3.2036
 30
0.0
 10
15.1837
 20
3.2036
 30
0.0
 10
15.1837
 20
3.2036
 30
0.0
 10
15.1837
 20
3.2036
 30
0.0
 10
15.1837
 20
3.2036
 30
0.0
 10
15.0533
 20
1.993
 30
0.0
 10
15.0533
 20
1.993
 30
0.0
 10
15.0533
 20
1.993
 30
0.0
 10
15.0906
 20
1.9995
 30
0.0
 10
15.1319
 20
2.0047
 30
0.0
 10
15.1785
 20
2.0092
 30
0.0
 10
15.1785
 20
2.0092
 30
0.0
 10
15.2244
 20
2.0137
 30
0.0
 10
15.2772
 20
2.0163
 30
0.0
 10
15.3358
 20
2.0163
 30
0.0
 10
15.3358
 20
2.0163
 30
0.0
 10
15.4692
 20
2.0156
 30
0.0
 10
15.5784
 20
1.9918
 30
0.0
 10
15.6632
 20
1.9451
 30
0.0
 10
15.6632
 20
1.9451
 30
0.0
 10
15.7485
 20
1.898
 30
0.0
 10
15.8117
 20
1.8332
 30
0.0
 10
15.8525
 20
1.7506
 30
0.0
 10
15.8525
 20
1.7506
 30
0.0
 10
15.8934
 20
1.6672
 30
0.0
 10
15.9137
 20
1.5707
 30
0.0
 10
15.9131
 20
1.4615
 30
0.0
 10
15.9131
 20
1.4615
 30
0.0
 10
15.9137
 20
1.3766
 30
0.0
 10
15.9012
 20
1.3011
 30
0.0
 10
15.8758
 20
1.2339
 30
0.0
 10
15.8758
 20
1.2339
 30
0.0
 10
15.851
 20
1.1659
 30
0.0
 10
15.8164
 20
1.1091
 30
0.0
 10
15.7723
 20
1.0612
 30
0.0
 10
15.7723
 20
1.0612
 30
0.0
 10
15.7284
 20
1.0138
 30
0.0
 10
15.6777
 20
0.9778
 30
0.0
 10
15.6203
 20
0.9525
 30
0.0
 10
15.6203
 20
0.9525
 30
0.0
 10
15.5629
 20
0.9272
 30
0.0
 10
15.5023
 20
0.9143
 30
0.0
 10
15.4382
 20
0.9143
 30
0.0
 10
15.4382
 20
0.9143
 30
0.0
 10
15.3755
 20
0.915
 30
0.0
 10
15.3165
 20
0.922
 30
0.0
 10
15.2611
 20
0.9369
 30
0.0
 10
15.2611
 20
0.9369
 30
0.0
 10
15.2059
 20
0.9512
 30
0.0
 10
15.1561
 20
0.9686
 30
0.0
 10
15.1122
 20
0.99
 30
0.0
 10
15.1122
 20
0.99
 30
0.0
 10
15.0682
 20
1.0113
 30
0.0
 10
15.032
 20
1.0327
 30
0.0
 10
15.0036
 20
1.054
 30
0.0
 10
15.0036
 20
1.054
 30
0.0
 10
15.0036
 20
1.054
 30
0.0
 10
14.9353
 20
0.7939
 30
0.0
 10
14.9353
 20
0.7939
 30
0.0
 10
14.9353
 20
0.7939
 30
0.0
 10
14.9689
 20
0.7676
 30
0.0
 10
15.0108
 20
0.743
 30
0.0
 10
15.061
 20
0.719
 30
0.0
 10
15.061
 20
0.719
 30
0.0
 10
15.1112
 20
0.6957
 30
0.0
 10
15.168
 20
0.677
 30
0.0
 10
15.2317
 20
0.6621
 30
0.0
 10
15.2317
 20
0.6621
 30
0.0
 10
15.2959
 20
0.6472
 30
0.0
 10
15.3647
 20
0.6395
 30
0.0
 10
15.4382
 20
0.6388
 30
0.0
 10
15.4382
 20
0.6388
 30
0.0
 10
15.5484
 20
0.6395
 30
0.0
 10
15.6487
 20
0.6614
 30
0.0
 10
15.7404
 20
0.7041
 30
0.0
 10
15.7404
 20
0.7041
 30
0.0
 10
15.8319
 20
0.7468
 30
0.0
 10
15.9111
 20
0.807
 30
0.0
 10
15.9778
 20
0.8845
 30
0.0
 10
15.9778
 20
0.8845
 30
0.0
 10
16.0451
 20
0.9622
 30
0.0
 10
16.0967
 20
1.0533
 30
0.0
 10
16.1335
 20
1.1575
 30
0.0
 10
16.1335
 20
1.1575
 30
0.0
 10
16.1702
 20
1.2622
 30
0.0
 10
16.1889
 20
1.3766
 30
0.0
 10
16.1894
 20
1.5002
 30
0.0
 10
16.1894
 20
1.5002
 30
0.0
 10
16.1889
 20
1.6049
 30
0.0
 10
16.1754
 20
1.6994
 30
0.0
 10
16.1495
 20
1.7828
 30
0.0
 10
16.1495
 20
1.7828
 30
0.0
 10
16.1237
 20
1.8662
 30
0.0
 10
16.0896
 20
1.938
 30
0.0
 10
16.0461
 20
1.9988
 30
0.0
 10
16.0461
 20
1.9988
 30
0.0
 10
16.0026
 20
2.0596
 30
0.0
 10
15.954
 20
2.1082
 30
0.0
 10
15.9008
 20
2.1444
 30
0.0
 10
15.9008
 20
2.1444
 30
0.0
 10
15.8381
 20
2.1923
 30
0.0
 10
15.7703
 20
2.2271
 30
0.0
 10
15.6963
 20
2.2484
 30
0.0
 10
15.6963
 20
2.2484
 30
0.0
 10
15.6223
 20
2.2698
 30
0.0
 10
15.5458
 20
2.2809
 30
0.0
 10
15.466
 20
2.2802
 30
0.0
 10
15.466
 20
2.2802
 30
0.0
 10
15.4299
 20
2.2802
 30
0.0
 10
15.3989
 20
2.2794
 30
0.0
 10
15.3735
 20
2.2776
 30
0.0
 10
15.3735
 20
2.2776
 30
0.0
 10
15.3481
 20
2.2757
 30
0.0
 10
15.3243
 20
2.2724
 30
0.0
 10
15.3016
 20
2.2685
 30
0.0
 10
15.3016
 20
2.2685
 30
0.0
 10
15.3016
 20
2.2685
 30
0.0
 10
15.3792
 20
2.9165
 30
0.0
 10
15.3792
 20
2.9165
 30
0.0
 10
15.3792
 20
2.9165
 30
0.0
 10
15.3792
 20
2.9165
 30
0.0
 10
16.149
 20
2.9165
 30
0.0
 10
16.149
 20
2.9165
 30
0.0
 10
16.149
 20
2.9165
 30
0.0
 10
16.149
 20
2.9165
 30
0.0
 10
16.149
 20
3.2036
 30
0.0
 10
16.149
 20
3.2036
 30
0.0
  0
SPLINE
  5
139
330
1F
100
AcDbEntity
  8
Ilustrace
 62
   250
100
AcDbSpline
210
0.0
220
0.0
230
1.0
 70
    11
 71
     3
 72
    48
 73
    44
 74
     0
 42
0.0000000001
 43
0.0000000001
 40
0.0
 40
0.0
 40
0.0
 40
0.0
 40
0.0833333333333333
 40
0.0833333333333333
 40
0.0833333333333333
 40
0.0833333333333333
 40
0.1666666666666667
 40
0.1666666666666667
 40
0.1666666666666667
 40
0.1666666666666667
 40
0.25
 40
0.25
 40
0.25
 40
0.25
 40
0.3333333333333333
 40
0.3333333333333333
 40
0.3333333333333333
 40
0.3333333333333333
 40
0.4166666666666667
 40
0.4166666666666667
 40
0.4166666666666667
 40
0.4166666666666667
 40
0.5
 40
0.5
 40
0.5
 40
0.5
 40
0.5833333333333334
 40
0.5833333333333334
 40
0.5833333333333334
 40
0.5833333333333334
 40
0.6666666666666666
 40
0.6666666666666666
 40
0.6666666666666666
 40
0.6666666666666666
 40
0.75
 40
0.75
 40
0.75
 40
0.75
 40
0.8333333333333334
 40
0.8333333333333334
 40
0.8333333333333334
 40
0.8333333333333334
 40
1.0
 40
1.0
 40
1.0
 40
1.0
 10
17.6389
 20
0.6815
 30
0.0
 10
17.6389
 20
0.6815
 30
0.0
 10
17.6389
 20
1.3721
 30
0.0
 10
17.6389
 20
1.3721
 30
0.0
 10
17.6389
 20
1.3721
 30
0.0
 10
17.6389
 20
1.3721
 30
0.0
 10
17.9214
 20
1.3721
 30
0.0
 10
17.9214
 20
1.3721
 30
0.0
 10
17.9214
 20
1.3721
 30
0.0
 10
17.9214
 20
1.3721
 30
0.0
 10
17.9214
 20
1.636
 30
0.0
 10
17.9214
 20
1.636
 30
0.0
 10
17.9214
 20
1.636
 30
0.0
 10
17.9214
 20
1.636
 30
0.0
 10
17.6389
 20
1.636
 30
0.0
 10
17.6389
 20
1.636
 30
0.0
 10
17.6389
 20
1.636
 30
0.0
 10
17.6389
 20
1.636
 30
0.0
 10
17.6389
 20
3.2036
 30
0.0
 10
17.6389
 20
3.2036
 30
0.0
 10
17.6389
 20
3.2036
 30
0.0
 10
17.6389
 20
3.2036
 30
0.0
 10
17.3441
 20
3.2036
 30
0.0
 10
17.3441
 20
3.2036
 30
0.0
 10
17.3441
 20
3.2036
 30
0.0
 10
17.3441
 20
3.2036
 30
0.0
 10
16.4439
 20
1.5933
 30
0.0
 10
16.4439
 20
1.5933
 30
0.0
 10
16.4439
 20
1.5933
 30
0.0
 10
16.4439
 20
1.5933
 30
0.0
 10
16.4439
 20
1.3721
 30
0.0
 10
16.4439
 20
1.3721
 30
0.0
 10
16.4439
 20
1.3721
 30
0.0
 10
16.4439
 20
1.3721
 30
0.0
 10
17.3814
 20
1.3721
 30
0.0
 10
17.3814
 20
1.3721
 30
0.0
 10
17.3814
 20
1.3721
 30
0.0
 10
17.3814
 20
1.3721
 30
0.0
 10
17.3814
 20
0.6815
 30
0.0
 10
17.3814
 20
0.6815
 30
0.0
 10
17.3814
 20
0.6815
 30
0.0
 10
17.3814
 20
0.6815
 30
0.0
 10
17.6389
 20
0.6815
 30
0.0
 10
17.6389
 20
0.6815
 30
0.0
  0
SPLINE
  5
13A
330
1F
100
AcDbEntity
  8
Ilustrace
 62
   250
100
AcDbSpline
210
0.0
220
0.0
230
1.0
 70
    11
 71
     3
 72
    36
 73
    32
 74
     0
 42
0.0000000001
 43
0.0000000001
 40
0.0
 40
0.0
 40
0.0
 40
0.0
 40
0.1111111111111111
 40
0.1111111111111111
 40
0.1111111111111111
 40
0.1111111111111111
 40
0.2222222222222222
 40
0.2222222222222222
 40
0.2222222222222222
 40
0.2222222222222222
 40
0.3333333333333333
 40
0.3333333333333333
 40
0.3333333333333333
 40
0.3333333333333333
 40
0.4444444444444444
 40
0.4444444444444444
 40
0.4444444444444444
 40
0.4444444444444444
 40
0.5555555555555556
 40
0.5555555555555556
 40
0.5555555555555556
 40
0.5555555555555556
 40
0.6666666666666666
 40
0.6666666666666666
 40
0.6666666666666666
 40
0.6666666666666666
 40
0.7777777777777778
 40
0.7777777777777778
 40
0.7777777777777778
 40
0.7777777777777778
 40
1.0
 40
1.0
 40
1.0
 40
1.0
 10
16.7201
 20
1.636
 30
0.0
 10
16.7201
 20
1.636
 30
0.0
 10
16.7201
 20
1.6439
 30
0.0
 10
16.7201
 20
1.6439
 30
0.0
 10
16.7201
 20
1.6439
 30
0.0
 10
16.7201
 20
1.6439
 30
0.0
 10
17.2137
 20
2.5013
 30
0.0
 10
17.2137
 20
2.5013
 30
0.0
 10
17.2137
 20
2.5013
 30
0.0
 10
17.2411
 20
2.5589
 30
0.0
 10
17.2686
 20
2.6171
 30
0.0
 10
17.2955
 20
2.676
 30
0.0
 10
17.2955
 20
2.676
 30
0.0
 10
17.3219
 20
2.7355
 30
0.0
 10
17.3508
 20
2.8013
 30
0.0
 10
17.3814
 20
2.8738
 30
0.0
 10
17.3814
 20
2.8738
 30
0.0
 10
17.3814
 20
2.8738
 30
0.0
 10
17.3907
 20
2.8738
 30
0.0
 10
17.3907
 20
2.8738
 30
0.0
 10
17.3907
 20
2.8738
 30
0.0
 10
17.3844
 20
2.742
 30
0.0
 10
17.3814
 20
2.61
 30
0.0
 10
17.3814
 20
2.478
 30
0.0
 10
17.3814
 20
2.478
 30
0.0
 10
17.3814
 20
2.478
 30
0.0
 10
17.3814
 20
1.636
 30
0.0
 10
17.3814
 20
1.636
 30
0.0
 10
17.3814
 20
1.636
 30
0.0
 10
17.3814
 20
1.636
 30
0.0
 10
16.7201
 20
1.636
 30
0.0
 10
16.7201
 20
1.636
 30
0.0
  0
SPLINE
  5
13B
330
1F
100
AcDbEntity
  8
Ilustrace
 62
   250
370
    15
100
AcDbSpline
210
0.0
220
0.0
230
1.0
 70
    24
 71
     3
 72
     8
 73
     4
 74
     0
 42
0.0000000001
 43
0.0000000001
 40
0.0
 40
0.0
 40
0.0
 40
0.0
 40
1.0
 40
1.0
 40
1.0
 40
1.0
 10
22.5449
 20
0.1151
 30
0.0
 10
22.5449
 20
0.1151
 30
0.0
 10
10.3245
 20
0.1151
 30
0.0
 10
10.3245
 20
0.1151
 30
0.0
  0
SPLINE
  5
13C
330
1F
100
AcDbEntity
  8
Ilustrace
 62
   250
370
     9
100
AcDbSpline
210
0.0
220
0.0
230
1.0
 70
    11
 71
     3
 72
    32
 73
    28
 74
     0
 42
0.0000000001
 43
0.0000000001
 40
0.0
 40
0.0
 40
0.0
 40
0.0
 40
0.125
 40
0.125
 40
0.125
 40
0.125
 40
0.25
 40
0.25
 40
0.25
 40
0.25
 40
0.375
 40
0.375
 40
0.375
 40
0.375
 40
0.5
 40
0.5
 40
0.5
 40
0.5
 40
0.625
 40
0.625
 40
0.625
 40
0.625
 40
0.75
 40
0.75
 40
0.75
 40
0.75
 40
1.0
 40
1.0
 40
1.0
 40
1.0
 10
21.5541
 20
-0.3433
 30
0.0
 10
21.5541
 20
-0.3433
 30
0.0
 10
21.5541
 20
-0.3433
 30
0.0
 10
21.5541
 20
-0.3433
 30
0.0
 10
21.5541
 20
-0.3433
 30
0.0
 10
21.5541
 20
-0.3433
 30
0.0
 10
21.5541
 20
-0.3433
 30
0.0
 10
21.5541
 20
-0.3433
 30
0.0
 10
21.5541
 20
-0.3433
 30
0.0
 10
21.5541
 20
-0.3433
 30
0.0
 10
22.8269
 20
0.1001
 30
0.0
 10
22.8269
 20
0.1001
 30
0.0
 10
22.8269
 20
0.1001
 30
0.0
 10
22.8269
 20
0.1001
 30
0.0
 10
21.5541
 20
0.5435
 30
0.0
 10
21.5541
 20
0.5435
 30
0.0
 10
21.5541
 20
0.5435
 30
0.0
 10
21.5541
 20
0.5435
 30
0.0
 10
21.5541
 20
0.5435
 30
0.0
 10
21.5541
 20
0.5435
 30
0.0
 10
21.5541
 20
0.5435
 30
0.0
 10
21.5541
 20
0.5435
 30
0.0
 10
21.5541
 20
0.5435
 30
0.0
 10
21.5541
 20
0.5435
 30
0.0
 10
21.5541
 20
0.5435
 30
0.0
 10
21.5541
 20
0.5435
 30
0.0
 10
21.5541
 20
-0.3433
 30
0.0
 10
21.5541
 20
-0.3433
 30
0.0
  0
SPLINE
  5
13D
330
1F
100
AcDbEntity
  8
Ilustrace
 62
   250
370
     9
100
AcDbSpline
210
0.0
220
0.0
230
1.0
 70
    11
 71
     3
 72
    32
 73
    28
 74
     0
 42
0.0000000001
 43
0.0000000001
 40
0.0
 40
0.0
 40
0.0
 40
0.0
 40
0.125
 40
0.125
 40
0.125
 40
0.125
 40
0.25
 40
0.25
 40
0.25
 40
0.25
 40
0.375
 40
0.375
 40
0.375
 40
0.375
 40
0.5
 40
0.5
 40
0.5
 40
0.5
 40
0.625
 40
0.625
 40
0.625
 40
0.625
 40
0.75
 40
0.75
 40
0.75
 40
0.75
 40
1.0
 40
1.0
 40
1.0
 40
1.0
 10
11.2174
 20
-0.2915
 30
0.0
 10
11.2174
 20
-0.2915
 30
0.0
 10
11.2174
 20
-0.2915
 30
0.0
 10
11.2174
 20
-0.2915
 30
0.0
 10
11.2174
 20
-0.2915
 30
0.0
 10
11.2174
 20
-0.2915
 30
0.0
 10
11.2174
 20
-0.2915
 30
0.0
 10
11.2174
 20
-0.2915
 30
0.0
 10
11.2174
 20
-0.2915
 30
0.0
 10
11.2174
 20
-0.2915
 30
0.0
 10
9.9446
 20
0.1519
 30
0.0
 10
9.9446
 20
0.1519
 30
0.0
 10
9.9446
 20
0.1519
 30
0.0
 10
9.9446
 20
0.1519
 30
0.0
 10
11.2174
 20
0.5953
 30
0.0
 10
11.2174
 20
0.5953
 30
0.0
 10
11.2174
 20
0.5953
 30
0.0
 10
11.2174
 20
0.5953
 30
0.0
 10
11.2174
 20
0.5953
 30
0.0
 10
11.2174
 20
0.5953
 30
0.0
 10
11.2174
 20
0.5953
 30
0.0
 10
11.2174
 20
0.5953
 30
0.0
 10
11.2174
 20
0.5953
 30
0.0
 10
11.2174
 20
0.5953
 30
0.0
 10
11.2174
 20
0.5953
 30
0.0
 10
11.2174
 20
0.5953
 30
0.0
 10
11.2174
 20
-0.2915
 30
0.0
 10
11.2174
 20
-0.2915
 30
0.0
  0
SPLINE
  5
13E
330
1F
100
AcDbEntity
  8
Ilustrace
 62
   250
100
AcDbSpline
210
0.0
220
0.0
230
1.0
 70
    11
 71
     3
 72
   124
 73
   120
 74
     0
 42
0.0000000001
 43
0.0000000001
 40
0.0
 40
0.0
 40
0.0
 40
0.0
 40
0.032258064516129
 40
0.032258064516129
 40
0.032258064516129
 40
0.032258064516129
 40
0.0645161290322581
 40
0.0645161290322581
 40
0.0645161290322581
 40
0.0645161290322581
 40
0.0967741935483871
 40
0.0967741935483871
 40
0.0967741935483871
 40
0.0967741935483871
 40
0.1290322580645161
 40
0.1290322580645161
 40
0.1290322580645161
 40
0.1290322580645161
 40
0.1612903225806452
 40
0.1612903225806452
 40
0.1612903225806452
 40
0.1612903225806452
 40
0.1935483870967742
 40
0.1935483870967742
 40
0.1935483870967742
 40
0.1935483870967742
 40
0.2258064516129032
 40
0.2258064516129032
 40
0.2258064516129032
 40
0.2258064516129032
 40
0.2580645161290323
 40
0.2580645161290323
 40
0.2580645161290323
 40
0.2580645161290323
 40
0.2903225806451613
 40
0.2903225806451613
 40
0.2903225806451613
 40
0.2903225806451613
 40
0.3225806451612903
 40
0.3225806451612903
 40
0.3225806451612903
 40
0.3225806451612903
 40
0.3548387096774194
 40
0.3548387096774194
 40
0.3548387096774194
 40
0.3548387096774194
 40
0.3870967741935484
 40
0.3870967741935484
 40
0.3870967741935484
 40
0.3870967741935484
 40
0.4193548387096774
 40
0.4193548387096774
 40
0.4193548387096774
 40
0.4193548387096774
 40
0.4516129032258064
 40
0.4516129032258064
 40
0.4516129032258064
 40
0.4516129032258064
 40
0.4838709677419355
 40
0.4838709677419355
 40
0.4838709677419355
 40
0.4838709677419355
 40
0.5161290322580645
 40
0.5161290322580645
 40
0.5161290322580645
 40
0.5161290322580645
 40
0.5483870967741935
 40
0.5483870967741935
 40
0.5483870967741935
 40
0.5483870967741935
 40
0.5806451612903226
 40
0.5806451612903226
 40
0.5806451612903226
 40
0.5806451612903226
 40
0.6129032258064516
 40
0.6129032258064516
 40
0.6129032258064516
 40
0.6129032258064516
 40
0.6451612903225806
 40
0.6451612903225806
 40
0.6451612903225806
 40
0.6451612903225806
 40
0.6774193548387096
 40
0.6774193548387096
 40
0.6774193548387096
 40
0.6774193548387096
 40
0.7096774193548387
 40
0.7096774193548387
 40
0.7096774193548387
 40
0.7096774193548387
 40
0.7419354838709677
 40
0.7419354838709677
 40
0.7419354838709677
 40
0.7419354838709677
 40
0.7741935483870968
 40
0.7741935483870968
 40
0.7741935483870968
 40
0.7741935483870968
 40
0.8064516129032258
 40
0.8064516129032258
 40
0.8064516129032258
 40
0.8064516129032258
 40
0.8387096774193549
 40
0.8387096774193549
 40
0.8387096774193549
 40
0.8387096774193549
 40
0.8709677419354839
 40
0.8709677419354839
 40
0.8709677419354839
 40
0.8709677419354839
 40
0.9032258064516129
 40
0.9032258064516129
 40
0.9032258064516129
 40
0.9032258064516129
 40
0.9354838709677419
 40
0.9354838709677419
 40
0.9354838709677419
 40
0.9354838709677419
 40
1.0
 40
1.0
 40
1.0
 40
1.0
 10
29.2892
 20
17.8033
 30
0.0
 10
29.2892
 20
17.7783
 30
0.0
 10
29.2904
 20
17.7489
 30
0.0
 10
29.2931
 20
17.7158
 30
0.0
 10
29.2931
 20
17.7158
 30
0.0
 10
29.2956
 20
17.6822
 30
0.0
 10
29.3008
 20
17.6449
 30
0.0
 10
29.3086
 20
17.6046
 30
0.0
 10
29.3086
 20
17.6046
 30
0.0
 10
29.3281
 20
17.4768
 30
0.0
 10
29.3694
 20
17.3583
 30
0.0
 10
29.4321
 20
17.2492
 30
0.0
 10
29.4321
 20
17.2492
 30
0.0
 10
29.4949
 20
17.14
 30
0.0
 10
29.5778
 20
17.0432
 30
0.0
 10
29.6811
 20
16.959
 30
0.0
 10
29.6811
 20
16.959
 30
0.0
 10
29.7639
 20
16.8911
 30
0.0
 10
29.8622
 20
16.8317
 30
0.0
 10
29.9761
 20
16.7809
 30
0.0
 10
29.9761
 20
16.7809
 30
0.0
 10
30.0892
 20
16.7297
 30
0.0
 10
30.2166
 20
16.6898
 30
0.0
 10
30.3575
 20
16.661
 30
0.0
 10
30.3575
 20
16.661
 30
0.0
 10
30.4985
 20
16.6324
 30
0.0
 10
30.6526
 20
16.6179
 30
0.0
 10
30.8181
 20
16.6175
 30
0.0
 10
30.8181
 20
16.6175
 30
0.0
 10
30.9824
 20
16.6179
 30
0.0
 10
31.1305
 20
16.635
 30
0.0
 10
31.2623
 20
16.6681
 30
0.0
 10
31.2623
 20
16.6681
 30
0.0
 10
31.3948
 20
16.7017
 30
0.0
 10
31.5075
 20
16.7499
 30
0.0
 10
31.6013
 20
16.8125
 30
0.0
 10
31.6013
 20
16.8125
 30
0.0
 10
31.6951
 20
16.8746
 30
0.0
 10
31.7673
 20
16.9496
 30
0.0
 10
31.8172
 20
17.0364
 30
0.0
 10
31.8172
 20
17.0364
 30
0.0
 10
31.8671
 20
17.1234
 30
0.0
 10
31.8922
 20
17.2207
 30
0.0
 10
31.8929
 20
17.3283
 30
0.0
 10
31.8929
 20
17.3283
 30
0.0
 10
31.8916
 20
17.4339
 30
0.0
 10
31.8671
 20
17.5286
 30
0.0
 10
31.8192
 20
17.6118
 30
0.0
 10
31.8192
 20
17.6118
 30
0.0
 10
31.7706
 20
17.6946
 30
0.0
 10
31.7048
 20
17.7654
 30
0.0
 10
31.6212
 20
17.8234
 30
0.0
 10
31.6212
 20
17.8234
 30
0.0
 10
31.5378
 20
17.8814
 30
0.0
 10
31.4427
 20
17.9258
 30
0.0
 10
31.336
 20
17.9558
 30
0.0
 10
31.336
 20
17.9558
 30
0.0
 10
31.23
 20
17.9864
 30
0.0
 10
31.1181
 20
18.0019
 30
0.0
 10
31.0005
 20
18.0019
 30
0.0
 10
31.0005
 20
18.0019
 30
0.0
 10
30.8776
 20
18.0014
 30
0.0
 10
30.7663
 20
17.9864
 30
0.0
 10
30.6667
 20
17.957
 30
0.0
 10
30.6667
 20
17.957
 30
0.0
 10
30.5672
 20
17.9274
 30
0.0
 10
30.4811
 20
17.8855
 30
0.0
 10
30.4094
 20
17.8317
 30
0.0
 10
30.4094
 20
17.8317
 30
0.0
 10
30.3382
 20
17.7773
 30
0.0
 10
30.2826
 20
17.7132
 30
0.0
 10
30.2444
 20
17.6392
 30
0.0
 10
30.2444
 20
17.6392
 30
0.0
 10
30.2056
 20
17.5653
 30
0.0
 10
30.1863
 20
17.4829
 30
0.0
 10
30.1855
 20
17.3935
 30
0.0
 10
30.1855
 20
17.3935
 30
0.0
 10
30.1863
 20
17.3189
 30
0.0
 10
30.1997
 20
17.2506
 30
0.0
 10
30.2257
 20
17.1887
 30
0.0
 10
30.2257
 20
17.1887
 30
0.0
 10
30.2523
 20
17.1265
 30
0.0
 10
30.2871
 20
17.0712
 30
0.0
 10
30.3317
 20
17.0231
 30
0.0
 10
30.3317
 20
17.0231
 30
0.0
 10
30.3756
 20
16.9755
 30
0.0
 10
30.4255
 20
16.9351
 30
0.0
 10
30.4804
 20
16.903
 30
0.0
 10
30.4804
 20
16.903
 30
0.0
 10
30.4804
 20
16.903
 30
0.0
 10
30.4804
 20
16.8968
 30
0.0
 10
30.4804
 20
16.8968
 30
0.0
 10
30.4804
 20
16.8968
 30
0.0
 10
30.3751
 20
16.9082
 30
0.0
 10
30.2736
 20
16.931
 30
0.0
 10
30.1759
 20
16.9656
 30
0.0
 10
30.1759
 20
16.9656
 30
0.0
 10
30.0788
 20
16.9997
 30
0.0
 10
29.9897
 20
17.0453
 30
0.0
 10
29.9088
 20
17.1033
 30
0.0
 10
29.9088
 20
17.1033
 30
0.0
 10
29.8287
 20
17.1613
 30
0.0
 10
29.76
 20
17.231
 30
0.0
 10
29.7044
 20
17.3133
 30
0.0
 10
29.7044
 20
17.3133
 30
0.0
 10
29.6488
 20
17.3956
 30
0.0
 10
29.61
 20
17.4908
 30
0.0
 10
29.588
 20
17.5984
 30
0.0
 10
29.588
 20
17.5984
 30
0.0
 10
29.5803
 20
17.6372
 30
0.0
 10
29.5743
 20
17.6745
 30
0.0
 10
29.5711
 20
17.709
 30
0.0
 10
29.5711
 20
17.709
 30
0.0
 10
29.5673
 20
17.7438
 30
0.0
 10
29.5666
 20
17.7753
 30
0.0
 10
29.5686
 20
17.8033
 30
0.0
 10
29.5686
 20
17.8033
 30
0.0
 10
29.5686
 20
17.8033
 30
0.0
 10
29.2892
 20
17.8033
 30
0.0
 10
29.2892
 20
17.8033
 30
0.0
  0
SPLINE
  5
13F
330
1F
100
AcDbEntity
  8
Ilustrace
 62
   250
100
AcDbSpline
210
0.0
220
0.0
230
1.0
 70
    11
 71
     3
 72
    64
 73
    60
 74
     0
 42
0.0000000001
 43
0.0000000001
 40
0.0
 40
0.0
 40
0.0
 40
0.0
 40
0.0625
 40
0.0625
 40
0.0625
 40
0.0625
 40
0.125
 40
0.125
 40
0.125
 40
0.125
 40
0.1875
 40
0.1875
 40
0.1875
 40
0.1875
 40
0.25
 40
0.25
 40
0.25
 40
0.25
 40
0.3125
 40
0.3125
 40
0.3125
 40
0.3125
 40
0.375
 40
0.375
 40
0.375
 40
0.375
 40
0.4375
 40
0.4375
 40
0.4375
 40
0.4375
 40
0.5
 40
0.5
 40
0.5
 40
0.5
 40
0.5625
 40
0.5625
 40
0.5625
 40
0.5625
 40
0.625
 40
0.625
 40
0.625
 40
0.625
 40
0.6875
 40
0.6875
 40
0.6875
 40
0.6875
 40
0.75
 40
0.75
 40
0.75
 40
0.75
 40
0.8125
 40
0.8125
 40
0.8125
 40
0.8125
 40
0.875
 40
0.875
 40
0.875
 40
0.875
 40
1.0
 40
1.0
 40
1.0
 40
1.0
 10
31.6291
 20
17.3346
 30
0.0
 10
31.6284
 20
17.2621
 30
0.0
 10
31.6102
 20
17.1984
 30
0.0
 10
31.574
 20
17.143
 30
0.0
 10
31.574
 20
17.143
 30
0.0
 10
31.5378
 20
17.0882
 30
0.0
 10
31.4874
 20
17.0417
 30
0.0
 10
31.4221
 20
17.0039
 30
0.0
 10
31.4221
 20
17.0039
 30
0.0
 10
31.3568
 20
16.9661
 30
0.0
 10
31.2799
 20
16.9377
 30
0.0
 10
31.1918
 20
16.9181
 30
0.0
 10
31.1918
 20
16.9181
 30
0.0
 10
31.104
 20
16.8984
 30
0.0
 10
31.0075
 20
16.8885
 30
0.0
 10
30.9035
 20
16.8875
 30
0.0
 10
30.9035
 20
16.8875
 30
0.0
 10
30.8724
 20
16.8875
 30
0.0
 10
30.8452
 20
16.8907
 30
0.0
 10
30.8206
 20
16.8958
 30
0.0
 10
30.8206
 20
16.8958
 30
0.0
 10
30.7967
 20
16.901
 30
0.0
 10
30.7754
 20
16.9077
 30
0.0
 10
30.756
 20
16.9155
 30
0.0
 10
30.756
 20
16.9155
 30
0.0
 10
30.6933
 20
16.9407
 30
0.0
 10
30.6389
 20
16.9735
 30
0.0
 10
30.5923
 20
17.0142
 30
0.0
 10
30.5923
 20
17.0142
 30
0.0
 10
30.5464
 20
17.0547
 30
0.0
 10
30.5102
 20
17.1001
 30
0.0
 10
30.4843
 20
17.1508
 30
0.0
 10
30.4843
 20
17.1508
 30
0.0
 10
30.459
 20
17.2016
 30
0.0
 10
30.4456
 20
17.2544
 30
0.0
 10
30.4456
 20
17.3096
 30
0.0
 10
30.4456
 20
17.3096
 30
0.0
 10
30.4461
 20
17.394
 30
0.0
 10
30.4694
 20
17.467
 30
0.0
 10
30.5154
 20
17.5296
 30
0.0
 10
30.5154
 20
17.5296
 30
0.0
 10
30.5613
 20
17.5917
 30
0.0
 10
30.6273
 20
17.6397
 30
0.0
 10
30.7133
 20
17.6739
 30
0.0
 10
30.7133
 20
17.6739
 30
0.0
 10
30.7993
 20
17.708
 30
0.0
 10
30.9027
 20
17.7251
 30
0.0
 10
31.0238
 20
17.7257
 30
0.0
 10
31.0238
 20
17.7257
 30
0.0
 10
31.1447
 20
17.7251
 30
0.0
 10
31.2507
 20
17.7086
 30
0.0
 10
31.3412
 20
17.6759
 30
0.0
 10
31.3412
 20
17.6759
 30
0.0
 10
31.4318
 20
17.6433
 30
0.0
 10
31.5016
 20
17.5979
 30
0.0
 10
31.5521
 20
17.5395
 30
0.0
 10
31.5521
 20
17.5395
 30
0.0
 10
31.6025
 20
17.4809
 30
0.0
 10
31.6284
 20
17.4126
 30
0.0
 10
31.6291
 20
17.3346
 30
0.0
  0
SPLINE
  5
140
330
1F
100
AcDbEntity
  8
Ilustrace
 62
   250
370
    15
100
AcDbSpline
210
0.0
220
0.0
230
1.0
 70
    24
 71
     3
 72
     8
 73
     4
 74
     0
 42
0.0000000001
 43
0.0000000001
 40
0.0
 40
0.0
 40
0.0
 40
0.0
 40
1.0
 40
1.0
 40
1.0
 40
1.0
 10
32.1134
 20
19.212
 30
0.0
 10
32.1134
 20
19.212
 30
0.0
 10
32.1134
 20
11.0099
 30
0.0
 10
32.1134
 20
11.0099
 30
0.0
  0
SPLINE
  5
141
330
1F
100
AcDbEntity
  8
Ilustrace
 62
   250
370
     9
100
AcDbSpline
210
0.0
220
0.0
230
1.0
 70
    11
 71
     3
 72
    32
 73
    28
 74
     0
 42
0.0000000001
 43
0.0000000001
 40
0.0
 40
0.0
 40
0.0
 40
0.0
 40
0.125
 40
0.125
 40
0.125
 40
0.125
 40
0.25
 40
0.25
 40
0.25
 40
0.25
 40
0.375
 40
0.375
 40
0.375
 40
0.375
 40
0.5
 40
0.5
 40
0.5
 40
0.5
 40
0.625
 40
0.625
 40
0.625
 40
0.625
 40
0.75
 40
0.75
 40
0.75
 40
0.75
 40
1.0
 40
1.0
 40
1.0
 40
1.0
 10
32.5387
 20
11.6982
 30
0.0
 10
32.5387
 20
11.6982
 30
0.0
 10
32.5387
 20
11.6982
 30
0.0
 10
32.5387
 20
11.6982
 30
0.0
 10
32.5387
 20
11.6982
 30
0.0
 10
32.5387
 20
11.6982
 30
0.0
 10
32.5387
 20
11.6982
 30
0.0
 10
32.5387
 20
11.6982
 30
0.0
 10
32.5387
 20
11.6982
 30
0.0
 10
32.5387
 20
11.6982
 30
0.0
 10
32.0953
 20
12.971
 30
0.0
 10
32.0953
 20
12.971
 30
0.0
 10
32.0953
 20
12.971
 30
0.0
 10
32.0953
 20
12.971
 30
0.0
 10
31.6519
 20
11.6982
 30
0.0
 10
31.6519
 20
11.6982
 30
0.0
 10
31.6519
 20
11.6982
 30
0.0
 10
31.6519
 20
11.6982
 30
0.0
 10
31.6519
 20
11.6982
 30
0.0
 10
31.6519
 20
11.6982
 30
0.0
 10
31.6519
 20
11.6982
 30
0.0
 10
31.6519
 20
11.6982
 30
0.0
 10
31.6519
 20
11.6982
 30
0.0
 10
31.6519
 20
11.6982
 30
0.0
 10
31.6519
 20
11.6982
 30
0.0
 10
31.6519
 20
11.6982
 30
0.0
 10
32.5387
 20
11.6982
 30
0.0
 10
32.5387
 20
11.6982
 30
0.0
  0
SPLINE
  5
142
330
1F
100
AcDbEntity
  8
Ilustrace
 62
   250
370
     9
100
AcDbSpline
210
0.0
220
0.0
230
1.0
 70
    11
 71
     3
 72
    32
 73
    28
 74
     0
 42
0.0000000001
 43
0.0000000001
 40
0.0
 40
0.0
 40
0.0
 40
0.0
 40
0.125
 40
0.125
 40
0.125
 40
0.125
 40
0.25
 40
0.25
 40
0.25
 40
0.25
 40
0.375
 40
0.375
 40
0.375
 40
0.375
 40
0.5
 40
0.5
 40
0.5
 40
0.5
 40
0.625
 40
0.625
 40
0.625
 40
0.625
 40
0.75
 40
0.75
 40
0.75
 40
0.75
 40
1.0
 40
1.0
 40
1.0
 40
1.0
 10
32.5227
 20
15.8313
 30
0.0
 10
32.5227
 20
15.8313
 30
0.0
 10
32.5227
 20
15.8313
 30
0.0
 10
32.5227
 20
15.8313
 30
0.0
 10
32.5227
 20
15.8313
 30
0.0
 10
32.5227
 20
15.8313
 30
0.0
 10
32.5227
 20
15.8313
 30
0.0
 10
32.5227
 20
15.8313
 30
0.0
 10
32.5227
 20
15.8313
 30
0.0
 10
32.5227
 20
15.8313
 30
0.0
 10
32.0793
 20
14.5585
 30
0.0
 10
32.0793
 20
14.5585
 30
0.0
 10
32.0793
 20
14.5585
 30
0.0
 10
32.0793
 20
14.5585
 30
0.0
 10
31.6359
 20
15.8313
 30
0.0
 10
31.6359
 20
15.8313
 30
0.0
 10
31.6359
 20
15.8313
 30
0.0
 10
31.6359
 20
15.8313
 30
0.0
 10
31.6359
 20
15.8313
 30
0.0
 10
31.6359
 20
15.8313
 30
0.0
 10
31.6359
 20
15.8313
 30
0.0
 10
31.6359
 20
15.8313
 30
0.0
 10
31.6359
 20
15.8313
 30
0.0
 10
31.6359
 20
15.8313
 30
0.0
 10
31.6359
 20
15.8313
 30
0.0
 10
31.6359
 20
15.8313
 30
0.0
 10
32.5227
 20
15.8313
 30
0.0
 10
32.5227
 20
15.8313
 30
0.0
  0
SPLINE
  5
143
330
1F
100
AcDbEntity
  8
Ilustrace
 62
   250
370
    15
100
AcDbSpline
210
0.0
220
0.0
230
1.0
 70
    24
 71
     3
 72
     8
 73
     4
 74
     0
 42
0.0000000001
 43
0.0000000001
 40
0.0
 40
0.0
 40
0.0
 40
0.0
 40
1.0
 40
1.0
 40
1.0
 40
1.0
 10
23.2907
 20
12.9676
 30
0.0
 10
23.2907
 20
12.9676
 30
0.0
 10
32.3731
 20
12.9676
 30
0.0
 10
32.3731
 20
12.9676
 30
0.0
  0
SPLINE
  5
144
330
1F
100
AcDbEntity
  8
Ilustrace
 62
   250
370
    15
100
AcDbSpline
210
0.0
220
0.0
230
1.0
 70
    24
 71
     3
 72
     8
 73
     4
 74
     0
 42
0.0000000001
 43
0.0000000001
 40
0.0
 40
0.0
 40
0.0
 40
0.0
 40
1.0
 40
1.0
 40
1.0
 40
1.0
 10
23.3568
 20
14.544
 30
0.0
 10
23.3568
 20
14.544
 30
0.0
 10
32.4392
 20
14.544
 30
0.0
 10
32.4392
 20
14.544
 30
0.0
  0
ENDSEC
  0
SECTION
  2
OBJECTS
  0
DICTIONARY
  5
C
330
0
100
AcDbDictionary
281
     1
  3
ACAD_GROUP
350
D
  3
ACAD_LAYOUT
350
1A
  3
ACAD_MATERIAL
350
3B
  3
ACAD_MLEADERSTYLE
350
147
  3
ACAD_MLINESTYLE
350
17
  3
ACAD_PLOTSETTINGS
350
19
  3
ACAD_PLOTSTYLENAME
350
E
  3
ACAD_VISUALSTYLE
350
2A
  3
AcDbVariableDictionary
350
145
  0
DICTIONARY
  5
D
102
{ACAD_REACTORS
330
C
102
}
330
C
100
AcDbDictionary
281
     1
  0
DICTIONARY
  5
1A
102
{ACAD_REACTORS
330
C
102
}
330
C
100
AcDbDictionary
281
     1
  3
Layout1
350
1E
  3
Layout2
350
26
  3
Model
350
22
  0
DICTIONARY
  5
3B
102
{ACAD_REACTORS
330
C
102
}
330
C
100
AcDbDictionary
281
     1
  3
ByBlock
350
3D
  3
ByLayer
350
3C
  3
Global
350
3E
  0
DICTIONARY
  5
147
102
{ACAD_REACTORS
330
C
102
}
330
C
100
AcDbDictionary
281
     1
  0
DICTIONARY
  5
17
102
{ACAD_REACTORS
330
C
102
}
330
C
100
AcDbDictionary
281
     1
  3
Standard
350
18
  0
DICTIONARY
  5
19
102
{ACAD_REACTORS
330
C
102
}
330
C
100
AcDbDictionary
281
     1
  0
ACDBDICTIONARYWDFLT
  5
E
102
{ACAD_REACTORS
330
C
102
}
330
C
100
AcDbDictionary
281
     1
  3
Normal
350
F
100
AcDbDictionaryWithDefault
340
F
  0
DICTIONARY
  5
2A
102
{ACAD_REACTORS
330
C
102
}
330
C
100
AcDbDictionary
281
     1
  3
2dWireframe
350
2F
  3
3D Hidden
350
31
  3
3dWireframe
350
30
  3
Basic
350
32
  3
Brighten
350
36
  3
ColorChange
350
3A
  3
Conceptual
350
34
  3
Dim
350
35
  3
Facepattern
350
39
  3
Flat
350
2B
  3
FlatWithEdges
350
2C
  3
Gouraud
350
2D
  3
GouraudWithEdges
350
2E
  3
Linepattern
350
38
  3
Realistic
350
33
  3
Thicken
350
37
  0
DICTIONARY
  5
145
102
{ACAD_REACTORS
330
C
102
}
330
C
100
AcDbDictionary
281
     1
  3
DIMASSOC
350
148
  3
HIDETEXT
350
149
  0
LAYOUT
  5
1E
102
{ACAD_REACTORS
330
1A
102
}
330
1A
100
AcDbPlotSettings
  1

  2
none_device
  4

  6

 40
0.0
 41
0.0
 42
0.0
 43
0.0
 44
0.0
 45
0.0
 46
0.0
 47
0.0
 48
0.0
 49
0.0
140
0.0
141
0.0
142
1.0
143
1.0
 70
   688
 72
     0
 73
     0
 74
     5
  7

 75
    16
147
1.0
148
0.0
149
0.0
100
AcDbLayout
  1
Layout1
 70
     1
 71
     1
 10
0.0
 20
0.0
 11
12.0
 21
9.0
 12
0.0
 22
0.0
 32
0.0
 14
1.000000000000000E+20
 24
1.000000000000000E+20
 34
1.000000000000000E+20
 15
-1.000000000000000E+20
 25
-1.000000000000000E+20
 35
-1.000000000000000E+20
146
0.0
 13
0.0
 23
0.0
 33
0.0
 16
1.0
 26
0.0
 36
0.0
 17
0.0
 27
1.0
 37
0.0
 76
     0
330
1B
  0
LAYOUT
  5
26
102
{ACAD_REACTORS
330
1A
102
}
330
1A
100
AcDbPlotSettings
  1

  2
none_device
  4

  6

 40
0.0
 41
0.0
 42
0.0
 43
0.0
 44
0.0
 45
0.0
 46
0.0
 47
0.0
 48
0.0
 49
0.0
140
0.0
141
0.0
142
1.0
143
1.0
 70
   688
 72
     0
 73
     0
 74
     5
  7

 75
    16
147
1.0
148
0.0
149
0.0
100
AcDbLayout
  1
Layout2
 70
     1
 71
     2
 10
0.0
 20
0.0
 11
0.0
 21
0.0
 12
0.0
 22
0.0
 32
0.0
 14
0.0
 24
0.0
 34
0.0
 15
0.0
 25
0.0
 35
0.0
146
0.0
 13
0.0
 23
0.0
 33
0.0
 16
1.0
 26
0.0
 36
0.0
 17
0.0
 27
1.0
 37
0.0
 76
     0
330
23
  0
LAYOUT
  5
22
102
{ACAD_REACTORS
330
1A
102
}
330
1A
100
AcDbPlotSettings
  1

  2
none_device
  4

  6

 40
0.0
 41
0.0
 42
0.0
 43
0.0
 44
0.0
 45
0.0
 46
0.0
 47
0.0
 48
0.0
 49
0.0
140
0.0
141
0.0
142
1.0
143
1.0
 70
  1712
 72
     0
 73
     0
 74
     0
  7

 75
     0
147
1.0
148
0.0
149
0.0
100
AcDbLayout
  1
Model
 70
     1
 71
     0
 10
0.0
 20
0.0
 11
12.0
 21
9.0
 12
0.0
 22
0.0
 32
0.0
 14
-37.5883
 24
-37.6212
 34
0.0
 15
37.5883
 25
37.5443
 35
0.0
146
0.0
 13
0.0
 23
0.0
 33
0.0
 16
1.0
 26
0.0
 36
0.0
 17
0.0
 27
1.0
 37
0.0
 76
     0
330
1F
331
29
  0
MATERIAL
  5
3D
102
{ACAD_REACTORS
330
3B
102
}
102
{ACAD_XDICTIONARY
360
16C
102
}
330
3B
100
AcDbMaterial
  1
ByBlock
  0
MATERIAL
  5
3C
102
{ACAD_REACTORS
330
3B
102
}
102
{ACAD_XDICTIONARY
360
16A
102
}
330
3B
100
AcDbMaterial
  1
ByLayer
  0
MATERIAL
  5
3E
102
{ACAD_REACTORS
330
3B
102
}
102
{ACAD_XDICTIONARY
360
16E
102
}
330
3B
100
AcDbMaterial
  1
Global
  0
MLINESTYLE
  5
18
102
{ACAD_REACTORS
330
17
102
}
330
17
100
AcDbMlineStyle
  2
Standard
 70
     0
  3

 62
   256
 51
90.0
 52
90.0
 71
     2
 49
0.5
 62
   256
  6
BYLAYER
 49
-0.5
 62
   256
  6
BYLAYER
  0
ACDBPLACEHOLDER
  5
F
102
{ACAD_REACTORS
330
E
102
}
330
E
  0
VISUALSTYLE
  5
2F
102
{ACAD_REACTORS
330
2A
102
}
102
{ACAD_XDICTIONARY
360
152
102
}
330
2A
100
AcDbVisualStyle
  2
2dWireframe
 70
     4
 71
     0
 72
     2
 73
     0
 90
        0
 40
-0.6
 41
-30.0
 62
     5
 63
     7
 74
     1
 91
        4
 64
     7
 65
   257
 75
     1
175
     1
 42
1.0
 92
        0
 66
   257
 43
1.0
 76
     1
 77
     6
 78
     2
 67
     7
 79
     5
170
     0
171
     0
290
     0
174
     0
 93
        1
 44
0.0
173
     0
291
     0
 45
0.0
1001
ACAD
1000
AcDbSavedByObjectVersion
1070
     0
  0
VISUALSTYLE
  5
31
102
{ACAD_REACTORS
330
2A
102
}
102
{ACAD_XDICTIONARY
360
156
102
}
330
2A
100
AcDbVisualStyle
  2
3D Hidden
 70
     6
 71
     1
 72
     2
 73
     2
 90
        0
 40
-0.6
 41
-30.0
 62
     5
 63
     7
 74
     2
 91
        2
 64
     7
 65
   257
 75
     2
175
     1
 42
40.0
 92
        0
 66
   257
 43
1.0
 76
     1
 77
     6
 78
     2
 67
     7
 79
     3
170
     0
171
     0
290
     0
174
     0
 93
        1
 44
0.0
173
     0
291
     0
 45
0.0
1001
ACAD
1000
AcDbSavedByObjectVersion
1070
     0
  0
VISUALSTYLE
  5
30
102
{ACAD_REACTORS
330
2A
102
}
102
{ACAD_XDICTIONARY
360
154
102
}
330
2A
100
AcDbVisualStyle
  2
3dWireframe
 70
     5
 71
     0
 72
     2
 73
     0
 90
        0
 40
-0.6
 41
-30.0
 62
     5
 63
     7
 74
     1
 91
        4
 64
     7
 65
   257
 75
     1
175
     1
 42
1.0
 92
        0
 66
   257
 43
1.0
 76
     1
 77
     6
 78
     2
 67
     7
 79
     5
170
     0
171
     0
290
     0
174
     0
 93
        1
 44
0.0
173
     0
291
     0
 45
0.0
1001
ACAD
1000
AcDbSavedByObjectVersion
1070
     0
  0
VISUALSTYLE
  5
32
102
{ACAD_REACTORS
330
2A
102
}
102
{ACAD_XDICTIONARY
360
158
102
}
330
2A
100
AcDbVisualStyle
  2
Basic
 70
     7
 71
     1
 72
     0
 73
     1
 90
        0
 40
-0.6
 41
-30.0
 62
     5
 63
     7
 74
     0
 91
        4
 64
     7
 65
   257
 75
     1
175
     1
 42
1.0
 92
        8
 66
     7
 43
1.0
 76
     1
 77
     6
 78
     2
 67
     7
 79
     5
170
     0
171
     0
290
     0
174
     0
 93
        1
 44
0.0
173
     0
291
     1
 45
0.0
1001
ACAD
1000
AcDbSavedByObjectVersion
1070
     0
  0
VISUALSTYLE
  5
36
102
{ACAD_REACTORS
330
2A
102
}
102
{ACAD_XDICTIONARY
360
160
102
}
330
2A
100
AcDbVisualStyle
  2
Brighten
 70
    12
 71
     2
 72
     2
 73
     0
 90
        0
 40
-0.6
 41
-30.0
 62
     5
 63
     7
 74
     1
 91
        4
 64
     7
 65
   257
 75
     1
175
     1
 42
1.0
 92
        8
 66
     7
 43
1.0
 76
     1
 77
     6
 78
     2
 67
     7
 79
     5
170
     0
171
     0
290
     0
174
     0
 93
        1
 44
50.0
173
     0
291
     1
 45
0.0
1001
ACAD
1000
AcDbSavedByObjectVersion
1070
     0
  0
VISUALSTYLE
  5
3A
102
{ACAD_REACTORS
330
2A
102
}
102
{ACAD_XDICTIONARY
360
168
102
}
330
2A
100
AcDbVisualStyle
  2
ColorChange
 70
    16
 71
     2
 72
     2
 73
     3
 90
        0
 40
-0.6
 41
-30.0
 62
     5
 63
     8
 74
     1
 91
        4
 64
     7
 65
   257
 75
     1
175
     1
 42
1.0
 92
        8
 66
     8
 43
1.0
 76
     1
 77
     6
 78
     2
 67
     7
 79
     5
170
     0
171
     0
290
     0
174
     0
 93
        1
 44
0.0
173
     0
291
     1
 45
0.0
1001
ACAD
1000
AcDbSavedByObjectVersion
1070
     0
  0
VISUALSTYLE
  5
34
102
{ACAD_REACTORS
330
2A
102
}
102
{ACAD_XDICTIONARY
360
15C
102
}
330
2A
100
AcDbVisualStyle
  2
Conceptual
 70
     9
 71
     3
 72
     2
 73
     0
 90
        0
 40
-0.6
 41
-30.0
 62
     5
 63
     7
 74
     2
 91
        2
 64
     7
 65
   257
 75
     1
175
     1
 42
40.0
 92
        8
 66
     7
 43
1.0
 76
     1
 77
     6
 78
     2
 67
     7
 79
     3
170
     0
171
     0
290
     0
174
     0
 93
        1
 44
0.0
173
     0
291
     0
 45
0.0
1001
ACAD
1000
AcDbSavedByObjectVersion
1070
     0
  0
VISUALSTYLE
  5
35
102
{ACAD_REACTORS
330
2A
102
}
102
{ACAD_XDICTIONARY
360
15E
102
}
330
2A
100
AcDbVisualStyle
  2
Dim
 70
    11
 71
     2
 72
     2
 73
     0
 90
        0
 40
-0.6
 41
-30.0
 62
     5
 63
     7
 74
     1
 91
        4
 64
     7
 65
   257
 75
     1
175
     1
 42
1.0
 92
        8
 66
     7
 43
1.0
 76
     1
 77
     6
 78
     2
 67
     7
 79
     5
170
     0
171
     0
290
     0
174
     0
 93
        1
 44
-50.0
173
     0
291
     1
 45
0.0
1001
ACAD
1000
AcDbSavedByObjectVersion
1070
     0
  0
VISUALSTYLE
  5
39
102
{ACAD_REACTORS
330
2A
102
}
102
{ACAD_XDICTIONARY
360
166
102
}
330
2A
100
AcDbVisualStyle
  2
Facepattern
 70
    15
 71
     2
 72
     2
 73
     0
 90
        0
 40
-0.6
 41
-30.0
 62
     5
 63
     7
 74
     1
 91
        4
 64
     7
 65
   257
 75
     1
175
     1
 42
1.0
 92
        8
 66
     7
 43
1.0
 76
     1
 77
     6
 78
     2
 67
     7
 79
     5
170
     0
171
     0
290
     0
174
     0
 93
        1
 44
0.0
173
     0
291
     1
 45
0.0
1001
ACAD
1000
AcDbSavedByObjectVersion
1070
     0
  0
VISUALSTYLE
  5
2B
102
{ACAD_REACTORS
330
2A
102
}
102
{ACAD_XDICTIONARY
360
14A
102
}
330
2A
100
AcDbVisualStyle
  2
Flat
 70
     0
 71
     2
 72
     1
 73
     1
 90
        2
 40
-0.6
 41
30.0
 62
     5
 63
     7
 74
     0
 91
        4
 64
     7
 65
   257
 75
     1
175
     1
 42
1.0
 92
        8
 66
     7
 43
1.0
 76
     1
 77
     6
 78
     2
 67
     7
 79
     5
170
     0
171
     0
290
     0
174
     0
 93
       13
 44
0.0
173
     0
291
     1
 45
0.0
1001
ACAD
1000
AcDbSavedByObjectVersion
1070
     0
  0
VISUALSTYLE
  5
2C
102
{ACAD_REACTORS
330
2A
102
}
102
{ACAD_XDICTIONARY
360
14C
102
}
330
2A
100
AcDbVisualStyle
  2
FlatWithEdges
 70
     1
 71
     2
 72
     1
 73
     1
 90
        2
 40
-0.6
 41
30.0
 62
     5
 63
     7
 74
     1
 91
        4
 64
     7
 65
   257
 75
     1
175
     1
 42
1.0
 92
        0
 66
   257
 43
1.0
 76
     1
 77
     6
 78
     2
 67
     7
 79
     5
170
     0
171
     0
290
     0
174
     0
 93
       13
 44
0.0
173
     0
291
     1
 45
0.0
1001
ACAD
1000
AcDbSavedByObjectVersion
1070
     0
  0
VISUALSTYLE
  5
2D
102
{ACAD_REACTORS
330
2A
102
}
102
{ACAD_XDICTIONARY
360
14E
102
}
330
2A
100
AcDbVisualStyle
  2
Gouraud
 70
     2
 71
     2
 72
     2
 73
     1
 90
        2
 40
-0.6
 41
30.0
 62
     5
 63
     7
 74
     0
 91
        4
 64
     7
 65
   257
 75
     1
175
     1
 42
1.0
 92
        0
 66
     7
 43
1.0
 76
     1
 77
     6
 78
     2
 67
     7
 79
     5
170
     0
171
     0
290
     0
174
     0
 93
       13
 44
0.0
173
     0
291
     1
 45
0.0
1001
ACAD
1000
AcDbSavedByObjectVersion
1070
     0
  0
VISUALSTYLE
  5
2E
102
{ACAD_REACTORS
330
2A
102
}
102
{ACAD_XDICTIONARY
360
150
102
}
330
2A
100
AcDbVisualStyle
  2
GouraudWithEdges
 70
     3
 71
     2
 72
     2
 73
     1
 90
        2
 40
-0.6
 41
30.0
 62
     5
 63
     7
 74
     1
 91
        4
 64
     7
 65
   257
 75
     1
175
     1
 42
1.0
 92
        0
 66
   257
 43
1.0
 76
     1
 77
     6
 78
     2
 67
     7
 79
     5
170
     0
171
     0
290
     0
174
     0
 93
       13
 44
0.0
173
     0
291
     1
 45
0.0
1001
ACAD
1000
AcDbSavedByObjectVersion
1070
     0
  0
VISUALSTYLE
  5
38
102
{ACAD_REACTORS
330
2A
102
}
102
{ACAD_XDICTIONARY
360
164
102
}
330
2A
100
AcDbVisualStyle
  2
Linepattern
 70
    14
 71
     2
 72
     2
 73
     0
 90
        0
 40
-0.6
 41
-30.0
 62
     5
 63
     7
 74
     1
 91
        4
 64
     7
 65
   257
 75
     7
175
     7
 42
1.0
 92
        8
 66
     7
 43
1.0
 76
     1
 77
     6
 78
     2
 67
     7
 79
     5
170
     0
171
     0
290
     0
174
     0
 93
        1
 44
0.0
173
     0
291
     1
 45
0.0
1001
ACAD
1000
AcDbSavedByObjectVersion
1070
     0
  0
VISUALSTYLE
  5
33
102
{ACAD_REACTORS
330
2A
102
}
102
{ACAD_XDICTIONARY
360
15A
102
}
330
2A
100
AcDbVisualStyle
  2
Realistic
 70
     8
 71
     2
 72
     2
 73
     0
 90
        0
 40
-0.6
 41
-30.0
 62
     5
 63
     7
 74
     1
 91
        0
 64
     7
 65
   257
 75
     1
175
     1
 42
1.0
 92
        8
 66
     8
 43
1.0
 76
     1
 77
     6
 78
     2
 67
     7
 79
     5
170
     0
171
     0
290
     0
174
     0
 93
       13
 44
0.0
173
     0
291
     0
 45
0.0
1001
ACAD
1000
AcDbSavedByObjectVersion
1070
     0
  0
VISUALSTYLE
  5
37
102
{ACAD_REACTORS
330
2A
102
}
102
{ACAD_XDICTIONARY
360
162
102
}
330
2A
100
AcDbVisualStyle
  2
Thicken
 70
    13
 71
     2
 72
     2
 73
     0
 90
        0
 40
-0.6
 41
-30.0
 62
     5
 63
     7
 74
     1
 91
        4
 64
     7
 65
   257
 75
     1
175
     1
 42
1.0
 92
       12
 66
     7
 43
1.0
 76
     1
 77
     6
 78
     2
 67
     7
 79
     5
170
     0
171
     0
290
     0
174
     0
 93
        1
 44
0.0
173
     0
291
     1
 45
0.0
1001
ACAD
1000
AcDbSavedByObjectVersion
1070
     0
  0
DICTIONARYVAR
  5
148
102
{ACAD_REACTORS
330
145
102
}
330
145
100
DictionaryVariables
280
     0
  1
2
  0
DICTIONARYVAR
  5
149
102
{ACAD_REACTORS
330
145
102
}
330
145
100
DictionaryVariables
280
     0
  1
1
  0
DICTIONARY
  5
16C
330
3D
100
AcDbDictionary
280
     1
281
     1
  3
ACAD_XREC_ROUNDTRIP
360
16D
  0
DICTIONARY
  5
16A
330
3C
100
AcDbDictionary
280
     1
281
     1
  3
ACAD_XREC_ROUNDTRIP
360
16B
  0
DICTIONARY
  5
16E
330
3E
100
AcDbDictionary
280
     1
281
     1
  3
ACAD_XREC_ROUNDTRIP
360
16F
  0
DICTIONARY
  5
152
330
2F
100
AcDbDictionary
280
     1
281
     1
  3
ACAD_XREC_ROUNDTRIP
360
153
  0
DICTIONARY
  5
156
330
31
100
AcDbDictionary
280
     1
281
     1
  3
ACAD_XREC_ROUNDTRIP
360
157
  0
DICTIONARY
  5
154
330
30
100
AcDbDictionary
280
     1
281
     1
  3
ACAD_XREC_ROUNDTRIP
360
155
  0
DICTIONARY
  5
158
330
32
100
AcDbDictionary
280
     1
281
     1
  3
ACAD_XREC_ROUNDTRIP
360
159
  0
DICTIONARY
  5
160
330
36
100
AcDbDictionary
280
     1
281
     1
  3
ACAD_XREC_ROUNDTRIP
360
161
  0
DICTIONARY
  5
168
330
3A
100
AcDbDictionary
280
     1
281
     1
  3
ACAD_XREC_ROUNDTRIP
360
169
  0
DICTIONARY
  5
15C
330
34
100
AcDbDictionary
280
     1
281
     1
  3
ACAD_XREC_ROUNDTRIP
360
15D
  0
DICTIONARY
  5
15E
330
35
100
AcDbDictionary
280
     1
281
     1
  3
ACAD_XREC_ROUNDTRIP
360
15F
  0
DICTIONARY
  5
166
330
39
100
AcDbDictionary
280
     1
281
     1
  3
ACAD_XREC_ROUNDTRIP
360
167
  0
DICTIONARY
  5
14A
330
2B
100
AcDbDictionary
280
     1
281
     1
  3
ACAD_XREC_ROUNDTRIP
360
14B
  0
DICTIONARY
  5
14C
330
2C
100
AcDbDictionary
280
     1
281
     1
  3
ACAD_XREC_ROUNDTRIP
360
14D
  0
DICTIONARY
  5
14E
330
2D
100
AcDbDictionary
280
     1
281
     1
  3
ACAD_XREC_ROUNDTRIP
360
14F
  0
DICTIONARY
  5
150
330
2E
100
AcDbDictionary
280
     1
281
     1
  3
ACAD_XREC_ROUNDTRIP
360
151
  0
DICTIONARY
  5
164
330
38
100
AcDbDictionary
280
     1
281
     1
  3
ACAD_XREC_ROUNDTRIP
360
165
  0
DICTIONARY
  5
15A
330
33
100
AcDbDictionary
280
     1
281
     1
  3
ACAD_XREC_ROUNDTRIP
360
15B
  0
DICTIONARY
  5
162
330
37
100
AcDbDictionary
280
     1
281
     1
  3
ACAD_XREC_ROUNDTRIP
360
163
  0
XRECORD
  5
16D
102
{ACAD_REACTORS
330
16C
102
}
330
16C
100
AcDbXrecord
280
     1
102
MATERIAL
148
0.0
149
0.0
149
0.0
 93
        0
 94
      127
282
     0
 72
     1
 77
     1
171
     1
175
     1
179
     1
273
     0
  0
XRECORD
  5
16B
102
{ACAD_REACTORS
330
16A
102
}
330
16A
100
AcDbXrecord
280
     1
102
MATERIAL
148
0.0
149
0.0
149
0.0
 93
        0
 94
      127
282
     0
 72
     1
 77
     1
171
     1
175
     1
179
     1
273
     0
  0
XRECORD
  5
16F
102
{ACAD_REACTORS
330
16E
102
}
330
16E
100
AcDbXrecord
280
     1
102
MATERIAL
148
0.0
149
0.0
149
0.0
 93
        0
 94
      127
282
     0
 72
     1
 77
     1
171
     1
175
     1
179
     1
273
     0
  0
XRECORD
  5
153
102
{ACAD_REACTORS
330
152
102
}
330
152
100
AcDbXrecord
280
     1
102
RTVSPropertyOp0
 70
     1
102
RTVSPropertyOp1
 70
     1
102
RTVSPropertyOp2
 70
     1
102
RTVSPropertyOp3
 70
     1
102
RTVSPropertyOp4
 70
     1
102
RTVSPropertyOp5
 70
     1
102
RTVSPropertyOp6
 70
     1
102
RTVSPropertyOp7
 70
     1
102
RTVSPropertyOp8
 70
     1
102
RTVSPropertyOp9
 70
     1
102
RTVSPropertyOp10
 70
     1
102
RTVSPropertyOp11
 70
     1
102
RTVSPropertyOp12
 70
     1
102
RTVSPropertyOp13
 70
     1
102
RTVSPropertyOp14
 70
     1
102
RTVSPropertyOp15
 70
     1
102
RTVSPropertyOp16
 70
     1
102
RTVSPropertyOp17
 70
     1
102
RTVSPropertyOp18
 70
     1
102
RTVSPropertyOp19
 70
     1
102
RTVSPropertyOp20
 70
     1
102
RTVSPropertyOp21
 70
     1
102
RTVSPropertyOp22
 70
     1
102
RTVSPropertyOp23
 70
     1
102
RTVSPropertyOp24
 70
     1
102
RTVSPropertyOp25
 70
     1
102
RTVSPropertyOp26
 70
     1
102
RTVSPropertyOp27
 70
     1
  0
XRECORD
  5
157
102
{ACAD_REACTORS
330
156
102
}
330
156
100
AcDbXrecord
280
     1
102
RTVSPropertyOp0
 70
     1
102
RTVSPropertyOp1
 70
     1
102
RTVSPropertyOp2
 70
     1
102
RTVSPropertyOp3
 70
     1
102
RTVSPropertyOp4
 70
     1
102
RTVSPropertyOp5
 70
     1
102
RTVSPropertyOp6
 70
     1
102
RTVSPropertyOp7
 70
     1
102
RTVSPropertyOp8
 70
     1
102
RTVSPropertyOp9
 70
     1
102
RTVSPropertyOp10
 70
     1
102
RTVSPropertyOp11
 70
     1
102
RTVSPropertyOp12
 70
     1
102
RTVSPropertyOp13
 70
     1
102
RTVSPropertyOp14
 70
     1
102
RTVSPropertyOp15
 70
     1
102
RTVSPropertyOp16
 70
     1
102
RTVSPropertyOp17
 70
     1
102
RTVSPropertyOp18
 70
     1
102
RTVSPropertyOp19
 70
     1
102
RTVSPropertyOp20
 70
     1
102
RTVSPropertyOp21
 70
     1
102
RTVSPropertyOp22
 70
     1
102
RTVSPropertyOp23
 70
     1
102
RTVSPropertyOp24
 70
     1
102
RTVSPropertyOp25
 70
     1
102
RTVSPropertyOp26
 70
     1
102
RTVSPropertyOp27
 70
     1
  0
XRECORD
  5
155
102
{ACAD_REACTORS
330
154
102
}
330
154
100
AcDbXrecord
280
     1
102
RTVSPropertyOp0
 70
     1
102
RTVSPropertyOp1
 70
     1
102
RTVSPropertyOp2
 70
     1
102
RTVSPropertyOp3
 70
     1
102
RTVSPropertyOp4
 70
     1
102
RTVSPropertyOp5
 70
     1
102
RTVSPropertyOp6
 70
     1
102
RTVSPropertyOp7
 70
     1
102
RTVSPropertyOp8
 70
     1
102
RTVSPropertyOp9
 70
     1
102
RTVSPropertyOp10
 70
     1
102
RTVSPropertyOp11
 70
     1
102
RTVSPropertyOp12
 70
     1
102
RTVSPropertyOp13
 70
     1
102
RTVSPropertyOp14
 70
     1
102
RTVSPropertyOp15
 70
     1
102
RTVSPropertyOp16
 70
     1
102
RTVSPropertyOp17
 70
     1
102
RTVSPropertyOp18
 70
     1
102
RTVSPropertyOp19
 70
     1
102
RTVSPropertyOp20
 70
     1
102
RTVSPropertyOp21
 70
     1
102
RTVSPropertyOp22
 70
     1
102
RTVSPropertyOp23
 70
     1
102
RTVSPropertyOp24
 70
     1
102
RTVSPropertyOp25
 70
     1
102
RTVSPropertyOp26
 70
     1
102
RTVSPropertyOp27
 70
     1
  0
XRECORD
  5
159
102
{ACAD_REACTORS
330
158
102
}
330
158
100
AcDbXrecord
280
     1
102
RTVSPropertyOp0
 70
     1
102
RTVSPropertyOp1
 70
     1
102
RTVSPropertyOp2
 70
     1
102
RTVSPropertyOp3
 70
     1
102
RTVSPropertyOp4
 70
     1
102
RTVSPropertyOp5
 70
     1
102
RTVSPropertyOp6
 70
     1
102
RTVSPropertyOp7
 70
     1
102
RTVSPropertyOp8
 70
     1
102
RTVSPropertyOp9
 70
     1
102
RTVSPropertyOp10
 70
     1
102
RTVSPropertyOp11
 70
     1
102
RTVSPropertyOp12
 70
     1
102
RTVSPropertyOp13
 70
     1
102
RTVSPropertyOp14
 70
     1
102
RTVSPropertyOp15
 70
     1
102
RTVSPropertyOp16
 70
     1
102
RTVSPropertyOp17
 70
     1
102
RTVSPropertyOp18
 70
     1
102
RTVSPropertyOp19
 70
     1
102
RTVSPropertyOp20
 70
     1
102
RTVSPropertyOp21
 70
     1
102
RTVSPropertyOp22
 70
     1
102
RTVSPropertyOp23
 70
     1
102
RTVSPropertyOp24
 70
     1
102
RTVSPropertyOp25
 70
     1
102
RTVSPropertyOp26
 70
     1
102
RTVSPropertyOp27
 70
     1
  0
XRECORD
  5
161
102
{ACAD_REACTORS
330
160
102
}
330
160
100
AcDbXrecord
280
     1
102
RTVSPropertyOp0
 70
     1
102
RTVSPropertyOp1
 70
     1
102
RTVSPropertyOp2
 70
     1
102
RTVSPropertyOp3
 70
     1
102
RTVSPropertyOp4
 70
     1
102
RTVSPropertyOp5
 70
     1
102
RTVSPropertyOp6
 70
     1
102
RTVSPropertyOp7
 70
     1
102
RTVSPropertyOp8
 70
     1
102
RTVSPropertyOp9
 70
     1
102
RTVSPropertyOp10
 70
     1
102
RTVSPropertyOp11
 70
     1
102
RTVSPropertyOp12
 70
     1
102
RTVSPropertyOp13
 70
     1
102
RTVSPropertyOp14
 70
     1
102
RTVSPropertyOp15
 70
     1
102
RTVSPropertyOp16
 70
     1
102
RTVSPropertyOp17
 70
     1
102
RTVSPropertyOp18
 70
     1
102
RTVSPropertyOp19
 70
     1
102
RTVSPropertyOp20
 70
     1
102
RTVSPropertyOp21
 70
     1
102
RTVSPropertyOp22
 70
     1
102
RTVSPropertyOp23
 70
     1
102
RTVSPropertyOp24
 70
     1
102
RTVSPropertyOp25
 70
     1
102
RTVSPropertyOp26
 70
     1
102
RTVSPropertyOp27
 70
     1
  0
XRECORD
  5
169
102
{ACAD_REACTORS
330
168
102
}
330
168
100
AcDbXrecord
280
     1
102
RTVSPropertyOp0
 70
     1
102
RTVSPropertyOp1
 70
     1
102
RTVSPropertyOp2
 70
     1
102
RTVSPropertyOp3
 70
     1
102
RTVSPropertyOp4
 70
     1
102
RTVSPropertyOp5
 70
     1
102
RTVSPropertyOp6
 70
     1
102
RTVSPropertyOp7
 70
     1
102
RTVSPropertyOp8
 70
     1
102
RTVSPropertyOp9
 70
     1
102
RTVSPropertyOp10
 70
     1
102
RTVSPropertyOp11
 70
     1
102
RTVSPropertyOp12
 70
     1
102
RTVSPropertyOp13
 70
     1
102
RTVSPropertyOp14
 70
     1
102
RTVSPropertyOp15
 70
     1
102
RTVSPropertyOp16
 70
     1
102
RTVSPropertyOp17
 70
     1
102
RTVSPropertyOp18
 70
     1
102
RTVSPropertyOp19
 70
     1
102
RTVSPropertyOp20
 70
     1
102
RTVSPropertyOp21
 70
     1
102
RTVSPropertyOp22
 70
     1
102
RTVSPropertyOp23
 70
     1
102
RTVSPropertyOp24
 70
     1
102
RTVSPropertyOp25
 70
     1
102
RTVSPropertyOp26
 70
     1
102
RTVSPropertyOp27
 70
     1
  0
XRECORD
  5
15D
102
{ACAD_REACTORS
330
15C
102
}
330
15C
100
AcDbXrecord
280
     1
102
RTVSPropertyOp0
 70
     1
102
RTVSPropertyOp1
 70
     1
102
RTVSPropertyOp2
 70
     1
102
RTVSPropertyOp3
 70
     1
102
RTVSPropertyOp4
 70
     1
102
RTVSPropertyOp5
 70
     1
102
RTVSPropertyOp6
 70
     1
102
RTVSPropertyOp7
 70
     1
102
RTVSPropertyOp8
 70
     1
102
RTVSPropertyOp9
 70
     1
102
RTVSPropertyOp10
 70
     1
102
RTVSPropertyOp11
 70
     1
102
RTVSPropertyOp12
 70
     1
102
RTVSPropertyOp13
 70
     1
102
RTVSPropertyOp14
 70
     1
102
RTVSPropertyOp15
 70
     1
102
RTVSPropertyOp16
 70
     1
102
RTVSPropertyOp17
 70
     1
102
RTVSPropertyOp18
 70
     1
102
RTVSPropertyOp19
 70
     1
102
RTVSPropertyOp20
 70
     1
102
RTVSPropertyOp21
 70
     1
102
RTVSPropertyOp22
 70
     1
102
RTVSPropertyOp23
 70
     1
102
RTVSPropertyOp24
 70
     1
102
RTVSPropertyOp25
 70
     1
102
RTVSPropertyOp26
 70
     1
102
RTVSPropertyOp27
 70
     1
  0
XRECORD
  5
15F
102
{ACAD_REACTORS
330
15E
102
}
330
15E
100
AcDbXrecord
280
     1
102
RTVSPropertyOp0
 70
     1
102
RTVSPropertyOp1
 70
     1
102
RTVSPropertyOp2
 70
     1
102
RTVSPropertyOp3
 70
     1
102
RTVSPropertyOp4
 70
     1
102
RTVSPropertyOp5
 70
     1
102
RTVSPropertyOp6
 70
     1
102
RTVSPropertyOp7
 70
     1
102
RTVSPropertyOp8
 70
     1
102
RTVSPropertyOp9
 70
     1
102
RTVSPropertyOp10
 70
     1
102
RTVSPropertyOp11
 70
     1
102
RTVSPropertyOp12
 70
     1
102
RTVSPropertyOp13
 70
     1
102
RTVSPropertyOp14
 70
     1
102
RTVSPropertyOp15
 70
     1
102
RTVSPropertyOp16
 70
     1
102
RTVSPropertyOp17
 70
     1
102
RTVSPropertyOp18
 70
     1
102
RTVSPropertyOp19
 70
     1
102
RTVSPropertyOp20
 70
     1
102
RTVSPropertyOp21
 70
     1
102
RTVSPropertyOp22
 70
     1
102
RTVSPropertyOp23
 70
     1
102
RTVSPropertyOp24
 70
     1
102
RTVSPropertyOp25
 70
     1
102
RTVSPropertyOp26
 70
     1
102
RTVSPropertyOp27
 70
     1
  0
XRECORD
  5
167
102
{ACAD_REACTORS
330
166
102
}
330
166
100
AcDbXrecord
280
     1
102
RTVSPropertyOp0
 70
     1
102
RTVSPropertyOp1
 70
     1
102
RTVSPropertyOp2
 70
     1
102
RTVSPropertyOp3
 70
     1
102
RTVSPropertyOp4
 70
     1
102
RTVSPropertyOp5
 70
     1
102
RTVSPropertyOp6
 70
     1
102
RTVSPropertyOp7
 70
     1
102
RTVSPropertyOp8
 70
     1
102
RTVSPropertyOp9
 70
     1
102
RTVSPropertyOp10
 70
     1
102
RTVSPropertyOp11
 70
     1
102
RTVSPropertyOp12
 70
     1
102
RTVSPropertyOp13
 70
     1
102
RTVSPropertyOp14
 70
     1
102
RTVSPropertyOp15
 70
     1
102
RTVSPropertyOp16
 70
     1
102
RTVSPropertyOp17
 70
     1
102
RTVSPropertyOp18
 70
     1
102
RTVSPropertyOp19
 70
     1
102
RTVSPropertyOp20
 70
     1
102
RTVSPropertyOp21
 70
     1
102
RTVSPropertyOp22
 70
     1
102
RTVSPropertyOp23
 70
     1
102
RTVSPropertyOp24
 70
     1
102
RTVSPropertyOp25
 70
     1
102
RTVSPropertyOp26
 70
     1
102
RTVSPropertyOp27
 70
     1
  0
XRECORD
  5
14B
102
{ACAD_REACTORS
330
14A
102
}
330
14A
100
AcDbXrecord
280
     1
102
RTVSPropertyOp0
 70
     1
102
RTVSPropertyOp1
 70
     1
102
RTVSPropertyOp2
 70
     1
102
RTVSPropertyOp3
 70
     1
102
RTVSPropertyOp4
 70
     1
102
RTVSPropertyOp5
 70
     1
102
RTVSPropertyOp6
 70
     1
102
RTVSPropertyOp7
 70
     1
102
RTVSPropertyOp8
 70
     1
102
RTVSPropertyOp9
 70
     1
102
RTVSPropertyOp10
 70
     1
102
RTVSPropertyOp11
 70
     1
102
RTVSPropertyOp12
 70
     1
102
RTVSPropertyOp13
 70
     1
102
RTVSPropertyOp14
 70
     1
102
RTVSPropertyOp15
 70
     1
102
RTVSPropertyOp16
 70
     1
102
RTVSPropertyOp17
 70
     1
102
RTVSPropertyOp18
 70
     1
102
RTVSPropertyOp19
 70
     1
102
RTVSPropertyOp20
 70
     1
102
RTVSPropertyOp21
 70
     1
102
RTVSPropertyOp22
 70
     1
102
RTVSPropertyOp23
 70
     1
102
RTVSPropertyOp24
 70
     1
102
RTVSPropertyOp25
 70
     1
102
RTVSPropertyOp26
 70
     1
102
RTVSPropertyOp27
 70
     1
  0
XRECORD
  5
14D
102
{ACAD_REACTORS
330
14C
102
}
330
14C
100
AcDbXrecord
280
     1
102
RTVSPropertyOp0
 70
     1
102
RTVSPropertyOp1
 70
     1
102
RTVSPropertyOp2
 70
     1
102
RTVSPropertyOp3
 70
     1
102
RTVSPropertyOp4
 70
     1
102
RTVSPropertyOp5
 70
     1
102
RTVSPropertyOp6
 70
     1
102
RTVSPropertyOp7
 70
     1
102
RTVSPropertyOp8
 70
     1
102
RTVSPropertyOp9
 70
     1
102
RTVSPropertyOp10
 70
     1
102
RTVSPropertyOp11
 70
     1
102
RTVSPropertyOp12
 70
     1
102
RTVSPropertyOp13
 70
     1
102
RTVSPropertyOp14
 70
     1
102
RTVSPropertyOp15
 70
     1
102
RTVSPropertyOp16
 70
     1
102
RTVSPropertyOp17
 70
     1
102
RTVSPropertyOp18
 70
     1
102
RTVSPropertyOp19
 70
     1
102
RTVSPropertyOp20
 70
     1
102
RTVSPropertyOp21
 70
     1
102
RTVSPropertyOp22
 70
     1
102
RTVSPropertyOp23
 70
     1
102
RTVSPropertyOp24
 70
     1
102
RTVSPropertyOp25
 70
     1
102
RTVSPropertyOp26
 70
     1
102
RTVSPropertyOp27
 70
     1
  0
XRECORD
  5
14F
102
{ACAD_REACTORS
330
14E
102
}
330
14E
100
AcDbXrecord
280
     1
102
RTVSPropertyOp0
 70
     1
102
RTVSPropertyOp1
 70
     1
102
RTVSPropertyOp2
 70
     1
102
RTVSPropertyOp3
 70
     1
102
RTVSPropertyOp4
 70
     1
102
RTVSPropertyOp5
 70
     1
102
RTVSPropertyOp6
 70
     1
102
RTVSPropertyOp7
 70
     1
102
RTVSPropertyOp8
 70
     1
102
RTVSPropertyOp9
 70
     1
102
RTVSPropertyOp10
 70
     1
102
RTVSPropertyOp11
 70
     1
102
RTVSPropertyOp12
 70
     1
102
RTVSPropertyOp13
 70
     1
102
RTVSPropertyOp14
 70
     1
102
RTVSPropertyOp15
 70
     1
102
RTVSPropertyOp16
 70
     1
102
RTVSPropertyOp17
 70
     1
102
RTVSPropertyOp18
 70
     1
102
RTVSPropertyOp19
 70
     1
102
RTVSPropertyOp20
 70
     1
102
RTVSPropertyOp21
 70
     1
102
RTVSPropertyOp22
 70
     1
102
RTVSPropertyOp23
 70
     1
102
RTVSPropertyOp24
 70
     1
102
RTVSPropertyOp25
 70
     1
102
RTVSPropertyOp26
 70
     1
102
RTVSPropertyOp27
 70
     1
  0
XRECORD
  5
151
102
{ACAD_REACTORS
330
150
102
}
330
150
100
AcDbXrecord
280
     1
102
RTVSPropertyOp0
 70
     1
102
RTVSPropertyOp1
 70
     1
102
RTVSPropertyOp2
 70
     1
102
RTVSPropertyOp3
 70
     1
102
RTVSPropertyOp4
 70
     1
102
RTVSPropertyOp5
 70
     1
102
RTVSPropertyOp6
 70
     1
102
RTVSPropertyOp7
 70
     1
102
RTVSPropertyOp8
 70
     1
102
RTVSPropertyOp9
 70
     1
102
RTVSPropertyOp10
 70
     1
102
RTVSPropertyOp11
 70
     1
102
RTVSPropertyOp12
 70
     1
102
RTVSPropertyOp13
 70
     1
102
RTVSPropertyOp14
 70
     1
102
RTVSPropertyOp15
 70
     1
102
RTVSPropertyOp16
 70
     1
102
RTVSPropertyOp17
 70
     1
102
RTVSPropertyOp18
 70
     1
102
RTVSPropertyOp19
 70
     1
102
RTVSPropertyOp20
 70
     1
102
RTVSPropertyOp21
 70
     1
102
RTVSPropertyOp22
 70
     1
102
RTVSPropertyOp23
 70
     1
102
RTVSPropertyOp24
 70
     1
102
RTVSPropertyOp25
 70
     1
102
RTVSPropertyOp26
 70
     1
102
RTVSPropertyOp27
 70
     1
  0
XRECORD
  5
165
102
{ACAD_REACTORS
330
164
102
}
330
164
100
AcDbXrecord
280
     1
102
RTVSPropertyOp0
 70
     1
102
RTVSPropertyOp1
 70
     1
102
RTVSPropertyOp2
 70
     1
102
RTVSPropertyOp3
 70
     1
102
RTVSPropertyOp4
 70
     1
102
RTVSPropertyOp5
 70
     1
102
RTVSPropertyOp6
 70
     1
102
RTVSPropertyOp7
 70
     1
102
RTVSPropertyOp8
 70
     1
102
RTVSPropertyOp9
 70
     1
102
RTVSPropertyOp10
 70
     1
102
RTVSPropertyOp11
 70
     1
102
RTVSPropertyOp12
 70
     1
102
RTVSPropertyOp13
 70
     1
102
RTVSPropertyOp14
 70
     1
102
RTVSPropertyOp15
 70
     1
102
RTVSPropertyOp16
 70
     1
102
RTVSPropertyOp17
 70
     1
102
RTVSPropertyOp18
 70
     1
102
RTVSPropertyOp19
 70
     1
102
RTVSPropertyOp20
 70
     1
102
RTVSPropertyOp21
 70
     1
102
RTVSPropertyOp22
 70
     1
102
RTVSPropertyOp23
 70
     1
102
RTVSPropertyOp24
 70
     1
102
RTVSPropertyOp25
 70
     1
102
RTVSPropertyOp26
 70
     1
102
RTVSPropertyOp27
 70
     1
  0
XRECORD
  5
15B
102
{ACAD_REACTORS
330
15A
102
}
330
15A
100
AcDbXrecord
280
     1
102
RTVSPropertyOp0
 70
     1
102
RTVSPropertyOp1
 70
     1
102
RTVSPropertyOp2
 70
     1
102
RTVSPropertyOp3
 70
     1
102
RTVSPropertyOp4
 70
     1
102
RTVSPropertyOp5
 70
     1
102
RTVSPropertyOp6
 70
     1
102
RTVSPropertyOp7
 70
     1
102
RTVSPropertyOp8
 70
     1
102
RTVSPropertyOp9
 70
     1
102
RTVSPropertyOp10
 70
     1
102
RTVSPropertyOp11
 70
     1
102
RTVSPropertyOp12
 70
     1
102
RTVSPropertyOp13
 70
     1
102
RTVSPropertyOp14
 70
     1
102
RTVSPropertyOp15
 70
     1
102
RTVSPropertyOp16
 70
     1
102
RTVSPropertyOp17
 70
     1
102
RTVSPropertyOp18
 70
     1
102
RTVSPropertyOp19
 70
     1
102
RTVSPropertyOp20
 70
     1
102
RTVSPropertyOp21
 70
     1
102
RTVSPropertyOp22
 70
     1
102
RTVSPropertyOp23
 70
     1
102
RTVSPropertyOp24
 70
     1
102
RTVSPropertyOp25
 70
     1
102
RTVSPropertyOp26
 70
     1
102
RTVSPropertyOp27
 70
     1
  0
XRECORD
  5
163
102
{ACAD_REACTORS
330
162
102
}
330
162
100
AcDbXrecord
280
     1
102
RTVSPropertyOp0
 70
     1
102
RTVSPropertyOp1
 70
     1
102
RTVSPropertyOp2
 70
     1
102
RTVSPropertyOp3
 70
     1
102
RTVSPropertyOp4
 70
     1
102
RTVSPropertyOp5
 70
     1
102
RTVSPropertyOp6
 70
     1
102
RTVSPropertyOp7
 70
     1
102
RTVSPropertyOp8
 70
     1
102
RTVSPropertyOp9
 70
     1
102
RTVSPropertyOp10
 70
     1
102
RTVSPropertyOp11
 70
     1
102
RTVSPropertyOp12
 70
     1
102
RTVSPropertyOp13
 70
     1
102
RTVSPropertyOp14
 70
     1
102
RTVSPropertyOp15
 70
     1
102
RTVSPropertyOp16
 70
     1
102
RTVSPropertyOp17
 70
     1
102
RTVSPropertyOp18
 70
     1
102
RTVSPropertyOp19
 70
     1
102
RTVSPropertyOp20
 70
     1
102
RTVSPropertyOp21
 70
     1
102
RTVSPropertyOp22
 70
     1
102
RTVSPropertyOp23
 70
     1
102
RTVSPropertyOp24
 70
     1
102
RTVSPropertyOp25
 70
     1
102
RTVSPropertyOp26
 70
     1
102
RTVSPropertyOp27
 70
     1
  0
ENDSEC
  0
EOF
