  0
SECTION
  2
HEADER
  9
$ACADVER
  1
AC1015
  9
$ACADMAINTVER
 70
     6
  9
$DWGCODEPAGE
  3
ANSI_1250
  9
$INSBASE
 10
0.0
 20
0.0
 30
0.0
  9
$EXTMIN
 10
-16.3655
 20
-18.6225
 30
0.0
  9
$EXTMAX
 10
16.2246
 20
18.5166
 30
0.0
  9
$LIMMIN
 10
0.0
 20
0.0
  9
$LIMMAX
 10
12.0
 20
9.0
  9
$ORTHOMODE
 70
     0
  9
$REGENMODE
 70
     1
  9
$FILLMODE
 70
     1
  9
$QTEXTMODE
 70
     0
  9
$MIRRTEXT
 70
     1
  9
$LTSCALE
 40
1.0
  9
$ATTMODE
 70
     1
  9
$TEXTSIZE
 40
0.2
  9
$TRACEWID
 40
0.05
  9
$TEXTSTYLE
  7
Standard
  9
$CLAYER
  8
0
  9
$CELTYPE
  6
ByLayer
  9
$CECOLOR
 62
   256
  9
$CELTSCALE
 40
1.0
  9
$DISPSILH
 70
     0
  9
$DIMSCALE
 40
1.0
  9
$DIMASZ
 40
0.18
  9
$DIMEXO
 40
0.0625
  9
$DIMDLI
 40
0.38
  9
$DIMRND
 40
0.0
  9
$DIMDLE
 40
0.0
  9
$DIMEXE
 40
0.18
  9
$DIMTP
 40
0.0
  9
$DIMTM
 40
0.0
  9
$DIMTXT
 40
0.18
  9
$DIMCEN
 40
0.09
  9
$DIMTSZ
 40
0.0
  9
$DIMTOL
 70
     0
  9
$DIMLIM
 70
     0
  9
$DIMTIH
 70
     1
  9
$DIMTOH
 70
     1
  9
$DIMSE1
 70
     0
  9
$DIMSE2
 70
     0
  9
$DIMTAD
 70
     0
  9
$DIMZIN
 70
     0
  9
$DIMBLK
  1

  9
$DIMASO
 70
     1
  9
$DIMSHO
 70
     1
  9
$DIMPOST
  1

  9
$DIMAPOST
  1

  9
$DIMALT
 70
     0
  9
$DIMALTD
 70
     2
  9
$DIMALTF
 40
25.4
  9
$DIMLFAC
 40
1.0
  9
$DIMTOFL
 70
     0
  9
$DIMTVP
 40
0.0
  9
$DIMTIX
 70
     0
  9
$DIMSOXD
 70
     0
  9
$DIMSAH
 70
     0
  9
$DIMBLK1
  1

  9
$DIMBLK2
  1

  9
$DIMSTYLE
  2
Standard
  9
$DIMCLRD
 70
     0
  9
$DIMCLRE
 70
     0
  9
$DIMCLRT
 70
     0
  9
$DIMTFAC
 40
1.0
  9
$DIMGAP
 40
0.09
  9
$DIMJUST
 70
     0
  9
$DIMSD1
 70
     0
  9
$DIMSD2
 70
     0
  9
$DIMTOLJ
 70
     1
  9
$DIMTZIN
 70
     0
  9
$DIMALTZ
 70
     0
  9
$DIMALTTZ
 70
     0
  9
$DIMUPT
 70
     0
  9
$DIMDEC
 70
     4
  9
$DIMTDEC
 70
     4
  9
$DIMALTU
 70
     2
  9
$DIMALTTD
 70
     2
  9
$DIMTXSTY
  7
Standard
  9
$DIMAUNIT
 70
     0
  9
$DIMADEC
 70
     0
  9
$DIMALTRND
 40
0.0
  9
$DIMAZIN
 70
     0
  9
$DIMDSEP
 70
    46
  9
$DIMATFIT
 70
     3
  9
$DIMFRAC
 70
     0
  9
$DIMLDRBLK
  1

  9
$DIMLUNIT
 70
     2
  9
$DIMLWD
 70
    -2
  9
$DIMLWE
 70
    -2
  9
$DIMTMOVE
 70
     0
  9
$LUNITS
 70
     2
  9
$LUPREC
 70
     4
  9
$SKETCHINC
 40
0.1
  9
$FILLETRAD
 40
0.5
  9
$AUNITS
 70
     0
  9
$AUPREC
 70
     0
  9
$MENU
  1
.
  9
$ELEVATION
 40
0.0
  9
$PELEVATION
 40
0.0
  9
$THICKNESS
 40
0.0
  9
$LIMCHECK
 70
     0
  9
$CHAMFERA
 40
0.5
  9
$CHAMFERB
 40
0.5
  9
$CHAMFERC
 40
1.0
  9
$CHAMFERD
 40
0.0
  9
$SKPOLY
 70
     0
  9
$TDCREATE
 40
2458492.415955914
  9
$TDUCREATE
 40
2458492.374289248
  9
$TDUPDATE
 40
2458492.415955926
  9
$TDUUPDATE
 40
2458492.374289259
  9
$TDINDWG
 40
0.0000000116
  9
$TDUSRTIMER
 40
0.0000000116
  9
$USRTIMER
 70
     1
  9
$ANGBASE
 50
0.0
  9
$ANGDIR
 70
     0
  9
$PDMODE
 70
     0
  9
$PDSIZE
 40
0.0
  9
$PLINEWID
 40
0.0
  9
$SPLFRAME
 70
     0
  9
$SPLINETYPE
 70
     6
  9
$SPLINESEGS
 70
     8
  9
$HANDSEED
  5
203
  9
$SURFTAB1
 70
     6
  9
$SURFTAB2
 70
     6
  9
$SURFTYPE
 70
     6
  9
$SURFU
 70
     6
  9
$SURFV
 70
     6
  9
$UCSBASE
  2

  9
$UCSNAME
  2

  9
$UCSORG
 10
0.0
 20
0.0
 30
0.0
  9
$UCSXDIR
 10
1.0
 20
0.0
 30
0.0
  9
$UCSYDIR
 10
0.0
 20
1.0
 30
0.0
  9
$UCSORTHOREF
  2

  9
$UCSORTHOVIEW
 70
     0
  9
$UCSORGTOP
 10
0.0
 20
0.0
 30
0.0
  9
$UCSORGBOTTOM
 10
0.0
 20
0.0
 30
0.0
  9
$UCSORGLEFT
 10
0.0
 20
0.0
 30
0.0
  9
$UCSORGRIGHT
 10
0.0
 20
0.0
 30
0.0
  9
$UCSORGFRONT
 10
0.0
 20
0.0
 30
0.0
  9
$UCSORGBACK
 10
0.0
 20
0.0
 30
0.0
  9
$PUCSBASE
  2

  9
$PUCSNAME
  2

  9
$PUCSORG
 10
0.0
 20
0.0
 30
0.0
  9
$PUCSXDIR
 10
1.0
 20
0.0
 30
0.0
  9
$PUCSYDIR
 10
0.0
 20
1.0
 30
0.0
  9
$PUCSORTHOREF
  2

  9
$PUCSORTHOVIEW
 70
     0
  9
$PUCSORGTOP
 10
0.0
 20
0.0
 30
0.0
  9
$PUCSORGBOTTOM
 10
0.0
 20
0.0
 30
0.0
  9
$PUCSORGLEFT
 10
0.0
 20
0.0
 30
0.0
  9
$PUCSORGRIGHT
 10
0.0
 20
0.0
 30
0.0
  9
$PUCSORGFRONT
 10
0.0
 20
0.0
 30
0.0
  9
$PUCSORGBACK
 10
0.0
 20
0.0
 30
0.0
  9
$USERI1
 70
     0
  9
$USERI2
 70
     0
  9
$USERI3
 70
     0
  9
$USERI4
 70
     0
  9
$USERI5
 70
     0
  9
$USERR1
 40
0.0
  9
$USERR2
 40
0.0
  9
$USERR3
 40
0.0
  9
$USERR4
 40
0.0
  9
$USERR5
 40
0.0
  9
$WORLDVIEW
 70
     1
  9
$SHADEDGE
 70
     3
  9
$SHADEDIF
 70
    70
  9
$TILEMODE
 70
     1
  9
$MAXACTVP
 70
    64
  9
$PINSBASE
 10
0.0
 20
0.0
 30
0.0
  9
$PLIMCHECK
 70
     0
  9
$PEXTMIN
 10
1.000000000000000E+20
 20
1.000000000000000E+20
 30
1.000000000000000E+20
  9
$PEXTMAX
 10
-1.000000000000000E+20
 20
-1.000000000000000E+20
 30
-1.000000000000000E+20
  9
$PLIMMIN
 10
0.0
 20
0.0
  9
$PLIMMAX
 10
12.0
 20
9.0
  9
$UNITMODE
 70
     0
  9
$VISRETAIN
 70
     1
  9
$PLINEGEN
 70
     0
  9
$PSLTSCALE
 70
     1
  9
$TREEDEPTH
 70
  3020
  9
$CMLSTYLE
  2
Standard
  9
$CMLJUST
 70
     0
  9
$CMLSCALE
 40
1.0
  9
$PROXYGRAPHICS
 70
     1
  9
$MEASUREMENT
 70
     0
  9
$CELWEIGHT
370
    -1
  9
$ENDCAPS
280
     0
  9
$JOINSTYLE
280
     0
  9
$LWDISPLAY
290
     0
  9
$INSUNITS
 70
     4
  9
$HYPERLINKBASE
  1

  9
$STYLESHEET
  1

  9
$XEDIT
290
     1
  9
$CEPSNTYPE
380
     0
  9
$PSTYLEMODE
290
     1
  9
$FINGERPRINTGUID
  2
{57601C7A-079D-49BE-8EA3-620507ED6A0E}
  9
$VERSIONGUID
  2
{FAEB1C32-E019-11D5-929B-00C0DF256EC4}
  9
$EXTNAMES
290
     1
  9
$PSVPSCALE
 40
0.0
  9
$OLESTARTUP
290
     0
  0
ENDSEC
  0
SECTION
  2
CLASSES
  0
CLASS
  1
ACDBDICTIONARYWDFLT
  2
AcDbDictionaryWithDefault
  3
ObjectDBX Classes
 90
        0
280
     0
281
     0
  0
CLASS
  1
VISUALSTYLE
  2
AcDbVisualStyle
  3
ObjectDBX Classes
 90
     4095
280
     0
281
     0
  0
CLASS
  1
MATERIAL
  2
AcDbMaterial
  3
ObjectDBX Classes
 90
     1153
280
     0
281
     0
  0
CLASS
  1
DICTIONARYVAR
  2
AcDbDictionaryVar
  3
ObjectDBX Classes
 90
        0
280
     0
281
     0
  0
CLASS
  1
ACDBPLACEHOLDER
  2
AcDbPlaceHolder
  3
ObjectDBX Classes
 90
        0
280
     0
281
     0
  0
CLASS
  1
LAYOUT
  2
AcDbLayout
  3
ObjectDBX Classes
 90
        0
280
     0
281
     0
  0
ENDSEC
  0
SECTION
  2
TABLES
  0
TABLE
  2
VPORT
  5
8
330
0
100
AcDbSymbolTable
 70
     1
  0
VPORT
  5
29
330
8
100
AcDbSymbolTableRecord
100
AcDbViewportTableRecord
  2
*Active
 70
     0
 10
0.0
 20
0.0
 11
1.0
 21
1.0
 12
10.42990654205607
 22
4.5
 13
0.0
 23
0.0
 14
0.5
 24
0.5
 15
0.5
 25
0.5
 16
0.0
 26
0.0
 36
1.0
 17
0.0
 27
0.0
 37
0.0
 40
9.0
 41
1.972972972850329
 42
50.0
 43
0.0
 44
0.0
 50
0.0
 51
0.0
 71
     0
 72
   100
 73
     1
 74
     3
 75
     0
 76
     0
 77
     0
 78
     0
281
     0
 65
     1
110
0.0
120
0.0
130
0.0
111
1.0
121
0.0
131
0.0
112
0.0
122
1.0
132
0.0
 79
     0
146
0.0
  0
ENDTAB
  0
TABLE
  2
LTYPE
  5
5
330
0
100
AcDbSymbolTable
 70
     7
  0
LTYPE
  5
14
330
5
100
AcDbSymbolTableRecord
100
AcDbLinetypeTableRecord
  2
ByBlock
 70
     0
  3

 72
    65
 73
     0
 40
0.0
  0
LTYPE
  5
15
330
5
100
AcDbSymbolTableRecord
100
AcDbLinetypeTableRecord
  2
ByLayer
 70
     0
  3

 72
    65
 73
     0
 40
0.0
  0
LTYPE
  5
16
330
5
100
AcDbSymbolTableRecord
100
AcDbLinetypeTableRecord
  2
Continuous
 70
     0
  3
Solid line
 72
    65
 73
     0
 40
0.0
  0
LTYPE
  5
53
330
5
100
AcDbSymbolTableRecord
100
AcDbLinetypeTableRecord
  2
New Line1
 70
     0
  3

 72
    65
 73
     4
 40
1.2
 49
0.5
 74
     4
 75
     0
340
0
 46
1.0
 50
0.0
 44
0.0
 45
0.0
 49
-0.3
 74
     4
 75
     0
340
0
 46
1.0
 50
0.0
 44
0.0
 45
0.0
 49
0.1
 74
     4
 75
     0
340
0
 46
1.0
 50
0.0
 44
0.0
 45
0.0
 49
-0.3
 74
     4
 75
     0
340
0
 46
1.0
 50
0.0
 44
0.0
 45
0.0
  0
LTYPE
  5
55
330
5
100
AcDbSymbolTableRecord
100
AcDbLinetypeTableRecord
  2
New Line2
 70
     0
  3

 72
    65
 73
     4
 40
1.2
 49
0.5
 74
     4
 75
     0
340
0
 46
1.0
 50
0.0
 44
0.0
 45
0.0
 49
-0.3
 74
     4
 75
     0
340
0
 46
1.0
 50
0.0
 44
0.0
 45
0.0
 49
0.1
 74
     4
 75
     0
340
0
 46
1.0
 50
0.0
 44
0.0
 45
0.0
 49
-0.3
 74
     4
 75
     0
340
0
 46
1.0
 50
0.0
 44
0.0
 45
0.0
  0
LTYPE
  5
10C
330
5
100
AcDbSymbolTableRecord
100
AcDbLinetypeTableRecord
  2
New Line3
 70
     0
  3

 72
    65
 73
     4
 40
1.2
 49
0.5
 74
     4
 75
     0
340
0
 46
1.0
 50
0.0
 44
0.0
 45
0.0
 49
-0.3
 74
     4
 75
     0
340
0
 46
1.0
 50
0.0
 44
0.0
 45
0.0
 49
0.1
 74
     4
 75
     0
340
0
 46
1.0
 50
0.0
 44
0.0
 45
0.0
 49
-0.3
 74
     4
 75
     0
340
0
 46
1.0
 50
0.0
 44
0.0
 45
0.0
  0
LTYPE
  5
10E
330
5
100
AcDbSymbolTableRecord
100
AcDbLinetypeTableRecord
  2
New Line4
 70
     0
  3

 72
    65
 73
     4
 40
1.2
 49
0.5
 74
     4
 75
     0
340
0
 46
1.0
 50
0.0
 44
0.0
 45
0.0
 49
-0.3
 74
     4
 75
     0
340
0
 46
1.0
 50
0.0
 44
0.0
 45
0.0
 49
0.1
 74
     4
 75
     0
340
0
 46
1.0
 50
0.0
 44
0.0
 45
0.0
 49
-0.3
 74
     4
 75
     0
340
0
 46
1.0
 50
0.0
 44
0.0
 45
0.0
  0
LTYPE
  5
110
330
5
100
AcDbSymbolTableRecord
100
AcDbLinetypeTableRecord
  2
New Line5
 70
     0
  3

 72
    65
 73
     4
 40
1.2
 49
0.5
 74
     4
 75
     0
340
0
 46
1.0
 50
0.0
 44
0.0
 45
0.0
 49
-0.3
 74
     4
 75
     0
340
0
 46
1.0
 50
0.0
 44
0.0
 45
0.0
 49
0.1
 74
     4
 75
     0
340
0
 46
1.0
 50
0.0
 44
0.0
 45
0.0
 49
-0.3
 74
     4
 75
     0
340
0
 46
1.0
 50
0.0
 44
0.0
 45
0.0
  0
LTYPE
  5
112
330
5
100
AcDbSymbolTableRecord
100
AcDbLinetypeTableRecord
  2
New Line6
 70
     0
  3

 72
    65
 73
     4
 40
1.2
 49
0.5
 74
     4
 75
     0
340
0
 46
1.0
 50
0.0
 44
0.0
 45
0.0
 49
-0.3
 74
     4
 75
     0
340
0
 46
1.0
 50
0.0
 44
0.0
 45
0.0
 49
0.1
 74
     4
 75
     0
340
0
 46
1.0
 50
0.0
 44
0.0
 45
0.0
 49
-0.3
 74
     4
 75
     0
340
0
 46
1.0
 50
0.0
 44
0.0
 45
0.0
  0
ENDTAB
  0
TABLE
  2
LAYER
  5
2
330
0
100
AcDbSymbolTable
 70
     2
  0
LAYER
  5
10
330
2
100
AcDbSymbolTableRecord
100
AcDbLayerTableRecord
  2
0
 70
     0
 62
     7
  6
Continuous
370
    -3
390
F
  0
LAYER
  5
40
330
2
100
AcDbSymbolTableRecord
100
AcDbLayerTableRecord
  2
Ilustrace
 70
     0
 62
     7
  6
Continuous
370
    -3
390
F
  0
ENDTAB
  0
TABLE
  2
STYLE
  5
3
330
0
100
AcDbSymbolTable
 70
     1
  0
STYLE
  5
11
330
3
100
AcDbSymbolTableRecord
100
AcDbTextStyleTableRecord
  2
Standard
 70
     0
 40
0.0
 41
1.0
 50
0.0
 71
     0
 42
0.2
  3
txt
  4

  0
ENDTAB
  0
TABLE
  2
VIEW
  5
6
330
0
100
AcDbSymbolTable
 70
     0
  0
ENDTAB
  0
TABLE
  2
UCS
  5
7
330
0
100
AcDbSymbolTable
 70
     0
  0
ENDTAB
  0
TABLE
  2
APPID
  5
9
330
0
100
AcDbSymbolTable
 70
     2
  0
APPID
  5
12
330
9
100
AcDbSymbolTableRecord
100
AcDbRegAppTableRecord
  2
ACAD
 70
     0
  0
APPID
  5
3F
330
9
100
AcDbSymbolTableRecord
100
AcDbRegAppTableRecord
  2
ODA
 70
     0
  0
ENDTAB
  0
TABLE
  2
DIMSTYLE
  5
A
330
0
100
AcDbSymbolTable
 70
     1
100
AcDbDimStyleTable
  0
DIMSTYLE
105
27
330
A
100
AcDbSymbolTableRecord
100
AcDbDimStyleTableRecord
  2
Standard
 70
     0
340
11
  0
ENDTAB
  0
TABLE
  2
BLOCK_RECORD
  5
1
330
0
100
AcDbSymbolTable
 70
     1
  0
BLOCK_RECORD
  5
1F
330
1
100
AcDbSymbolTableRecord
100
AcDbBlockTableRecord
  2
*Model_Space
340
22
  0
BLOCK_RECORD
  5
1B
330
1
100
AcDbSymbolTableRecord
100
AcDbBlockTableRecord
  2
*Paper_Space
340
1E
  0
BLOCK_RECORD
  5
23
330
1
100
AcDbSymbolTableRecord
100
AcDbBlockTableRecord
  2
*Paper_Space0
340
26
  0
ENDTAB
  0
ENDSEC
  0
SECTION
  2
BLOCKS
  0
BLOCK
  5
20
330
1F
100
AcDbEntity
  8
0
100
AcDbBlockBegin
  2
*Model_Space
 70
     0
 10
0.0
 20
0.0
 30
0.0
  3
*Model_Space
  1

  0
ENDBLK
  5
21
330
1F
100
AcDbEntity
  8
0
100
AcDbBlockEnd
  0
BLOCK
  5
1C
330
1B
100
AcDbEntity
 67
     1
  8
0
100
AcDbBlockBegin
  2
*Paper_Space
 70
     0
 10
0.0
 20
0.0
 30
0.0
  3
*Paper_Space
  1

  0
ENDBLK
  5
1D
330
1B
100
AcDbEntity
 67
     1
  8
0
100
AcDbBlockEnd
  0
BLOCK
  5
24
330
23
100
AcDbEntity
  8
0
100
AcDbBlockBegin
  2
*Paper_Space0
 70
     0
 10
0.0
 20
0.0
 30
0.0
  3
*Paper_Space0
  1

  0
ENDBLK
  5
25
330
23
100
AcDbEntity
  8
0
100
AcDbBlockEnd
  0
ENDSEC
  0
SECTION
  2
ENTITIES
  0
SPLINE
  5
41
330
1F
100
AcDbEntity
  8
Ilustrace
 62
   254
100
AcDbSpline
210
0.0
220
0.0
230
1.0
 70
    11
 71
     3
 72
   100
 73
    96
 74
     0
 42
0.0000000001
 43
0.0000000001
 40
0.0
 40
0.0
 40
0.0
 40
0.0
 40
0.04
 40
0.04
 40
0.04
 40
0.04
 40
0.08
 40
0.08
 40
0.08
 40
0.08
 40
0.12
 40
0.12
 40
0.12
 40
0.12
 40
0.16
 40
0.16
 40
0.16
 40
0.16
 40
0.2
 40
0.2
 40
0.2
 40
0.2
 40
0.24
 40
0.24
 40
0.24
 40
0.24
 40
0.28
 40
0.28
 40
0.28
 40
0.28
 40
0.32
 40
0.32
 40
0.32
 40
0.32
 40
0.36
 40
0.36
 40
0.36
 40
0.36
 40
0.4
 40
0.4
 40
0.4
 40
0.4
 40
0.44
 40
0.44
 40
0.44
 40
0.44
 40
0.48
 40
0.48
 40
0.48
 40
0.48
 40
0.52
 40
0.52
 40
0.52
 40
0.52
 40
0.56
 40
0.56
 40
0.56
 40
0.56
 40
0.6
 40
0.6
 40
0.6
 40
0.6
 40
0.64
 40
0.64
 40
0.64
 40
0.64
 40
0.68
 40
0.68
 40
0.68
 40
0.68
 40
0.72
 40
0.72
 40
0.72
 40
0.72
 40
0.76
 40
0.76
 40
0.76
 40
0.76
 40
0.8
 40
0.8
 40
0.8
 40
0.8
 40
0.84
 40
0.84
 40
0.84
 40
0.84
 40
0.88
 40
0.88
 40
0.88
 40
0.88
 40
0.92
 40
0.92
 40
0.92
 40
0.92
 40
1.0
 40
1.0
 40
1.0
 40
1.0
 10
-7.8441
 20
-9.1674
 30
0.0
 10
-7.6248
 20
-8.9838
 30
0.0
 10
-7.4079
 20
-8.8262
 30
0.0
 10
-7.1447
 20
-8.7097
 30
0.0
 10
-7.1447
 20
-8.7097
 30
0.0
 10
-6.5078
 20
-8.4277
 30
0.0
 10
-5.7434
 20
-8.4241
 30
0.0
 10
-5.1067
 20
-8.7097
 30
0.0
 10
-5.1067
 20
-8.7097
 30
0.0
 10
-4.8465
 20
-8.8265
 30
0.0
 10
-4.6227
 20
-8.9829
 30
0.0
 10
-4.4072
 20
-9.1674
 30
0.0
 10
-4.4072
 20
-9.1674
 30
0.0
 10
-4.4072
 20
-9.1674
 30
0.0
 10
-4.4072
 20
-9.3334
 30
0.0
 10
-4.4072
 20
-9.3334
 30
0.0
 10
-4.4072
 20
-9.3334
 30
0.0
 10
-4.4072
 20
-9.3334
 30
0.0
 10
-0.3518
 20
-9.3385
 30
0.0
 10
-0.3518
 20
-9.3385
 30
0.0
 10
-0.3518
 20
-9.3385
 30
0.0
 10
-0.3518
 20
-9.3385
 30
0.0
 10
-0.3518
 20
-9.1674
 30
0.0
 10
-0.3518
 20
-9.1674
 30
0.0
 10
-0.3518
 20
-9.1674
 30
0.0
 10
-0.0714
 20
-8.9338
 30
0.0
 10
0.2119
 20
-8.7504
 30
0.0
 10
0.559
 20
-8.6292
 30
0.0
 10
0.559
 20
-8.6292
 30
0.0
 10
1.2164
 20
-8.3996
 30
0.0
 10
1.9731
 20
-8.4733
 30
0.0
 10
2.5818
 20
-8.8052
 30
0.0
 10
2.5818
 20
-8.8052
 30
0.0
 10
2.7607
 20
-8.9028
 30
0.0
 10
2.9401
 20
-9.0228
 30
0.0
 10
3.0849
 20
-9.1674
 30
0.0
 10
3.0849
 20
-9.1674
 30
0.0
 10
3.0849
 20
-9.1674
 30
0.0
 10
3.0849
 20
-9.3385
 30
0.0
 10
3.0849
 20
-9.3385
 30
0.0
 10
3.0849
 20
-9.3385
 30
0.0
 10
3.0849
 20
-9.3385
 30
0.0
 10
7.2764
 20
-9.3385
 30
0.0
 10
7.2764
 20
-9.3385
 30
0.0
 10
7.2764
 20
-9.3385
 30
0.0
 10
7.2764
 20
-9.3385
 30
0.0
 10
7.2764
 20
-9.7158
 30
0.0
 10
7.2764
 20
-9.7158
 30
0.0
 10
7.2764
 20
-9.7158
 30
0.0
 10
7.2764
 20
-9.7158
 30
0.0
 10
11.4678
 20
-9.7158
 30
0.0
 10
11.4678
 20
-9.7158
 30
0.0
 10
11.4678
 20
-9.7158
 30
0.0
 10
11.4678
 20
-9.7158
 30
0.0
 10
11.4678
 20
-10.0931
 30
0.0
 10
11.4678
 20
-10.0931
 30
0.0
 10
11.4678
 20
-10.0931
 30
0.0
 10
11.4678
 20
-10.0931
 30
0.0
 10
7.2764
 20
-10.0931
 30
0.0
 10
7.2764
 20
-10.0931
 30
0.0
 10
7.2764
 20
-10.0931
 30
0.0
 10
7.2764
 20
-10.0931
 30
0.0
 10
7.2764
 20
-18.4738
 30
0.0
 10
7.2764
 20
-18.4738
 30
0.0
 10
7.2764
 20
-18.4738
 30
0.0
 10
7.2764
 20
-18.4738
 30
0.0
 10
-12.0304
 20
-18.4738
 30
0.0
 10
-12.0304
 20
-18.4738
 30
0.0
 10
-12.0304
 20
-18.4738
 30
0.0
 10
-12.0304
 20
-18.4738
 30
0.0
 10
-12.0304
 20
-10.0931
 30
0.0
 10
-12.0304
 20
-10.0931
 30
0.0
 10
-12.0304
 20
-10.0931
 30
0.0
 10
-12.0304
 20
-10.0931
 30
0.0
 10
-16.2218
 20
-10.0931
 30
0.0
 10
-16.2218
 20
-10.0931
 30
0.0
 10
-16.2218
 20
-10.0931
 30
0.0
 10
-16.2218
 20
-10.0931
 30
0.0
 10
-16.2218
 20
-9.7158
 30
0.0
 10
-16.2218
 20
-9.7158
 30
0.0
 10
-16.2218
 20
-9.7158
 30
0.0
 10
-16.2218
 20
-9.7158
 30
0.0
 10
-12.0304
 20
-9.7158
 30
0.0
 10
-12.0304
 20
-9.7158
 30
0.0
 10
-12.0304
 20
-9.7158
 30
0.0
 10
-12.0304
 20
-9.7158
 30
0.0
 10
-12.0304
 20
-9.3385
 30
0.0
 10
-12.0304
 20
-9.3385
 30
0.0
 10
-12.0304
 20
-9.3385
 30
0.0
 10
-12.0304
 20
-9.3385
 30
0.0
 10
-7.8441
 20
-9.3334
 30
0.0
 10
-7.8441
 20
-9.3334
 30
0.0
 10
-7.8441
 20
-9.3334
 30
0.0
 10
-7.8441
 20
-9.3334
 30
0.0
 10
-7.8441
 20
-9.1674
 30
0.0
 10
-7.8441
 20
-9.1674
 30
0.0
  0
SPLINE
  5
42
330
1F
100
AcDbEntity
  8
Ilustrace
 62
   250
370
    15
100
AcDbSpline
210
0.0
220
0.0
230
1.0
 70
    24
 71
     3
 72
     8
 73
     4
 74
     0
 42
0.0000000001
 43
0.0000000001
 40
0.0
 40
0.0
 40
0.0
 40
0.0
 40
1.0
 40
1.0
 40
1.0
 40
1.0
 10
-5.7546
 20
-13.0975
 30
0.0
 10
-5.7546
 20
-13.0975
 30
0.0
 10
-6.5109
 20
-13.0975
 30
0.0
 10
-6.5109
 20
-13.0975
 30
0.0
  0
SPLINE
  5
43
330
1F
100
AcDbEntity
  8
Ilustrace
 62
   250
370
    15
100
AcDbSpline
210
0.0
220
0.0
230
1.0
 70
    24
 71
     3
 72
     8
 73
     4
 74
     0
 42
0.0000000001
 43
0.0000000001
 40
0.0
 40
0.0
 40
0.0
 40
0.0
 40
1.0
 40
1.0
 40
1.0
 40
1.0
 10
1.7199
 20
-13.1196
 30
0.0
 10
1.7199
 20
-13.1196
 30
0.0
 10
0.9636
 20
-13.1196
 30
0.0
 10
0.9636
 20
-13.1196
 30
0.0
  0
SPLINE
  5
44
330
1F
100
AcDbEntity
  8
Ilustrace
 62
   250
370
    15
100
AcDbSpline
210
0.0
220
0.0
230
1.0
 70
    24
 71
     3
 72
     8
 73
     4
 74
     0
 42
0.0000000001
 43
0.0000000001
 40
0.0
 40
0.0
 40
0.0
 40
0.0
 40
1.0
 40
1.0
 40
1.0
 40
1.0
 10
-5.7602
 20
-12.607
 30
0.0
 10
-5.7602
 20
-12.607
 30
0.0
 10
-6.5165
 20
-12.607
 30
0.0
 10
-6.5165
 20
-12.607
 30
0.0
  0
SPLINE
  5
45
330
1F
100
AcDbEntity
  8
Ilustrace
 62
   250
370
    15
100
AcDbSpline
210
0.0
220
0.0
230
1.0
 70
    24
 71
     3
 72
     8
 73
     4
 74
     0
 42
0.0000000001
 43
0.0000000001
 40
0.0
 40
0.0
 40
0.0
 40
0.0
 40
1.0
 40
1.0
 40
1.0
 40
1.0
 10
1.7143
 20
-12.6291
 30
0.0
 10
1.7143
 20
-12.6291
 30
0.0
 10
0.958
 20
-12.6291
 30
0.0
 10
0.958
 20
-12.6291
 30
0.0
  0
SPLINE
  5
46
330
1F
100
AcDbEntity
  8
Ilustrace
 62
   250
370
    15
100
AcDbSpline
210
0.0
220
0.0
230
1.0
 70
    24
 71
     3
 72
     8
 73
     4
 74
     0
 42
0.0000000001
 43
0.0000000001
 40
0.0
 40
0.0
 40
0.0
 40
0.0
 40
1.0
 40
1.0
 40
1.0
 40
1.0
 10
-5.7382
 20
-11.8739
 30
0.0
 10
-5.7382
 20
-11.8739
 30
0.0
 10
-6.4945
 20
-11.8739
 30
0.0
 10
-6.4945
 20
-11.8739
 30
0.0
  0
SPLINE
  5
47
330
1F
100
AcDbEntity
  8
Ilustrace
 62
   250
370
    15
100
AcDbSpline
210
0.0
220
0.0
230
1.0
 70
    24
 71
     3
 72
     8
 73
     4
 74
     0
 42
0.0000000001
 43
0.0000000001
 40
0.0
 40
0.0
 40
0.0
 40
0.0
 40
1.0
 40
1.0
 40
1.0
 40
1.0
 10
1.7363
 20
-11.896
 30
0.0
 10
1.7363
 20
-11.896
 30
0.0
 10
0.98
 20
-11.896
 30
0.0
 10
0.98
 20
-11.896
 30
0.0
  0
SPLINE
  5
48
330
1F
100
AcDbEntity
  8
Ilustrace
 62
   250
370
    15
100
AcDbSpline
210
0.0
220
0.0
230
1.0
 70
    24
 71
     3
 72
     8
 73
     4
 74
     0
 42
0.0000000001
 43
0.0000000001
 40
0.0
 40
0.0
 40
0.0
 40
0.0
 40
1.0
 40
1.0
 40
1.0
 40
1.0
 10
-5.7327
 20
-11.4549
 30
0.0
 10
-5.7327
 20
-11.4549
 30
0.0
 10
-6.489
 20
-11.4549
 30
0.0
 10
-6.489
 20
-11.4549
 30
0.0
  0
SPLINE
  5
49
330
1F
100
AcDbEntity
  8
Ilustrace
 62
   250
370
    15
100
AcDbSpline
210
0.0
220
0.0
230
1.0
 70
    24
 71
     3
 72
     8
 73
     4
 74
     0
 42
0.0000000001
 43
0.0000000001
 40
0.0
 40
0.0
 40
0.0
 40
0.0
 40
1.0
 40
1.0
 40
1.0
 40
1.0
 10
1.7418
 20
-11.477
 30
0.0
 10
1.7418
 20
-11.477
 30
0.0
 10
0.9855
 20
-11.477
 30
0.0
 10
0.9855
 20
-11.477
 30
0.0
  0
SPLINE
  5
4A
330
1F
100
AcDbEntity
  8
Ilustrace
 62
   250
370
    15
100
AcDbSpline
210
0.0
220
0.0
230
1.0
 70
    24
 71
     3
 72
     8
 73
     4
 74
     0
 42
0.0000000001
 43
0.0000000001
 40
0.0
 40
0.0
 40
0.0
 40
0.0
 40
1.0
 40
1.0
 40
1.0
 40
1.0
 10
-5.7546
 20
-12.8476
 30
0.0
 10
-5.7546
 20
-12.8476
 30
0.0
 10
-6.5109
 20
-12.8476
 30
0.0
 10
-6.5109
 20
-12.8476
 30
0.0
  0
SPLINE
  5
4B
330
1F
100
AcDbEntity
  8
Ilustrace
 62
   250
370
    15
100
AcDbSpline
210
0.0
220
0.0
230
1.0
 70
    24
 71
     3
 72
     8
 73
     4
 74
     0
 42
0.0000000001
 43
0.0000000001
 40
0.0
 40
0.0
 40
0.0
 40
0.0
 40
1.0
 40
1.0
 40
1.0
 40
1.0
 10
1.7199
 20
-12.8697
 30
0.0
 10
1.7199
 20
-12.8697
 30
0.0
 10
0.9636
 20
-12.8697
 30
0.0
 10
0.9636
 20
-12.8697
 30
0.0
  0
SPLINE
  5
4C
330
1F
100
AcDbEntity
  8
Ilustrace
 62
   250
370
    15
100
AcDbSpline
210
0.0
220
0.0
230
1.0
 70
    24
 71
     3
 72
     8
 73
     4
 74
     0
 42
0.0000000001
 43
0.0000000001
 40
0.0
 40
0.0
 40
0.0
 40
0.0
 40
1.0
 40
1.0
 40
1.0
 40
1.0
 10
-5.7326
 20
-12.1145
 30
0.0
 10
-5.7326
 20
-12.1145
 30
0.0
 10
-6.4889
 20
-12.1145
 30
0.0
 10
-6.4889
 20
-12.1145
 30
0.0
  0
SPLINE
  5
4D
330
1F
100
AcDbEntity
  8
Ilustrace
 62
   250
370
    15
100
AcDbSpline
210
0.0
220
0.0
230
1.0
 70
    24
 71
     3
 72
     8
 73
     4
 74
     0
 42
0.0000000001
 43
0.0000000001
 40
0.0
 40
0.0
 40
0.0
 40
0.0
 40
1.0
 40
1.0
 40
1.0
 40
1.0
 10
1.7419
 20
-12.1366
 30
0.0
 10
1.7419
 20
-12.1366
 30
0.0
 10
0.9856
 20
-12.1366
 30
0.0
 10
0.9856
 20
-12.1366
 30
0.0
  0
SPLINE
  5
4E
330
1F
100
AcDbEntity
  8
Ilustrace
 62
   250
370
    15
100
AcDbSpline
210
0.0
220
0.0
230
1.0
 70
    24
 71
     3
 72
     8
 73
     4
 74
     0
 42
0.0000000001
 43
0.0000000001
 40
0.0
 40
0.0
 40
0.0
 40
0.0
 40
1.0
 40
1.0
 40
1.0
 40
1.0
 10
-5.7271
 20
-11.6955
 30
0.0
 10
-5.7271
 20
-11.6955
 30
0.0
 10
-6.4834
 20
-11.6955
 30
0.0
 10
-6.4834
 20
-11.6955
 30
0.0
  0
SPLINE
  5
4F
330
1F
100
AcDbEntity
  8
Ilustrace
 62
   250
370
    15
100
AcDbSpline
210
0.0
220
0.0
230
1.0
 70
    24
 71
     3
 72
     8
 73
     4
 74
     0
 42
0.0000000001
 43
0.0000000001
 40
0.0
 40
0.0
 40
0.0
 40
0.0
 40
1.0
 40
1.0
 40
1.0
 40
1.0
 10
1.7474
 20
-11.7176
 30
0.0
 10
1.7474
 20
-11.7176
 30
0.0
 10
0.9911
 20
-11.7176
 30
0.0
 10
0.9911
 20
-11.7176
 30
0.0
  0
SPLINE
  5
50
330
1F
100
AcDbEntity
  8
Ilustrace
 62
   250
370
    15
100
AcDbSpline
210
0.0
220
0.0
230
1.0
 70
    24
 71
     3
 72
     8
 73
     4
 74
     0
 42
0.0000000001
 43
0.0000000001
 40
0.0
 40
0.0
 40
0.0
 40
0.0
 40
1.0
 40
1.0
 40
1.0
 40
1.0
 10
-5.7602
 20
-12.3571
 30
0.0
 10
-5.7602
 20
-12.3571
 30
0.0
 10
-6.5165
 20
-12.3571
 30
0.0
 10
-6.5165
 20
-12.3571
 30
0.0
  0
SPLINE
  5
51
330
1F
100
AcDbEntity
  8
Ilustrace
 62
   250
370
    15
100
AcDbSpline
210
0.0
220
0.0
230
1.0
 70
    24
 71
     3
 72
     8
 73
     4
 74
     0
 42
0.0000000001
 43
0.0000000001
 40
0.0
 40
0.0
 40
0.0
 40
0.0
 40
1.0
 40
1.0
 40
1.0
 40
1.0
 10
1.7143
 20
-12.3792
 30
0.0
 10
1.7143
 20
-12.3792
 30
0.0
 10
0.958
 20
-12.3792
 30
0.0
 10
0.958
 20
-12.3792
 30
0.0
  0
SPLINE
  5
52
330
1F
100
AcDbEntity
  8
Ilustrace
  6
New Line1
 62
   250
370
    15
100
AcDbSpline
210
0.0
220
0.0
230
1.0
 70
    24
 71
     3
 72
     8
 73
     4
 74
     0
 42
0.0000000001
 43
0.0000000001
 40
0.0
 40
0.0
 40
0.0
 40
0.0
 40
1.0
 40
1.0
 40
1.0
 40
1.0
 10
-6.1592
 20
-13.8865
 30
0.0
 10
-6.1592
 20
-13.8865
 30
0.0
 10
-6.1592
 20
-8.0367
 30
0.0
 10
-6.1592
 20
-8.0367
 30
0.0
  0
SPLINE
  5
54
330
1F
100
AcDbEntity
  8
Ilustrace
  6
New Line2
 62
   250
370
    15
100
AcDbSpline
210
0.0
220
0.0
230
1.0
 70
    24
 71
     3
 72
     8
 73
     4
 74
     0
 42
0.0000000001
 43
0.0000000001
 40
0.0
 40
0.0
 40
0.0
 40
0.0
 40
1.0
 40
1.0
 40
1.0
 40
1.0
 10
1.3814
 20
-13.8866
 30
0.0
 10
1.3814
 20
-13.8866
 30
0.0
 10
1.3814
 20
-8.0368
 30
0.0
 10
1.3814
 20
-8.0368
 30
0.0
  0
SPLINE
  5
56
330
1F
100
AcDbEntity
  8
Ilustrace
 62
   250
370
    30
100
AcDbSpline
210
0.0
220
0.0
230
1.0
 70
    24
 71
     3
 72
     8
 73
     4
 74
     0
 42
0.0000000001
 43
0.0000000001
 40
0.0
 40
0.0
 40
0.0
 40
0.0
 40
1.0
 40
1.0
 40
1.0
 40
1.0
 10
-5.6165
 20
-13.3996
 30
0.0
 10
-5.6165
 20
-13.3996
 30
0.0
 10
-6.6329
 20
-13.3996
 30
0.0
 10
-6.6329
 20
-13.3996
 30
0.0
  0
SPLINE
  5
57
330
1F
100
AcDbEntity
  8
Ilustrace
 62
   250
370
    30
100
AcDbSpline
210
0.0
220
0.0
230
1.0
 70
    24
 71
     3
 72
     8
 73
     4
 74
     0
 42
0.0000000001
 43
0.0000000001
 40
0.0
 40
0.0
 40
0.0
 40
0.0
 40
1.0
 40
1.0
 40
1.0
 40
1.0
 10
-4.4032
 20
-9.3344
 30
0.0
 10
-4.4032
 20
-9.3344
 30
0.0
 10
-4.4032
 20
-9.1679
 30
0.0
 10
-4.4032
 20
-9.1679
 30
0.0
  0
SPLINE
  5
58
330
1F
100
AcDbEntity
  8
Ilustrace
 62
   250
370
    30
100
AcDbSpline
210
0.0
220
0.0
230
1.0
 70
    24
 71
     3
 72
     8
 73
     4
 74
     0
 42
0.0000000001
 43
0.0000000001
 40
0.0
 40
0.0
 40
0.0
 40
0.0
 40
1.0
 40
1.0
 40
1.0
 40
1.0
 10
-7.8461
 20
-9.3344
 30
0.0
 10
-7.8461
 20
-9.3344
 30
0.0
 10
-7.8461
 20
-9.1679
 30
0.0
 10
-7.8461
 20
-9.1679
 30
0.0
  0
SPLINE
  5
59
330
1F
100
AcDbEntity
  8
Ilustrace
 62
   250
370
    30
100
AcDbSpline
210
0.0
220
0.0
230
1.0
 70
    24
 71
     3
 72
    12
 73
     8
 74
     0
 42
0.0000000001
 43
0.0000000001
 40
0.0
 40
0.0
 40
0.0
 40
0.0
 40
0.3333333333333333
 40
0.3333333333333333
 40
0.3333333333333333
 40
0.3333333333333333
 40
1.0
 40
1.0
 40
1.0
 40
1.0
 10
-5.4896
 20
-11.1891
 30
0.0
 10
-5.4896
 20
-11.1891
 30
0.0
 10
-5.4896
 20
-11.6974
 30
0.0
 10
-5.4896
 20
-11.6974
 30
0.0
 10
-5.4896
 20
-11.6974
 30
0.0
 10
-5.4896
 20
-11.6974
 30
0.0
 10
-5.4896
 20
-12.7645
 30
0.0
 10
-5.4896
 20
-12.7645
 30
0.0
  0
SPLINE
  5
5A
330
1F
100
AcDbEntity
  8
Ilustrace
 62
   250
370
    30
100
AcDbSpline
210
0.0
220
0.0
230
1.0
 70
     8
 71
     3
 72
     8
 73
     4
 74
     0
 42
0.0000000001
 43
0.0000000001
 40
0.0
 40
0.0
 40
0.0
 40
0.0
 40
1.0
 40
1.0
 40
1.0
 40
1.0
 10
-5.4896
 20
-12.7645
 30
0.0
 10
-5.4896
 20
-13.3325
 30
0.0
 10
-5.3697
 20
-13.1529
 30
0.0
 10
-5.6165
 20
-13.3996
 30
0.0
  0
SPLINE
  5
5B
330
1F
100
AcDbEntity
  8
Ilustrace
 62
   250
370
    30
100
AcDbSpline
210
0.0
220
0.0
230
1.0
 70
     8
 71
     3
 72
    16
 73
    12
 74
     0
 42
0.0000000001
 43
0.0000000001
 40
0.0
 40
0.0
 40
0.0
 40
0.0
 40
0.25
 40
0.25
 40
0.25
 40
0.25
 40
0.5
 40
0.5
 40
0.5
 40
0.5
 40
1.0
 40
1.0
 40
1.0
 40
1.0
 10
-5.6165
 20
-13.3996
 30
0.0
 10
-5.6165
 20
-13.3996
 30
0.0
 10
-6.6329
 20
-13.3996
 30
0.0
 10
-6.6329
 20
-13.3996
 30
0.0
 10
-6.6329
 20
-13.3996
 30
0.0
 10
-6.6329
 20
-13.3996
 30
0.0
 10
-6.76
 20
-13.2726
 30
0.0
 10
-6.76
 20
-13.2726
 30
0.0
 10
-6.76
 20
-13.2726
 30
0.0
 10
-6.76
 20
-13.2726
 30
0.0
 10
-6.76
 20
-11.1891
 30
0.0
 10
-6.76
 20
-11.1891
 30
0.0
  0
SPLINE
  5
5C
330
1F
100
AcDbEntity
  8
Ilustrace
 62
   250
370
    30
100
AcDbSpline
210
0.0
220
0.0
230
1.0
 70
     8
 71
     3
 72
    20
 73
    16
 74
     0
 42
0.0000000001
 43
0.0000000001
 40
0.0
 40
0.0
 40
0.0
 40
0.0
 40
0.2
 40
0.2
 40
0.2
 40
0.2
 40
0.4
 40
0.4
 40
0.4
 40
0.4
 40
0.6
 40
0.6
 40
0.6
 40
0.6
 40
1.0
 40
1.0
 40
1.0
 40
1.0
 10
-4.4032
 20
-9.1679
 30
0.0
 10
-4.7845
 20
-8.8448
 30
0.0
 10
-5.2084
 20
-8.6137
 30
0.0
 10
-5.7063
 20
-8.5305
 30
0.0
 10
-5.7063
 20
-8.5305
 30
0.0
 10
-5.8908
 20
-8.4998
 30
0.0
 10
-5.9384
 20
-8.5036
 30
0.0
 10
-6.1247
 20
-8.4958
 30
0.0
 10
-6.1247
 20
-8.4958
 30
0.0
 10
-6.3111
 20
-8.5036
 30
0.0
 10
-6.3586
 20
-8.4998
 30
0.0
 10
-6.5431
 20
-8.5305
 30
0.0
 10
-6.5431
 20
-8.5305
 30
0.0
 10
-7.0411
 20
-8.6137
 30
0.0
 10
-7.4649
 20
-8.8448
 30
0.0
 10
-7.8461
 20
-9.1679
 30
0.0
  0
SPLINE
  5
5D
330
1F
100
AcDbEntity
  8
Ilustrace
 62
   250
370
    30
100
AcDbSpline
210
0.0
220
0.0
230
1.0
 70
    24
 71
     3
 72
     8
 73
     4
 74
     0
 42
0.0000000001
 43
0.0000000001
 40
0.0
 40
0.0
 40
0.0
 40
0.0
 40
1.0
 40
1.0
 40
1.0
 40
1.0
 10
1.8788
 20
-13.3996
 30
0.0
 10
1.8788
 20
-13.3996
 30
0.0
 10
0.8626
 20
-13.3996
 30
0.0
 10
0.8626
 20
-13.3996
 30
0.0
  0
SPLINE
  5
5E
330
1F
100
AcDbEntity
  8
Ilustrace
 62
   250
370
    30
100
AcDbSpline
210
0.0
220
0.0
230
1.0
 70
    24
 71
     3
 72
     8
 73
     4
 74
     0
 42
0.0000000001
 43
0.0000000001
 40
0.0
 40
0.0
 40
0.0
 40
0.0
 40
1.0
 40
1.0
 40
1.0
 40
1.0
 10
3.0921
 20
-9.3344
 30
0.0
 10
3.0921
 20
-9.3344
 30
0.0
 10
3.0921
 20
-9.1679
 30
0.0
 10
3.0921
 20
-9.1679
 30
0.0
  0
SPLINE
  5
5F
330
1F
100
AcDbEntity
  8
Ilustrace
 62
   250
370
    30
100
AcDbSpline
210
0.0
220
0.0
230
1.0
 70
    24
 71
     3
 72
     8
 73
     4
 74
     0
 42
0.0000000001
 43
0.0000000001
 40
0.0
 40
0.0
 40
0.0
 40
0.0
 40
1.0
 40
1.0
 40
1.0
 40
1.0
 10
-0.3507
 20
-9.3344
 30
0.0
 10
-0.3507
 20
-9.3344
 30
0.0
 10
-0.3507
 20
-9.1679
 30
0.0
 10
-0.3507
 20
-9.1679
 30
0.0
  0
SPLINE
  5
60
330
1F
100
AcDbEntity
  8
Ilustrace
 62
   250
370
    30
100
AcDbSpline
210
0.0
220
0.0
230
1.0
 70
    24
 71
     3
 72
    12
 73
     8
 74
     0
 42
0.0000000001
 43
0.0000000001
 40
0.0
 40
0.0
 40
0.0
 40
0.0
 40
0.3333333333333333
 40
0.3333333333333333
 40
0.3333333333333333
 40
0.3333333333333333
 40
1.0
 40
1.0
 40
1.0
 40
1.0
 10
2.0059
 20
-11.1891
 30
0.0
 10
2.0059
 20
-11.1891
 30
0.0
 10
2.0059
 20
-11.6974
 30
0.0
 10
2.0059
 20
-11.6974
 30
0.0
 10
2.0059
 20
-11.6974
 30
0.0
 10
2.0059
 20
-11.6974
 30
0.0
 10
2.0059
 20
-12.7645
 30
0.0
 10
2.0059
 20
-12.7645
 30
0.0
  0
SPLINE
  5
61
330
1F
100
AcDbEntity
  8
Ilustrace
 62
   250
370
    30
100
AcDbSpline
210
0.0
220
0.0
230
1.0
 70
     8
 71
     3
 72
     8
 73
     4
 74
     0
 42
0.0000000001
 43
0.0000000001
 40
0.0
 40
0.0
 40
0.0
 40
0.0
 40
1.0
 40
1.0
 40
1.0
 40
1.0
 10
2.0059
 20
-12.7645
 30
0.0
 10
2.0059
 20
-13.3325
 30
0.0
 10
2.1256
 20
-13.1529
 30
0.0
 10
1.8788
 20
-13.3996
 30
0.0
  0
SPLINE
  5
62
330
1F
100
AcDbEntity
  8
Ilustrace
 62
   250
370
    30
100
AcDbSpline
210
0.0
220
0.0
230
1.0
 70
     8
 71
     3
 72
    16
 73
    12
 74
     0
 42
0.0000000001
 43
0.0000000001
 40
0.0
 40
0.0
 40
0.0
 40
0.0
 40
0.25
 40
0.25
 40
0.25
 40
0.25
 40
0.5
 40
0.5
 40
0.5
 40
0.5
 40
1.0
 40
1.0
 40
1.0
 40
1.0
 10
1.8788
 20
-13.3996
 30
0.0
 10
1.8788
 20
-13.3996
 30
0.0
 10
0.8626
 20
-13.3996
 30
0.0
 10
0.8626
 20
-13.3996
 30
0.0
 10
0.8626
 20
-13.3996
 30
0.0
 10
0.8626
 20
-13.3996
 30
0.0
 10
0.7355
 20
-13.2726
 30
0.0
 10
0.7355
 20
-13.2726
 30
0.0
 10
0.7355
 20
-13.2726
 30
0.0
 10
0.7355
 20
-13.2726
 30
0.0
 10
0.7355
 20
-11.1891
 30
0.0
 10
0.7355
 20
-11.1891
 30
0.0
  0
SPLINE
  5
63
330
1F
100
AcDbEntity
  8
Ilustrace
 62
   250
370
    30
100
AcDbSpline
210
0.0
220
0.0
230
1.0
 70
     8
 71
     3
 72
    20
 73
    16
 74
     0
 42
0.0000000001
 43
0.0000000001
 40
0.0
 40
0.0
 40
0.0
 40
0.0
 40
0.2
 40
0.2
 40
0.2
 40
0.2
 40
0.4
 40
0.4
 40
0.4
 40
0.4
 40
0.6
 40
0.6
 40
0.6
 40
0.6
 40
1.0
 40
1.0
 40
1.0
 40
1.0
 10
3.0921
 20
-9.1679
 30
0.0
 10
2.7108
 20
-8.8448
 30
0.0
 10
2.2869
 20
-8.6137
 30
0.0
 10
1.789
 20
-8.5305
 30
0.0
 10
1.789
 20
-8.5305
 30
0.0
 10
1.6045
 20
-8.4998
 30
0.0
 10
1.5571
 20
-8.5036
 30
0.0
 10
1.3706
 20
-8.4958
 30
0.0
 10
1.3706
 20
-8.4958
 30
0.0
 10
1.1843
 20
-8.5036
 30
0.0
 10
1.1367
 20
-8.4998
 30
0.0
 10
0.9522
 20
-8.5305
 30
0.0
 10
0.9522
 20
-8.5305
 30
0.0
 10
0.4543
 20
-8.6137
 30
0.0
 10
0.0304
 20
-8.8448
 30
0.0
 10
-0.3507
 20
-9.1679
 30
0.0
  0
SPLINE
  5
64
330
1F
100
AcDbEntity
  8
Ilustrace
 62
   250
370
    30
100
AcDbSpline
210
0.0
220
0.0
230
1.0
 70
    24
 71
     3
 72
     8
 73
     4
 74
     0
 42
0.0000000001
 43
0.0000000001
 40
0.0
 40
0.0
 40
0.0
 40
0.0
 40
1.0
 40
1.0
 40
1.0
 40
1.0
 10
-6.4206
 20
-10.169
 30
0.0
 10
-6.4206
 20
-10.169
 30
0.0
 10
-6.7035
 20
-10.0965
 30
0.0
 10
-6.7035
 20
-10.0965
 30
0.0
  0
SPLINE
  5
65
330
1F
100
AcDbEntity
  8
Ilustrace
 62
   250
370
    30
100
AcDbSpline
210
0.0
220
0.0
230
1.0
 70
    24
 71
     3
 72
     8
 73
     4
 74
     0
 42
0.0000000001
 43
0.0000000001
 40
0.0
 40
0.0
 40
0.0
 40
0.0
 40
1.0
 40
1.0
 40
1.0
 40
1.0
 10
-7.357
 20
-10.0965
 30
0.0
 10
-7.357
 20
-10.0965
 30
0.0
 10
-7.1821
 20
-10.162
 30
0.0
 10
-7.1821
 20
-10.162
 30
0.0
  0
SPLINE
  5
66
330
1F
100
AcDbEntity
  8
Ilustrace
 62
   250
370
    30
100
AcDbSpline
210
0.0
220
0.0
230
1.0
 70
    24
 71
     3
 72
     8
 73
     4
 74
     0
 42
0.0000000001
 43
0.0000000001
 40
0.0
 40
0.0
 40
0.0
 40
0.0
 40
1.0
 40
1.0
 40
1.0
 40
1.0
 10
-6.9611
 20
-10.1651
 30
0.0
 10
-6.9611
 20
-10.1651
 30
0.0
 10
-7.1821
 20
-10.0965
 30
0.0
 10
-7.1821
 20
-10.0965
 30
0.0
  0
SPLINE
  5
67
330
1F
100
AcDbEntity
  8
Ilustrace
 62
   250
370
    30
100
AcDbSpline
210
0.0
220
0.0
230
1.0
 70
    24
 71
     3
 72
     8
 73
     4
 74
     0
 42
0.0000000001
 43
0.0000000001
 40
0.0
 40
0.0
 40
0.0
 40
0.0
 40
1.0
 40
1.0
 40
1.0
 40
1.0
 10
-6.7035
 20
-10.1673
 30
0.0
 10
-6.7035
 20
-10.1673
 30
0.0
 10
-6.9611
 20
-10.0965
 30
0.0
 10
-6.9611
 20
-10.0965
 30
0.0
  0
SPLINE
  5
68
330
1F
100
AcDbEntity
  8
Ilustrace
 62
   250
370
    30
100
AcDbSpline
210
0.0
220
0.0
230
1.0
 70
    24
 71
     3
 72
     8
 73
     4
 74
     0
 42
0.0000000001
 43
0.0000000001
 40
0.0
 40
0.0
 40
0.0
 40
0.0
 40
1.0
 40
1.0
 40
1.0
 40
1.0
 10
-7.5397
 20
-10.0965
 30
0.0
 10
-7.5397
 20
-10.0965
 30
0.0
 10
-7.4782
 20
-10.1465
 30
0.0
 10
-7.4782
 20
-10.1465
 30
0.0
  0
SPLINE
  5
69
330
1F
100
AcDbEntity
  8
Ilustrace
 62
   250
370
    30
100
AcDbSpline
210
0.0
220
0.0
230
1.0
 70
    24
 71
     3
 72
     8
 73
     4
 74
     0
 42
0.0000000001
 43
0.0000000001
 40
0.0
 40
0.0
 40
0.0
 40
0.0
 40
1.0
 40
1.0
 40
1.0
 40
1.0
 10
-7.357
 20
-10.1573
 30
0.0
 10
-7.357
 20
-10.1573
 30
0.0
 10
-7.4779
 20
-10.0965
 30
0.0
 10
-7.4779
 20
-10.0965
 30
0.0
  0
SPLINE
  5
6A
330
1F
100
AcDbEntity
  8
Ilustrace
 62
   250
370
    30
100
AcDbSpline
210
0.0
220
0.0
230
1.0
 70
    24
 71
     3
 72
     8
 73
     4
 74
     0
 42
0.0000000001
 43
0.0000000001
 40
0.0
 40
0.0
 40
0.0
 40
0.0
 40
1.0
 40
1.0
 40
1.0
 40
1.0
 10
-6.4206
 20
-10.0965
 30
0.0
 10
-6.4206
 20
-10.0965
 30
0.0
 10
-6.1247
 20
-10.1706
 30
0.0
 10
-6.1247
 20
-10.1706
 30
0.0
  0
SPLINE
  5
6B
330
1F
100
AcDbEntity
  8
Ilustrace
 62
   250
370
    30
100
AcDbSpline
210
0.0
220
0.0
230
1.0
 70
    24
 71
     3
 72
     8
 73
     4
 74
     0
 42
0.0000000001
 43
0.0000000001
 40
0.0
 40
0.0
 40
0.0
 40
0.0
 40
1.0
 40
1.0
 40
1.0
 40
1.0
 10
-5.5461
 20
-10.0965
 30
0.0
 10
-5.5461
 20
-10.0965
 30
0.0
 10
-5.3849
 20
-10.1465
 30
0.0
 10
-5.3849
 20
-10.1465
 30
0.0
  0
SPLINE
  5
6C
330
1F
100
AcDbEntity
  8
Ilustrace
 62
   250
370
    30
100
AcDbSpline
210
0.0
220
0.0
230
1.0
 70
    24
 71
     3
 72
     8
 73
     4
 74
     0
 42
0.0000000001
 43
0.0000000001
 40
0.0
 40
0.0
 40
0.0
 40
0.0
 40
1.0
 40
1.0
 40
1.0
 40
1.0
 10
-4.8925
 20
-10.0965
 30
0.0
 10
-4.8925
 20
-10.0965
 30
0.0
 10
-4.8309
 20
-10.1465
 30
0.0
 10
-4.8309
 20
-10.1465
 30
0.0
  0
SPLINE
  5
6D
330
1F
100
AcDbEntity
  8
Ilustrace
 62
   250
370
    30
100
AcDbSpline
210
0.0
220
0.0
230
1.0
 70
    24
 71
     3
 72
     8
 73
     4
 74
     0
 42
0.0000000001
 43
0.0000000001
 40
0.0
 40
0.0
 40
0.0
 40
0.0
 40
1.0
 40
1.0
 40
1.0
 40
1.0
 10
-4.8925
 20
-10.1706
 30
0.0
 10
-4.8925
 20
-10.1706
 30
0.0
 10
-4.8925
 20
-10.3973
 30
0.0
 10
-4.8925
 20
-10.3973
 30
0.0
  0
SPLINE
  5
6E
330
1F
100
AcDbEntity
  8
Ilustrace
 62
   250
370
    30
100
AcDbSpline
210
0.0
220
0.0
230
1.0
 70
    24
 71
     3
 72
     8
 73
     4
 74
     0
 42
0.0000000001
 43
0.0000000001
 40
0.0
 40
0.0
 40
0.0
 40
0.0
 40
1.0
 40
1.0
 40
1.0
 40
1.0
 10
-5.1084
 20
-10.5412
 30
0.0
 10
-5.1084
 20
-10.5412
 30
0.0
 10
-4.8925
 20
-10.3973
 30
0.0
 10
-4.8925
 20
-10.3973
 30
0.0
  0
SPLINE
  5
6F
330
1F
100
AcDbEntity
  8
Ilustrace
 62
   250
370
    30
100
AcDbSpline
210
0.0
220
0.0
230
1.0
 70
    24
 71
     3
 72
     8
 73
     4
 74
     0
 42
0.0000000001
 43
0.0000000001
 40
0.0
 40
0.0
 40
0.0
 40
0.0
 40
1.0
 40
1.0
 40
1.0
 40
1.0
 10
-4.9677
 20
-10.1465
 30
0.0
 10
-4.9677
 20
-10.1465
 30
0.0
 10
-5.0674
 20
-10.0965
 30
0.0
 10
-5.0674
 20
-10.0965
 30
0.0
  0
SPLINE
  5
70
330
1F
100
AcDbEntity
  8
Ilustrace
 62
   250
370
    30
100
AcDbSpline
210
0.0
220
0.0
230
1.0
 70
    24
 71
     3
 72
     8
 73
     4
 74
     0
 42
0.0000000001
 43
0.0000000001
 40
0.0
 40
0.0
 40
0.0
 40
0.0
 40
1.0
 40
1.0
 40
1.0
 40
1.0
 10
-5.6469
 20
-10.1465
 30
0.0
 10
-5.6469
 20
-10.1465
 30
0.0
 10
-5.8289
 20
-10.0965
 30
0.0
 10
-5.8289
 20
-10.0965
 30
0.0
  0
SPLINE
  5
71
330
1F
100
AcDbEntity
  8
Ilustrace
 62
   250
370
    30
100
AcDbSpline
210
0.0
220
0.0
230
1.0
 70
    24
 71
     3
 72
     8
 73
     4
 74
     0
 42
0.0000000001
 43
0.0000000001
 40
0.0
 40
0.0
 40
0.0
 40
0.0
 40
1.0
 40
1.0
 40
1.0
 40
1.0
 10
-5.1551
 20
-10.1465
 30
0.0
 10
-5.1551
 20
-10.1465
 30
0.0
 10
-5.2883
 20
-10.0965
 30
0.0
 10
-5.2883
 20
-10.0965
 30
0.0
  0
SPLINE
  5
72
330
1F
100
AcDbEntity
  8
Ilustrace
 62
   250
370
    30
100
AcDbSpline
210
0.0
220
0.0
230
1.0
 70
    24
 71
     3
 72
     8
 73
     4
 74
     0
 42
0.0000000001
 43
0.0000000001
 40
0.0
 40
0.0
 40
0.0
 40
0.0
 40
1.0
 40
1.0
 40
1.0
 40
1.0
 10
-4.7714
 20
-10.0965
 30
0.0
 10
-4.7714
 20
-10.0965
 30
0.0
 10
-4.7714
 20
-10.1706
 30
0.0
 10
-4.7714
 20
-10.1706
 30
0.0
  0
SPLINE
  5
73
330
1F
100
AcDbEntity
  8
Ilustrace
 62
   250
370
    30
100
AcDbSpline
210
0.0
220
0.0
230
1.0
 70
    24
 71
     3
 72
     8
 73
     4
 74
     0
 42
0.0000000001
 43
0.0000000001
 40
0.0
 40
0.0
 40
0.0
 40
0.0
 40
1.0
 40
1.0
 40
1.0
 40
1.0
 10
-7.5475
 20
-10.3973
 30
0.0
 10
-7.5475
 20
-10.3973
 30
0.0
 10
-4.7018
 20
-10.3973
 30
0.0
 10
-4.7018
 20
-10.3973
 30
0.0
  0
SPLINE
  5
74
330
1F
100
AcDbEntity
  8
Ilustrace
 62
   250
370
    30
100
AcDbSpline
210
0.0
220
0.0
230
1.0
 70
    24
 71
     3
 72
     8
 73
     4
 74
     0
 42
0.0000000001
 43
0.0000000001
 40
0.0
 40
0.0
 40
0.0
 40
0.0
 40
1.0
 40
1.0
 40
1.0
 40
1.0
 10
-4.8925
 20
-10.1706
 30
0.0
 10
-4.8925
 20
-10.1706
 30
0.0
 10
-4.8925
 20
-10.0965
 30
0.0
 10
-4.8925
 20
-10.0965
 30
0.0
  0
SPLINE
  5
75
330
1F
100
AcDbEntity
  8
Ilustrace
 62
   250
370
    30
100
AcDbSpline
210
0.0
220
0.0
230
1.0
 70
    24
 71
     3
 72
     8
 73
     4
 74
     0
 42
0.0000000001
 43
0.0000000001
 40
0.0
 40
0.0
 40
0.0
 40
0.0
 40
1.0
 40
1.0
 40
1.0
 40
1.0
 10
-5.0674
 20
-10.0965
 30
0.0
 10
-5.0674
 20
-10.0965
 30
0.0
 10
-5.0674
 20
-10.1706
 30
0.0
 10
-5.0674
 20
-10.1706
 30
0.0
  0
SPLINE
  5
76
330
1F
100
AcDbEntity
  8
Ilustrace
 62
   250
370
    30
100
AcDbSpline
210
0.0
220
0.0
230
1.0
 70
    24
 71
     3
 72
     8
 73
     4
 74
     0
 42
0.0000000001
 43
0.0000000001
 40
0.0
 40
0.0
 40
0.0
 40
0.0
 40
1.0
 40
1.0
 40
1.0
 40
1.0
 10
-5.2883
 20
-10.1706
 30
0.0
 10
-5.2883
 20
-10.1706
 30
0.0
 10
-5.2883
 20
-10.0965
 30
0.0
 10
-5.2883
 20
-10.0965
 30
0.0
  0
SPLINE
  5
77
330
1F
100
AcDbEntity
  8
Ilustrace
 62
   250
370
    30
100
AcDbSpline
210
0.0
220
0.0
230
1.0
 70
    24
 71
     3
 72
     8
 73
     4
 74
     0
 42
0.0000000001
 43
0.0000000001
 40
0.0
 40
0.0
 40
0.0
 40
0.0
 40
1.0
 40
1.0
 40
1.0
 40
1.0
 10
-5.5461
 20
-10.0965
 30
0.0
 10
-5.5461
 20
-10.0965
 30
0.0
 10
-5.5461
 20
-10.1706
 30
0.0
 10
-5.5461
 20
-10.1706
 30
0.0
  0
SPLINE
  5
78
330
1F
100
AcDbEntity
  8
Ilustrace
 62
   250
370
    30
100
AcDbSpline
210
0.0
220
0.0
230
1.0
 70
    24
 71
     3
 72
     8
 73
     4
 74
     0
 42
0.0000000001
 43
0.0000000001
 40
0.0
 40
0.0
 40
0.0
 40
0.0
 40
1.0
 40
1.0
 40
1.0
 40
1.0
 10
-5.8289
 20
-10.1706
 30
0.0
 10
-5.8289
 20
-10.1706
 30
0.0
 10
-5.8289
 20
-10.0965
 30
0.0
 10
-5.8289
 20
-10.0965
 30
0.0
  0
SPLINE
  5
79
330
1F
100
AcDbEntity
  8
Ilustrace
 62
   250
370
    30
100
AcDbSpline
210
0.0
220
0.0
230
1.0
 70
    24
 71
     3
 72
     8
 73
     4
 74
     0
 42
0.0000000001
 43
0.0000000001
 40
0.0
 40
0.0
 40
0.0
 40
0.0
 40
1.0
 40
1.0
 40
1.0
 40
1.0
 10
-6.1247
 20
-11.0984
 30
0.0
 10
-6.1247
 20
-11.0984
 30
0.0
 10
-6.1247
 20
-10.5412
 30
0.0
 10
-6.1247
 20
-10.5412
 30
0.0
  0
SPLINE
  5
7A
330
1F
100
AcDbEntity
  8
Ilustrace
 62
   250
370
    30
100
AcDbSpline
210
0.0
220
0.0
230
1.0
 70
    24
 71
     3
 72
     8
 73
     4
 74
     0
 42
0.0000000001
 43
0.0000000001
 40
0.0
 40
0.0
 40
0.0
 40
0.0
 40
1.0
 40
1.0
 40
1.0
 40
1.0
 10
-6.4145
 20
-10.1706
 30
0.0
 10
-6.4145
 20
-10.1706
 30
0.0
 10
-6.4182
 20
-10.1706
 30
0.0
 10
-6.4182
 20
-10.1706
 30
0.0
  0
SPLINE
  5
7B
330
1F
100
AcDbEntity
  8
Ilustrace
 62
   250
370
    30
100
AcDbSpline
210
0.0
220
0.0
230
1.0
 70
    24
 71
     3
 72
     8
 73
     4
 74
     0
 42
0.0000000001
 43
0.0000000001
 40
0.0
 40
0.0
 40
0.0
 40
0.0
 40
1.0
 40
1.0
 40
1.0
 40
1.0
 10
-7.0417
 20
-10.0965
 30
0.0
 10
-7.0417
 20
-10.0965
 30
0.0
 10
-6.9611
 20
-10.0965
 30
0.0
 10
-6.9611
 20
-10.0965
 30
0.0
  0
SPLINE
  5
7C
330
1F
100
AcDbEntity
  8
Ilustrace
 62
   250
370
    30
100
AcDbSpline
210
0.0
220
0.0
230
1.0
 70
    24
 71
     3
 72
     8
 73
     4
 74
     0
 42
0.0000000001
 43
0.0000000001
 40
0.0
 40
0.0
 40
0.0
 40
0.0
 40
1.0
 40
1.0
 40
1.0
 40
1.0
 10
-6.4206
 20
-10.1706
 30
0.0
 10
-6.4206
 20
-10.1706
 30
0.0
 10
-6.4206
 20
-10.0965
 30
0.0
 10
-6.4206
 20
-10.0965
 30
0.0
  0
SPLINE
  5
7D
330
1F
100
AcDbEntity
  8
Ilustrace
 62
   250
370
    30
100
AcDbSpline
210
0.0
220
0.0
230
1.0
 70
    24
 71
     3
 72
     8
 73
     4
 74
     0
 42
0.0000000001
 43
0.0000000001
 40
0.0
 40
0.0
 40
0.0
 40
0.0
 40
1.0
 40
1.0
 40
1.0
 40
1.0
 10
-6.296
 20
-10.0965
 30
0.0
 10
-6.296
 20
-10.0965
 30
0.0
 10
-6.3812
 20
-10.0965
 30
0.0
 10
-6.3812
 20
-10.0965
 30
0.0
  0
SPLINE
  5
7E
330
1F
100
AcDbEntity
  8
Ilustrace
 62
   250
370
    30
100
AcDbSpline
210
0.0
220
0.0
230
1.0
 70
    24
 71
     3
 72
     8
 73
     4
 74
     0
 42
0.0000000001
 43
0.0000000001
 40
0.0
 40
0.0
 40
0.0
 40
0.0
 40
1.0
 40
1.0
 40
1.0
 40
1.0
 10
-6.9443
 20
-10.1706
 30
0.0
 10
-6.9443
 20
-10.1706
 30
0.0
 10
-6.9596
 20
-10.1706
 30
0.0
 10
-6.9596
 20
-10.1706
 30
0.0
  0
SPLINE
  5
7F
330
1F
100
AcDbEntity
  8
Ilustrace
 62
   250
370
    30
100
AcDbSpline
210
0.0
220
0.0
230
1.0
 70
    24
 71
     3
 72
     8
 73
     4
 74
     0
 42
0.0000000001
 43
0.0000000001
 40
0.0
 40
0.0
 40
0.0
 40
0.0
 40
1.0
 40
1.0
 40
1.0
 40
1.0
 10
-7.5114
 20
-10.1706
 30
0.0
 10
-7.5114
 20
-10.1706
 30
0.0
 10
-7.5397
 20
-10.1706
 30
0.0
 10
-7.5397
 20
-10.1706
 30
0.0
  0
SPLINE
  5
80
330
1F
100
AcDbEntity
  8
Ilustrace
 62
   250
370
    30
100
AcDbSpline
210
0.0
220
0.0
230
1.0
 70
    24
 71
     3
 72
     8
 73
     4
 74
     0
 42
0.0000000001
 43
0.0000000001
 40
0.0
 40
0.0
 40
0.0
 40
0.0
 40
1.0
 40
1.0
 40
1.0
 40
1.0
 10
-7.1933
 20
-10.0965
 30
0.0
 10
-7.1933
 20
-10.0965
 30
0.0
 10
-7.1821
 20
-10.0965
 30
0.0
 10
-7.1821
 20
-10.0965
 30
0.0
  0
SPLINE
  5
81
330
1F
100
AcDbEntity
  8
Ilustrace
 62
   250
370
    30
100
AcDbSpline
210
0.0
220
0.0
230
1.0
 70
    24
 71
     3
 72
     8
 73
     4
 74
     0
 42
0.0000000001
 43
0.0000000001
 40
0.0
 40
0.0
 40
0.0
 40
0.0
 40
1.0
 40
1.0
 40
1.0
 40
1.0
 10
-7.1821
 20
-10.1706
 30
0.0
 10
-7.1821
 20
-10.1706
 30
0.0
 10
-7.1821
 20
-10.0965
 30
0.0
 10
-7.1821
 20
-10.0965
 30
0.0
  0
SPLINE
  5
82
330
1F
100
AcDbEntity
  8
Ilustrace
 62
   250
370
    30
100
AcDbSpline
210
0.0
220
0.0
230
1.0
 70
    24
 71
     3
 72
     8
 73
     4
 74
     0
 42
0.0000000001
 43
0.0000000001
 40
0.0
 40
0.0
 40
0.0
 40
0.0
 40
1.0
 40
1.0
 40
1.0
 40
1.0
 10
-7.357
 20
-10.0965
 30
0.0
 10
-7.357
 20
-10.0965
 30
0.0
 10
-7.357
 20
-10.1706
 30
0.0
 10
-7.357
 20
-10.1706
 30
0.0
  0
SPLINE
  5
83
330
1F
100
AcDbEntity
  8
Ilustrace
 62
   250
370
    30
100
AcDbSpline
210
0.0
220
0.0
230
1.0
 70
    24
 71
     3
 72
     8
 73
     4
 74
     0
 42
0.0000000001
 43
0.0000000001
 40
0.0
 40
0.0
 40
0.0
 40
0.0
 40
1.0
 40
1.0
 40
1.0
 40
1.0
 10
-7.4779
 20
-10.1706
 30
0.0
 10
-7.4779
 20
-10.1706
 30
0.0
 10
-7.4779
 20
-10.0965
 30
0.0
 10
-7.4779
 20
-10.0965
 30
0.0
  0
SPLINE
  5
84
330
1F
100
AcDbEntity
  8
Ilustrace
 62
   250
370
    30
100
AcDbSpline
210
0.0
220
0.0
230
1.0
 70
    24
 71
     3
 72
     8
 73
     4
 74
     0
 42
0.0000000001
 43
0.0000000001
 40
0.0
 40
0.0
 40
0.0
 40
0.0
 40
1.0
 40
1.0
 40
1.0
 40
1.0
 10
-7.141
 20
-10.6309
 30
0.0
 10
-7.141
 20
-10.6309
 30
0.0
 10
-7.5475
 20
-10.3973
 30
0.0
 10
-7.5475
 20
-10.3973
 30
0.0
  0
SPLINE
  5
85
330
1F
100
AcDbEntity
  8
Ilustrace
 62
   250
370
    30
100
AcDbSpline
210
0.0
220
0.0
230
1.0
 70
    24
 71
     3
 72
     8
 73
     4
 74
     0
 42
0.0000000001
 43
0.0000000001
 40
0.0
 40
0.0
 40
0.0
 40
0.0
 40
1.0
 40
1.0
 40
1.0
 40
1.0
 10
-6.9611
 20
-10.0965
 30
0.0
 10
-6.9611
 20
-10.0965
 30
0.0
 10
-6.9611
 20
-10.1706
 30
0.0
 10
-6.9611
 20
-10.1706
 30
0.0
  0
SPLINE
  5
86
330
1F
100
AcDbEntity
  8
Ilustrace
 62
   250
370
    30
100
AcDbSpline
210
0.0
220
0.0
230
1.0
 70
    24
 71
     3
 72
     8
 73
     4
 74
     0
 42
0.0000000001
 43
0.0000000001
 40
0.0
 40
0.0
 40
0.0
 40
0.0
 40
1.0
 40
1.0
 40
1.0
 40
1.0
 10
-7.1608
 20
-10.1706
 30
0.0
 10
-7.1608
 20
-10.1706
 30
0.0
 10
-7.1803
 20
-10.1706
 30
0.0
 10
-7.1803
 20
-10.1706
 30
0.0
  0
SPLINE
  5
87
330
1F
100
AcDbEntity
  8
Ilustrace
 62
   250
370
    30
100
AcDbSpline
210
0.0
220
0.0
230
1.0
 70
    24
 71
     3
 72
     8
 73
     4
 74
     0
 42
0.0000000001
 43
0.0000000001
 40
0.0
 40
0.0
 40
0.0
 40
0.0
 40
1.0
 40
1.0
 40
1.0
 40
1.0
 10
-7.3548
 20
-10.1706
 30
0.0
 10
-7.3548
 20
-10.1706
 30
0.0
 10
-7.3322
 20
-10.1706
 30
0.0
 10
-7.3322
 20
-10.1706
 30
0.0
  0
SPLINE
  5
88
330
1F
100
AcDbEntity
  8
Ilustrace
 62
   250
370
    30
100
AcDbSpline
210
0.0
220
0.0
230
1.0
 70
    24
 71
     3
 72
     8
 73
     4
 74
     0
 42
0.0000000001
 43
0.0000000001
 40
0.0
 40
0.0
 40
0.0
 40
0.0
 40
1.0
 40
1.0
 40
1.0
 40
1.0
 10
-7.4509
 20
-10.1706
 30
0.0
 10
-7.4509
 20
-10.1706
 30
0.0
 10
-7.4755
 20
-10.1706
 30
0.0
 10
-7.4755
 20
-10.1706
 30
0.0
  0
SPLINE
  5
89
330
1F
100
AcDbEntity
  8
Ilustrace
 62
   250
370
    30
100
AcDbSpline
210
0.0
220
0.0
230
1.0
 70
    24
 71
     3
 72
     8
 73
     4
 74
     0
 42
0.0000000001
 43
0.0000000001
 40
0.0
 40
0.0
 40
0.0
 40
0.0
 40
1.0
 40
1.0
 40
1.0
 40
1.0
 10
-6.8499
 20
-10.0965
 30
0.0
 10
-6.8499
 20
-10.0965
 30
0.0
 10
-6.7035
 20
-10.0965
 30
0.0
 10
-6.7035
 20
-10.0965
 30
0.0
  0
SPLINE
  5
8A
330
1F
100
AcDbEntity
  8
Ilustrace
 62
   250
370
    30
100
AcDbSpline
210
0.0
220
0.0
230
1.0
 70
    24
 71
     3
 72
     8
 73
     4
 74
     0
 42
0.0000000001
 43
0.0000000001
 40
0.0
 40
0.0
 40
0.0
 40
0.0
 40
1.0
 40
1.0
 40
1.0
 40
1.0
 10
-6.1247
 20
-10.1706
 30
0.0
 10
-6.1247
 20
-10.1706
 30
0.0
 10
-6.1247
 20
-10.0965
 30
0.0
 10
-6.1247
 20
-10.0965
 30
0.0
  0
SPLINE
  5
8B
330
1F
100
AcDbEntity
  8
Ilustrace
 62
   250
370
    30
100
AcDbSpline
210
0.0
220
0.0
230
1.0
 70
    24
 71
     3
 72
     8
 73
     4
 74
     0
 42
0.0000000001
 43
0.0000000001
 40
0.0
 40
0.0
 40
0.0
 40
0.0
 40
1.0
 40
1.0
 40
1.0
 40
1.0
 10
-6.7035
 20
-10.0965
 30
0.0
 10
-6.7035
 20
-10.0965
 30
0.0
 10
-6.7035
 20
-10.1706
 30
0.0
 10
-6.7035
 20
-10.1706
 30
0.0
  0
SPLINE
  5
8C
330
1F
100
AcDbEntity
  8
Ilustrace
 62
   250
370
    30
100
AcDbSpline
210
0.0
220
0.0
230
1.0
 70
    24
 71
     3
 72
     8
 73
     4
 74
     0
 42
0.0000000001
 43
0.0000000001
 40
0.0
 40
0.0
 40
0.0
 40
0.0
 40
1.0
 40
1.0
 40
1.0
 40
1.0
 10
-6.6918
 20
-10.1706
 30
0.0
 10
-6.6918
 20
-10.1706
 30
0.0
 10
-6.7024
 20
-10.1706
 30
0.0
 10
-6.7024
 20
-10.1706
 30
0.0
  0
SPLINE
  5
8D
330
1F
100
AcDbEntity
  8
Ilustrace
 62
   250
370
    30
100
AcDbSpline
210
0.0
220
0.0
230
1.0
 70
    24
 71
     3
 72
     8
 73
     4
 74
     0
 42
0.0000000001
 43
0.0000000001
 40
0.0
 40
0.0
 40
0.0
 40
0.0
 40
1.0
 40
1.0
 40
1.0
 40
1.0
 10
-6.4599
 20
-10.0965
 30
0.0
 10
-6.4599
 20
-10.0965
 30
0.0
 10
-6.6266
 20
-10.0965
 30
0.0
 10
-6.6266
 20
-10.0965
 30
0.0
  0
SPLINE
  5
8E
330
1F
100
AcDbEntity
  8
Ilustrace
 62
   250
370
    30
100
AcDbSpline
210
0.0
220
0.0
230
1.0
 70
    24
 71
     3
 72
     8
 73
     4
 74
     0
 42
0.0000000001
 43
0.0000000001
 40
0.0
 40
0.0
 40
0.0
 40
0.0
 40
1.0
 40
1.0
 40
1.0
 40
1.0
 10
-4.7018
 20
-10.134
 30
0.0
 10
-4.7018
 20
-10.134
 30
0.0
 10
-4.7018
 20
-10.3973
 30
0.0
 10
-4.7018
 20
-10.3973
 30
0.0
  0
SPLINE
  5
8F
330
1F
100
AcDbEntity
  8
Ilustrace
 62
   250
370
    30
100
AcDbSpline
210
0.0
220
0.0
230
1.0
 70
    24
 71
     3
 72
     8
 73
     4
 74
     0
 42
0.0000000001
 43
0.0000000001
 40
0.0
 40
0.0
 40
0.0
 40
0.0
 40
1.0
 40
1.0
 40
1.0
 40
1.0
 10
-5.1063
 20
-10.6309
 30
0.0
 10
-5.1063
 20
-10.6309
 30
0.0
 10
-4.7018
 20
-10.3973
 30
0.0
 10
-4.7018
 20
-10.3973
 30
0.0
  0
SPLINE
  5
90
330
1F
100
AcDbEntity
  8
Ilustrace
 62
   250
370
    30
100
AcDbSpline
210
0.0
220
0.0
230
1.0
 70
    24
 71
     3
 72
     8
 73
     4
 74
     0
 42
0.0000000001
 43
0.0000000001
 40
0.0
 40
0.0
 40
0.0
 40
0.0
 40
1.0
 40
1.0
 40
1.0
 40
1.0
 10
-5.8681
 20
-10.0965
 30
0.0
 10
-5.8681
 20
-10.0965
 30
0.0
 10
-5.9533
 20
-10.0965
 30
0.0
 10
-5.9533
 20
-10.0965
 30
0.0
  0
SPLINE
  5
91
330
1F
100
AcDbEntity
  8
Ilustrace
 62
   250
370
    30
100
AcDbSpline
210
0.0
220
0.0
230
1.0
 70
    24
 71
     3
 72
     8
 73
     4
 74
     0
 42
0.0000000001
 43
0.0000000001
 40
0.0
 40
0.0
 40
0.0
 40
0.0
 40
1.0
 40
1.0
 40
1.0
 40
1.0
 10
-6.1247
 20
-10.1706
 30
0.0
 10
-6.1247
 20
-10.1706
 30
0.0
 10
-6.2222
 20
-10.1465
 30
0.0
 10
-6.2222
 20
-10.1465
 30
0.0
  0
SPLINE
  5
92
330
1F
100
AcDbEntity
  8
Ilustrace
 62
   250
370
    30
100
AcDbSpline
210
0.0
220
0.0
230
1.0
 70
    24
 71
     3
 72
     8
 73
     4
 74
     0
 42
0.0000000001
 43
0.0000000001
 40
0.0
 40
0.0
 40
0.0
 40
0.0
 40
1.0
 40
1.0
 40
1.0
 40
1.0
 10
-6.1247
 20
-10.1706
 30
0.0
 10
-6.1247
 20
-10.1706
 30
0.0
 10
-6.1984
 20
-10.1525
 30
0.0
 10
-6.1984
 20
-10.1525
 30
0.0
  0
SPLINE
  5
93
330
1F
100
AcDbEntity
  8
Ilustrace
 62
   250
370
    30
100
AcDbSpline
210
0.0
220
0.0
230
1.0
 70
    24
 71
     3
 72
     8
 73
     4
 74
     0
 42
0.0000000001
 43
0.0000000001
 40
0.0
 40
0.0
 40
0.0
 40
0.0
 40
1.0
 40
1.0
 40
1.0
 40
1.0
 10
-6.1247
 20
-10.1706
 30
0.0
 10
-6.1247
 20
-10.1706
 30
0.0
 10
-6.2068
 20
-10.147
 30
0.0
 10
-6.2068
 20
-10.147
 30
0.0
  0
SPLINE
  5
94
330
1F
100
AcDbEntity
  8
Ilustrace
 62
   250
370
    30
100
AcDbSpline
210
0.0
220
0.0
230
1.0
 70
    24
 71
     3
 72
     8
 73
     4
 74
     0
 42
0.0000000001
 43
0.0000000001
 40
0.0
 40
0.0
 40
0.0
 40
0.0
 40
1.0
 40
1.0
 40
1.0
 40
1.0
 10
-6.1247
 20
-10.1706
 30
0.0
 10
-6.1247
 20
-10.1706
 30
0.0
 10
-6.1931
 20
-10.147
 30
0.0
 10
-6.1931
 20
-10.147
 30
0.0
  0
SPLINE
  5
95
330
1F
100
AcDbEntity
  8
Ilustrace
 62
   250
370
    30
100
AcDbSpline
210
0.0
220
0.0
230
1.0
 70
    24
 71
     3
 72
     8
 73
     4
 74
     0
 42
0.0000000001
 43
0.0000000001
 40
0.0
 40
0.0
 40
0.0
 40
0.0
 40
1.0
 40
1.0
 40
1.0
 40
1.0
 10
-6.1247
 20
-10.1706
 30
0.0
 10
-6.1247
 20
-10.1706
 30
0.0
 10
-6.1795
 20
-10.147
 30
0.0
 10
-6.1795
 20
-10.147
 30
0.0
  0
SPLINE
  5
96
330
1F
100
AcDbEntity
  8
Ilustrace
 62
   250
370
    30
100
AcDbSpline
210
0.0
220
0.0
230
1.0
 70
    24
 71
     3
 72
     8
 73
     4
 74
     0
 42
0.0000000001
 43
0.0000000001
 40
0.0
 40
0.0
 40
0.0
 40
0.0
 40
1.0
 40
1.0
 40
1.0
 40
1.0
 10
-5.7895
 20
-10.0965
 30
0.0
 10
-5.7895
 20
-10.0965
 30
0.0
 10
-5.6228
 20
-10.0965
 30
0.0
 10
-5.6228
 20
-10.0965
 30
0.0
  0
SPLINE
  5
97
330
1F
100
AcDbEntity
  8
Ilustrace
 62
   250
370
    30
100
AcDbSpline
210
0.0
220
0.0
230
1.0
 70
    24
 71
     3
 72
     8
 73
     4
 74
     0
 42
0.0000000001
 43
0.0000000001
 40
0.0
 40
0.0
 40
0.0
 40
0.0
 40
1.0
 40
1.0
 40
1.0
 40
1.0
 10
-5.5461
 20
-10.0965
 30
0.0
 10
-5.5461
 20
-10.0965
 30
0.0
 10
-5.3995
 20
-10.0965
 30
0.0
 10
-5.3995
 20
-10.0965
 30
0.0
  0
SPLINE
  5
98
330
1F
100
AcDbEntity
  8
Ilustrace
 62
   250
370
    30
100
AcDbSpline
210
0.0
220
0.0
230
1.0
 70
    24
 71
     3
 72
     8
 73
     4
 74
     0
 42
0.0000000001
 43
0.0000000001
 40
0.0
 40
0.0
 40
0.0
 40
0.0
 40
1.0
 40
1.0
 40
1.0
 40
1.0
 10
-5.1084
 20
-11.1891
 30
0.0
 10
-5.1084
 20
-11.1891
 30
0.0
 10
-7.141
 20
-11.1891
 30
0.0
 10
-7.141
 20
-11.1891
 30
0.0
  0
SPLINE
  5
99
330
1F
100
AcDbEntity
  8
Ilustrace
 62
   250
370
    30
100
AcDbSpline
210
0.0
220
0.0
230
1.0
 70
     8
 71
     3
 72
     8
 73
     4
 74
     0
 42
0.0000000001
 43
0.0000000001
 40
0.0
 40
0.0
 40
0.0
 40
0.0
 40
1.0
 40
1.0
 40
1.0
 40
1.0
 10
-6.4206
 20
-10.1706
 30
0.0
 10
-6.515
 20
-10.147
 30
0.0
 10
-6.6096
 20
-10.1227
 30
0.0
 10
-6.7035
 20
-10.0965
 30
0.0
  0
SPLINE
  5
9A
330
1F
100
AcDbEntity
  8
Ilustrace
 62
   250
370
    30
100
AcDbSpline
210
0.0
220
0.0
230
1.0
 70
     8
 71
     3
 72
     8
 73
     4
 74
     0
 42
0.0000000001
 43
0.0000000001
 40
0.0
 40
0.0
 40
0.0
 40
0.0
 40
1.0
 40
1.0
 40
1.0
 40
1.0
 10
-7.357
 20
-10.0965
 30
0.0
 10
-7.2996
 20
-10.1242
 30
0.0
 10
-7.2417
 20
-10.148
 30
0.0
 10
-7.1821
 20
-10.1706
 30
0.0
  0
SPLINE
  5
9B
330
1F
100
AcDbEntity
  8
Ilustrace
 62
   250
370
    30
100
AcDbSpline
210
0.0
220
0.0
230
1.0
 70
     8
 71
     3
 72
    12
 73
     8
 74
     0
 42
0.0000000001
 43
0.0000000001
 40
0.0
 40
0.0
 40
0.0
 40
0.0
 40
0.3333333333333333
 40
0.3333333333333333
 40
0.3333333333333333
 40
0.3333333333333333
 40
1.0
 40
1.0
 40
1.0
 40
1.0
 10
-7.141
 20
-10.5412
 30
0.0
 10
-6.9189
 20
-10.6085
 30
0.0
 10
-6.6995
 20
-10.6503
 30
0.0
 10
-6.4667
 20
-10.6216
 30
0.0
 10
-6.4667
 20
-10.6216
 30
0.0
 10
-6.391
 20
-10.6123
 30
0.0
 10
-6.3159
 20
-10.5967
 30
0.0
 10
-6.2422
 20
-10.5767
 30
0.0
  0
SPLINE
  5
9C
330
1F
100
AcDbEntity
  8
Ilustrace
 62
   250
370
    30
100
AcDbSpline
210
0.0
220
0.0
230
1.0
 70
     8
 71
     3
 72
    12
 73
     8
 74
     0
 42
0.0000000001
 43
0.0000000001
 40
0.0
 40
0.0
 40
0.0
 40
0.0
 40
0.3333333333333333
 40
0.3333333333333333
 40
0.3333333333333333
 40
0.3333333333333333
 40
1.0
 40
1.0
 40
1.0
 40
1.0
 10
-6.2422
 20
-10.5767
 30
0.0
 10
-6.2422
 20
-10.5767
 30
0.0
 10
-6.1247
 20
-10.5412
 30
0.0
 10
-6.1247
 20
-10.5412
 30
0.0
 10
-6.1247
 20
-10.5412
 30
0.0
 10
-6.1247
 20
-10.5412
 30
0.0
 10
-6.0071
 20
-10.5767
 30
0.0
 10
-6.0071
 20
-10.5767
 30
0.0
  0
SPLINE
  5
9D
330
1F
100
AcDbEntity
  8
Ilustrace
 62
   250
370
    30
100
AcDbSpline
210
0.0
220
0.0
230
1.0
 70
     8
 71
     3
 72
    12
 73
     8
 74
     0
 42
0.0000000001
 43
0.0000000001
 40
0.0
 40
0.0
 40
0.0
 40
0.0
 40
0.3333333333333333
 40
0.3333333333333333
 40
0.3333333333333333
 40
0.3333333333333333
 40
1.0
 40
1.0
 40
1.0
 40
1.0
 10
-6.0071
 20
-10.5767
 30
0.0
 10
-5.9335
 20
-10.5967
 30
0.0
 10
-5.8584
 20
-10.6123
 30
0.0
 10
-5.7828
 20
-10.6216
 30
0.0
 10
-5.7828
 20
-10.6216
 30
0.0
 10
-5.5499
 20
-10.6503
 30
0.0
 10
-5.3306
 20
-10.6085
 30
0.0
 10
-5.1084
 20
-10.5412
 30
0.0
  0
SPLINE
  5
9E
330
1F
100
AcDbEntity
  8
Ilustrace
 62
   250
370
    30
100
AcDbSpline
210
0.0
220
0.0
230
1.0
 70
     8
 71
     3
 72
     8
 73
     4
 74
     0
 42
0.0000000001
 43
0.0000000001
 40
0.0
 40
0.0
 40
0.0
 40
0.0
 40
1.0
 40
1.0
 40
1.0
 40
1.0
 10
-6.9611
 20
-10.0965
 30
0.0
 10
-6.8757
 20
-10.123
 30
0.0
 10
-6.7897
 20
-10.1471
 30
0.0
 10
-6.7035
 20
-10.1706
 30
0.0
  0
SPLINE
  5
9F
330
1F
100
AcDbEntity
  8
Ilustrace
 62
   250
370
    30
100
AcDbSpline
210
0.0
220
0.0
230
1.0
 70
     8
 71
     3
 72
     8
 73
     4
 74
     0
 42
0.0000000001
 43
0.0000000001
 40
0.0
 40
0.0
 40
0.0
 40
0.0
 40
1.0
 40
1.0
 40
1.0
 40
1.0
 10
-6.4206
 20
-10.0965
 30
0.0
 10
-6.3467
 20
-10.1158
 30
0.0
 10
-6.2725
 20
-10.1343
 30
0.0
 10
-6.1984
 20
-10.1525
 30
0.0
  0
SPLINE
  5
A0
330
1F
100
AcDbEntity
  8
Ilustrace
 62
   250
370
    30
100
AcDbSpline
210
0.0
220
0.0
230
1.0
 70
     8
 71
     3
 72
     8
 73
     4
 74
     0
 42
0.0000000001
 43
0.0000000001
 40
0.0
 40
0.0
 40
0.0
 40
0.0
 40
1.0
 40
1.0
 40
1.0
 40
1.0
 10
-6.9596
 20
-10.1706
 30
0.0
 10
-7.0346
 20
-10.1486
 30
0.0
 10
-7.1089
 20
-10.1241
 30
0.0
 10
-7.1821
 20
-10.0965
 30
0.0
  0
SPLINE
  5
A1
330
1F
100
AcDbEntity
  8
Ilustrace
 62
   250
370
    30
100
AcDbSpline
210
0.0
220
0.0
230
1.0
 70
     8
 71
     3
 72
     8
 73
     4
 74
     0
 42
0.0000000001
 43
0.0000000001
 40
0.0
 40
0.0
 40
0.0
 40
0.0
 40
1.0
 40
1.0
 40
1.0
 40
1.0
 10
-7.5397
 20
-10.0965
 30
0.0
 10
-7.5252
 20
-10.127
 30
0.0
 10
-7.5037
 20
-10.1492
 30
0.0
 10
-7.4779
 20
-10.1706
 30
0.0
  0
SPLINE
  5
A2
330
1F
100
AcDbEntity
  8
Ilustrace
 62
   250
370
    30
100
AcDbSpline
210
0.0
220
0.0
230
1.0
 70
    24
 71
     3
 72
     8
 73
     4
 74
     0
 42
0.0000000001
 43
0.0000000001
 40
0.0
 40
0.0
 40
0.0
 40
0.0
 40
1.0
 40
1.0
 40
1.0
 40
1.0
 10
-7.5475
 20
-10.134
 30
0.0
 10
-7.5475
 20
-10.134
 30
0.0
 10
-7.5397
 20
-10.1706
 30
0.0
 10
-7.5397
 20
-10.1706
 30
0.0
  0
SPLINE
  5
A3
330
1F
100
AcDbEntity
  8
Ilustrace
 62
   250
370
    30
100
AcDbSpline
210
0.0
220
0.0
230
1.0
 70
     8
 71
     3
 72
     8
 73
     4
 74
     0
 42
0.0000000001
 43
0.0000000001
 40
0.0
 40
0.0
 40
0.0
 40
0.0
 40
1.0
 40
1.0
 40
1.0
 40
1.0
 10
-7.357
 20
-10.1706
 30
0.0
 10
-7.3998
 20
-10.1482
 30
0.0
 10
-7.4394
 20
-10.1255
 30
0.0
 10
-7.4779
 20
-10.0965
 30
0.0
  0
SPLINE
  5
A4
330
1F
100
AcDbEntity
  8
Ilustrace
 62
   250
370
    30
100
AcDbSpline
210
0.0
220
0.0
230
1.0
 70
     8
 71
     3
 72
    20
 73
    16
 74
     0
 42
0.0000000001
 43
0.0000000001
 40
0.0
 40
0.0
 40
0.0
 40
0.0
 40
0.2
 40
0.2
 40
0.2
 40
0.2
 40
0.4
 40
0.4
 40
0.4
 40
0.4
 40
0.6
 40
0.6
 40
0.6
 40
0.6
 40
1.0
 40
1.0
 40
1.0
 40
1.0
 10
-5.1084
 20
-11.0984
 30
0.0
 10
-5.2775
 20
-11.1502
 30
0.0
 10
-5.4396
 20
-11.1825
 30
0.0
 10
-5.6165
 20
-11.1891
 30
0.0
 10
-5.6165
 20
-11.1891
 30
0.0
 10
-5.7946
 20
-11.1825
 30
0.0
 10
-5.9543
 20
-11.1505
 30
0.0
 10
-6.1247
 20
-11.0984
 30
0.0
 10
-6.1247
 20
-11.0984
 30
0.0
 10
-6.295
 20
-11.1505
 30
0.0
 10
-6.4549
 20
-11.1825
 30
0.0
 10
-6.6329
 20
-11.1891
 30
0.0
 10
-6.6329
 20
-11.1891
 30
0.0
 10
-6.8099
 20
-11.1825
 30
0.0
 10
-6.9719
 20
-11.1502
 30
0.0
 10
-7.141
 20
-11.0984
 30
0.0
  0
SPLINE
  5
A5
330
1F
100
AcDbEntity
  8
Ilustrace
 62
   250
370
    30
100
AcDbSpline
210
0.0
220
0.0
230
1.0
 70
     8
 71
     3
 72
     8
 73
     4
 74
     0
 42
0.0000000001
 43
0.0000000001
 40
0.0
 40
0.0
 40
0.0
 40
0.0
 40
1.0
 40
1.0
 40
1.0
 40
1.0
 10
-7.5397
 20
-10.0965
 30
0.0
 10
-7.5433
 20
-10.109
 30
0.0
 10
-7.5475
 20
-10.121
 30
0.0
 10
-7.5475
 20
-10.134
 30
0.0
  0
SPLINE
  5
A6
330
1F
100
AcDbEntity
  8
Ilustrace
 62
   250
370
    30
100
AcDbSpline
210
0.0
220
0.0
230
1.0
 70
    24
 71
     3
 72
     8
 73
     4
 74
     0
 42
0.0000000001
 43
0.0000000001
 40
0.0
 40
0.0
 40
0.0
 40
0.0
 40
1.0
 40
1.0
 40
1.0
 40
1.0
 10
-7.5475
 20
-10.134
 30
0.0
 10
-7.5475
 20
-10.134
 30
0.0
 10
-7.5475
 20
-10.3973
 30
0.0
 10
-7.5475
 20
-10.3973
 30
0.0
  0
SPLINE
  5
A7
330
1F
100
AcDbEntity
  8
Ilustrace
 62
   250
370
    30
100
AcDbSpline
210
0.0
220
0.0
230
1.0
 70
    24
 71
     3
 72
     8
 73
     4
 74
     0
 42
0.0000000001
 43
0.0000000001
 40
0.0
 40
0.0
 40
0.0
 40
0.0
 40
1.0
 40
1.0
 40
1.0
 40
1.0
 10
-7.141
 20
-11.1891
 30
0.0
 10
-7.141
 20
-10.9747
 30
0.0
 10
-7.141
 20
-10.756
 30
0.0
 10
-7.141
 20
-10.5412
 30
0.0
  0
SPLINE
  5
A8
330
1F
100
AcDbEntity
  8
Ilustrace
 62
   250
370
    30
100
AcDbSpline
210
0.0
220
0.0
230
1.0
 70
     8
 71
     3
 72
    12
 73
     8
 74
     0
 42
0.0000000001
 43
0.0000000001
 40
0.0
 40
0.0
 40
0.0
 40
0.0
 40
0.3333333333333333
 40
0.3333333333333333
 40
0.3333333333333333
 40
0.3333333333333333
 40
1.0
 40
1.0
 40
1.0
 40
1.0
 10
-5.8289
 20
-10.1706
 30
0.0
 10
-5.8289
 20
-10.1706
 30
0.0
 10
-6.0604
 20
-10.113
 30
0.0
 10
-6.0604
 20
-10.113
 30
0.0
 10
-6.0604
 20
-10.113
 30
0.0
 10
-6.0604
 20
-10.113
 30
0.0
 10
-6.1247
 20
-10.0965
 30
0.0
 10
-6.1247
 20
-10.0965
 30
0.0
  0
SPLINE
  5
A9
330
1F
100
AcDbEntity
  8
Ilustrace
 62
   250
370
    30
100
AcDbSpline
210
0.0
220
0.0
230
1.0
 70
     8
 71
     3
 72
     8
 73
     4
 74
     0
 42
0.0000000001
 43
0.0000000001
 40
0.0
 40
0.0
 40
0.0
 40
0.0
 40
1.0
 40
1.0
 40
1.0
 40
1.0
 10
-5.5461
 20
-10.0965
 30
0.0
 10
-5.46
 20
-10.121
 30
0.0
 10
-5.374
 20
-10.1453
 30
0.0
 10
-5.2883
 20
-10.1706
 30
0.0
  0
SPLINE
  5
AA
330
1F
100
AcDbEntity
  8
Ilustrace
 62
   250
370
    30
100
AcDbSpline
210
0.0
220
0.0
230
1.0
 70
     8
 71
     3
 72
     8
 73
     4
 74
     0
 42
0.0000000001
 43
0.0000000001
 40
0.0
 40
0.0
 40
0.0
 40
0.0
 40
1.0
 40
1.0
 40
1.0
 40
1.0
 10
-4.7096
 20
-10.0965
 30
0.0
 10
-4.7046
 20
-10.115
 30
0.0
 10
-4.7027
 20
-10.1272
 30
0.0
 10
-4.7027
 20
-10.1465
 30
0.0
  0
SPLINE
  5
AB
330
1F
100
AcDbEntity
  8
Ilustrace
 62
   250
370
    30
100
AcDbSpline
210
0.0
220
0.0
230
1.0
 70
     8
 71
     3
 72
     8
 73
     4
 74
     0
 42
0.0000000001
 43
0.0000000001
 40
0.0
 40
0.0
 40
0.0
 40
0.0
 40
1.0
 40
1.0
 40
1.0
 40
1.0
 10
-4.7714
 20
-10.0965
 30
0.0
 10
-4.7464
 20
-10.1183
 30
0.0
 10
-4.7246
 20
-10.1407
 30
0.0
 10
-4.7096
 20
-10.1706
 30
0.0
  0
SPLINE
  5
AC
330
1F
100
AcDbEntity
  8
Ilustrace
 62
   250
370
    30
100
AcDbSpline
210
0.0
220
0.0
230
1.0
 70
     8
 71
     3
 72
     8
 73
     4
 74
     0
 42
0.0000000001
 43
0.0000000001
 40
0.0
 40
0.0
 40
0.0
 40
0.0
 40
1.0
 40
1.0
 40
1.0
 40
1.0
 10
-4.8925
 20
-10.0965
 30
0.0
 10
-4.8503
 20
-10.1188
 30
0.0
 10
-4.8095
 20
-10.1419
 30
0.0
 10
-4.7714
 20
-10.1706
 30
0.0
  0
SPLINE
  5
AD
330
1F
100
AcDbEntity
  8
Ilustrace
 62
   250
370
    30
100
AcDbSpline
210
0.0
220
0.0
230
1.0
 70
     8
 71
     3
 72
     8
 73
     4
 74
     0
 42
0.0000000001
 43
0.0000000001
 40
0.0
 40
0.0
 40
0.0
 40
0.0
 40
1.0
 40
1.0
 40
1.0
 40
1.0
 10
-4.8925
 20
-10.1706
 30
0.0
 10
-4.9498
 20
-10.1434
 30
0.0
 10
-5.0082
 20
-10.1195
 30
0.0
 10
-5.0674
 20
-10.0965
 30
0.0
  0
SPLINE
  5
AE
330
1F
100
AcDbEntity
  8
Ilustrace
 62
   250
370
    30
100
AcDbSpline
210
0.0
220
0.0
230
1.0
 70
     8
 71
     3
 72
     8
 73
     4
 74
     0
 42
0.0000000001
 43
0.0000000001
 40
0.0
 40
0.0
 40
0.0
 40
0.0
 40
1.0
 40
1.0
 40
1.0
 40
1.0
 10
-5.8289
 20
-10.0965
 30
0.0
 10
-5.7346
 20
-10.1211
 30
0.0
 10
-5.6402
 20
-10.1455
 30
0.0
 10
-5.5461
 20
-10.1706
 30
0.0
  0
SPLINE
  5
AF
330
1F
100
AcDbEntity
  8
Ilustrace
 62
   250
370
    30
100
AcDbSpline
210
0.0
220
0.0
230
1.0
 70
    24
 71
     3
 72
     8
 73
     4
 74
     0
 42
0.0000000001
 43
0.0000000001
 40
0.0
 40
0.0
 40
0.0
 40
0.0
 40
1.0
 40
1.0
 40
1.0
 40
1.0
 10
-5.1084
 20
-10.5412
 30
0.0
 10
-5.1084
 20
-10.756
 30
0.0
 10
-5.1084
 20
-10.9747
 30
0.0
 10
-5.1084
 20
-11.1891
 30
0.0
  0
SPLINE
  5
B0
330
1F
100
AcDbEntity
  8
Ilustrace
 62
   250
370
    30
100
AcDbSpline
210
0.0
220
0.0
230
1.0
 70
     8
 71
     3
 72
     8
 73
     4
 74
     0
 42
0.0000000001
 43
0.0000000001
 40
0.0
 40
0.0
 40
0.0
 40
0.0
 40
1.0
 40
1.0
 40
1.0
 40
1.0
 10
-5.0674
 20
-10.1706
 30
0.0
 10
-5.1405
 20
-10.1444
 30
0.0
 10
-5.2142
 20
-10.1202
 30
0.0
 10
-5.2883
 20
-10.0965
 30
0.0
  0
SPLINE
  5
B1
330
1F
100
AcDbEntity
  8
Ilustrace
 62
   250
370
    30
100
AcDbSpline
210
0.0
220
0.0
230
1.0
 70
    24
 71
     3
 72
     8
 73
     4
 74
     0
 42
0.0000000001
 43
0.0000000001
 40
0.0
 40
0.0
 40
0.0
 40
0.0
 40
1.0
 40
1.0
 40
1.0
 40
1.0
 10
1.0748
 20
-10.169
 30
0.0
 10
1.0748
 20
-10.169
 30
0.0
 10
0.792
 20
-10.0965
 30
0.0
 10
0.792
 20
-10.0965
 30
0.0
  0
SPLINE
  5
B2
330
1F
100
AcDbEntity
  8
Ilustrace
 62
   250
370
    30
100
AcDbSpline
210
0.0
220
0.0
230
1.0
 70
    24
 71
     3
 72
     8
 73
     4
 74
     0
 42
0.0000000001
 43
0.0000000001
 40
0.0
 40
0.0
 40
0.0
 40
0.0
 40
1.0
 40
1.0
 40
1.0
 40
1.0
 10
0.1384
 20
-10.0965
 30
0.0
 10
0.1384
 20
-10.0965
 30
0.0
 10
0.3133
 20
-10.162
 30
0.0
 10
0.3133
 20
-10.162
 30
0.0
  0
SPLINE
  5
B3
330
1F
100
AcDbEntity
  8
Ilustrace
 62
   250
370
    30
100
AcDbSpline
210
0.0
220
0.0
230
1.0
 70
    24
 71
     3
 72
     8
 73
     4
 74
     0
 42
0.0000000001
 43
0.0000000001
 40
0.0
 40
0.0
 40
0.0
 40
0.0
 40
1.0
 40
1.0
 40
1.0
 40
1.0
 10
0.5343
 20
-10.1651
 30
0.0
 10
0.5343
 20
-10.1651
 30
0.0
 10
0.3133
 20
-10.0965
 30
0.0
 10
0.3133
 20
-10.0965
 30
0.0
  0
SPLINE
  5
B4
330
1F
100
AcDbEntity
  8
Ilustrace
 62
   250
370
    30
100
AcDbSpline
210
0.0
220
0.0
230
1.0
 70
    24
 71
     3
 72
     8
 73
     4
 74
     0
 42
0.0000000001
 43
0.0000000001
 40
0.0
 40
0.0
 40
0.0
 40
0.0
 40
1.0
 40
1.0
 40
1.0
 40
1.0
 10
0.792
 20
-10.1673
 30
0.0
 10
0.792
 20
-10.1673
 30
0.0
 10
0.5343
 20
-10.0965
 30
0.0
 10
0.5343
 20
-10.0965
 30
0.0
  0
SPLINE
  5
B5
330
1F
100
AcDbEntity
  8
Ilustrace
 62
   250
370
    30
100
AcDbSpline
210
0.0
220
0.0
230
1.0
 70
    24
 71
     3
 72
     8
 73
     4
 74
     0
 42
0.0000000001
 43
0.0000000001
 40
0.0
 40
0.0
 40
0.0
 40
0.0
 40
1.0
 40
1.0
 40
1.0
 40
1.0
 10
-0.0443
 20
-10.0965
 30
0.0
 10
-0.0443
 20
-10.0965
 30
0.0
 10
0.0171
 20
-10.1465
 30
0.0
 10
0.0171
 20
-10.1465
 30
0.0
  0
SPLINE
  5
B6
330
1F
100
AcDbEntity
  8
Ilustrace
 62
   250
370
    30
100
AcDbSpline
210
0.0
220
0.0
230
1.0
 70
    24
 71
     3
 72
     8
 73
     4
 74
     0
 42
0.0000000001
 43
0.0000000001
 40
0.0
 40
0.0
 40
0.0
 40
0.0
 40
1.0
 40
1.0
 40
1.0
 40
1.0
 10
0.1384
 20
-10.1573
 30
0.0
 10
0.1384
 20
-10.1573
 30
0.0
 10
0.0175
 20
-10.0965
 30
0.0
 10
0.0175
 20
-10.0965
 30
0.0
  0
SPLINE
  5
B7
330
1F
100
AcDbEntity
  8
Ilustrace
 62
   250
370
    30
100
AcDbSpline
210
0.0
220
0.0
230
1.0
 70
    24
 71
     3
 72
     8
 73
     4
 74
     0
 42
0.0000000001
 43
0.0000000001
 40
0.0
 40
0.0
 40
0.0
 40
0.0
 40
1.0
 40
1.0
 40
1.0
 40
1.0
 10
1.0748
 20
-10.0965
 30
0.0
 10
1.0748
 20
-10.0965
 30
0.0
 10
1.3706
 20
-10.1706
 30
0.0
 10
1.3706
 20
-10.1706
 30
0.0
  0
SPLINE
  5
B8
330
1F
100
AcDbEntity
  8
Ilustrace
 62
   250
370
    30
100
AcDbSpline
210
0.0
220
0.0
230
1.0
 70
    24
 71
     3
 72
     8
 73
     4
 74
     0
 42
0.0000000001
 43
0.0000000001
 40
0.0
 40
0.0
 40
0.0
 40
0.0
 40
1.0
 40
1.0
 40
1.0
 40
1.0
 10
1.9494
 20
-10.0965
 30
0.0
 10
1.9494
 20
-10.0965
 30
0.0
 10
2.1106
 20
-10.1465
 30
0.0
 10
2.1106
 20
-10.1465
 30
0.0
  0
SPLINE
  5
B9
330
1F
100
AcDbEntity
  8
Ilustrace
 62
   250
370
    30
100
AcDbSpline
210
0.0
220
0.0
230
1.0
 70
    24
 71
     3
 72
     8
 73
     4
 74
     0
 42
0.0000000001
 43
0.0000000001
 40
0.0
 40
0.0
 40
0.0
 40
0.0
 40
1.0
 40
1.0
 40
1.0
 40
1.0
 10
2.6029
 20
-10.0965
 30
0.0
 10
2.6029
 20
-10.0965
 30
0.0
 10
2.6645
 20
-10.1465
 30
0.0
 10
2.6645
 20
-10.1465
 30
0.0
  0
SPLINE
  5
BA
330
1F
100
AcDbEntity
  8
Ilustrace
 62
   250
370
    30
100
AcDbSpline
210
0.0
220
0.0
230
1.0
 70
    24
 71
     3
 72
     8
 73
     4
 74
     0
 42
0.0000000001
 43
0.0000000001
 40
0.0
 40
0.0
 40
0.0
 40
0.0
 40
1.0
 40
1.0
 40
1.0
 40
1.0
 10
2.6029
 20
-10.1706
 30
0.0
 10
2.6029
 20
-10.1706
 30
0.0
 10
2.6029
 20
-10.3973
 30
0.0
 10
2.6029
 20
-10.3973
 30
0.0
  0
SPLINE
  5
BB
330
1F
100
AcDbEntity
  8
Ilustrace
 62
   250
370
    30
100
AcDbSpline
210
0.0
220
0.0
230
1.0
 70
    24
 71
     3
 72
     8
 73
     4
 74
     0
 42
0.0000000001
 43
0.0000000001
 40
0.0
 40
0.0
 40
0.0
 40
0.0
 40
1.0
 40
1.0
 40
1.0
 40
1.0
 10
2.387
 20
-10.5412
 30
0.0
 10
2.387
 20
-10.5412
 30
0.0
 10
2.6029
 20
-10.3973
 30
0.0
 10
2.6029
 20
-10.3973
 30
0.0
  0
SPLINE
  5
BC
330
1F
100
AcDbEntity
  8
Ilustrace
 62
   250
370
    30
100
AcDbSpline
210
0.0
220
0.0
230
1.0
 70
    24
 71
     3
 72
     8
 73
     4
 74
     0
 42
0.0000000001
 43
0.0000000001
 40
0.0
 40
0.0
 40
0.0
 40
0.0
 40
1.0
 40
1.0
 40
1.0
 40
1.0
 10
2.5277
 20
-10.1465
 30
0.0
 10
2.5277
 20
-10.1465
 30
0.0
 10
2.4281
 20
-10.0965
 30
0.0
 10
2.4281
 20
-10.0965
 30
0.0
  0
SPLINE
  5
BD
330
1F
100
AcDbEntity
  8
Ilustrace
 62
   250
370
    30
100
AcDbSpline
210
0.0
220
0.0
230
1.0
 70
    24
 71
     3
 72
     8
 73
     4
 74
     0
 42
0.0000000001
 43
0.0000000001
 40
0.0
 40
0.0
 40
0.0
 40
0.0
 40
1.0
 40
1.0
 40
1.0
 40
1.0
 10
1.8484
 20
-10.1465
 30
0.0
 10
1.8484
 20
-10.1465
 30
0.0
 10
1.6665
 20
-10.0965
 30
0.0
 10
1.6665
 20
-10.0965
 30
0.0
  0
SPLINE
  5
BE
330
1F
100
AcDbEntity
  8
Ilustrace
 62
   250
370
    30
100
AcDbSpline
210
0.0
220
0.0
230
1.0
 70
    24
 71
     3
 72
     8
 73
     4
 74
     0
 42
0.0000000001
 43
0.0000000001
 40
0.0
 40
0.0
 40
0.0
 40
0.0
 40
1.0
 40
1.0
 40
1.0
 40
1.0
 10
2.3403
 20
-10.1465
 30
0.0
 10
2.3403
 20
-10.1465
 30
0.0
 10
2.2069
 20
-10.0965
 30
0.0
 10
2.2069
 20
-10.0965
 30
0.0
  0
SPLINE
  5
BF
330
1F
100
AcDbEntity
  8
Ilustrace
 62
   250
370
    30
100
AcDbSpline
210
0.0
220
0.0
230
1.0
 70
    24
 71
     3
 72
     8
 73
     4
 74
     0
 42
0.0000000001
 43
0.0000000001
 40
0.0
 40
0.0
 40
0.0
 40
0.0
 40
1.0
 40
1.0
 40
1.0
 40
1.0
 10
2.7239
 20
-10.1706
 30
0.0
 10
2.7239
 20
-10.1706
 30
0.0
 10
2.7239
 20
-10.0965
 30
0.0
 10
2.7239
 20
-10.0965
 30
0.0
  0
SPLINE
  5
C0
330
1F
100
AcDbEntity
  8
Ilustrace
 62
   250
370
    30
100
AcDbSpline
210
0.0
220
0.0
230
1.0
 70
    24
 71
     3
 72
     8
 73
     4
 74
     0
 42
0.0000000001
 43
0.0000000001
 40
0.0
 40
0.0
 40
0.0
 40
0.0
 40
1.0
 40
1.0
 40
1.0
 40
1.0
 10
-0.0521
 20
-10.3973
 30
0.0
 10
-0.0521
 20
-10.3973
 30
0.0
 10
2.7936
 20
-10.3973
 30
0.0
 10
2.7936
 20
-10.3973
 30
0.0
  0
SPLINE
  5
C1
330
1F
100
AcDbEntity
  8
Ilustrace
 62
   250
370
    30
100
AcDbSpline
210
0.0
220
0.0
230
1.0
 70
    24
 71
     3
 72
     8
 73
     4
 74
     0
 42
0.0000000001
 43
0.0000000001
 40
0.0
 40
0.0
 40
0.0
 40
0.0
 40
1.0
 40
1.0
 40
1.0
 40
1.0
 10
2.6029
 20
-10.1706
 30
0.0
 10
2.6029
 20
-10.1706
 30
0.0
 10
2.6029
 20
-10.0965
 30
0.0
 10
2.6029
 20
-10.0965
 30
0.0
  0
SPLINE
  5
C2
330
1F
100
AcDbEntity
  8
Ilustrace
 62
   250
370
    30
100
AcDbSpline
210
0.0
220
0.0
230
1.0
 70
    24
 71
     3
 72
     8
 73
     4
 74
     0
 42
0.0000000001
 43
0.0000000001
 40
0.0
 40
0.0
 40
0.0
 40
0.0
 40
1.0
 40
1.0
 40
1.0
 40
1.0
 10
2.4281
 20
-10.0965
 30
0.0
 10
2.4281
 20
-10.0965
 30
0.0
 10
2.4281
 20
-10.1706
 30
0.0
 10
2.4281
 20
-10.1706
 30
0.0
  0
SPLINE
  5
C3
330
1F
100
AcDbEntity
  8
Ilustrace
 62
   250
370
    30
100
AcDbSpline
210
0.0
220
0.0
230
1.0
 70
    24
 71
     3
 72
     8
 73
     4
 74
     0
 42
0.0000000001
 43
0.0000000001
 40
0.0
 40
0.0
 40
0.0
 40
0.0
 40
1.0
 40
1.0
 40
1.0
 40
1.0
 10
2.2069
 20
-10.1706
 30
0.0
 10
2.2069
 20
-10.1706
 30
0.0
 10
2.2069
 20
-10.0965
 30
0.0
 10
2.2069
 20
-10.0965
 30
0.0
  0
SPLINE
  5
C4
330
1F
100
AcDbEntity
  8
Ilustrace
 62
   250
370
    30
100
AcDbSpline
210
0.0
220
0.0
230
1.0
 70
    24
 71
     3
 72
     8
 73
     4
 74
     0
 42
0.0000000001
 43
0.0000000001
 40
0.0
 40
0.0
 40
0.0
 40
0.0
 40
1.0
 40
1.0
 40
1.0
 40
1.0
 10
1.9494
 20
-10.0965
 30
0.0
 10
1.9494
 20
-10.0965
 30
0.0
 10
1.9494
 20
-10.1706
 30
0.0
 10
1.9494
 20
-10.1706
 30
0.0
  0
SPLINE
  5
C5
330
1F
100
AcDbEntity
  8
Ilustrace
 62
   250
370
    30
100
AcDbSpline
210
0.0
220
0.0
230
1.0
 70
    24
 71
     3
 72
     8
 73
     4
 74
     0
 42
0.0000000001
 43
0.0000000001
 40
0.0
 40
0.0
 40
0.0
 40
0.0
 40
1.0
 40
1.0
 40
1.0
 40
1.0
 10
1.6665
 20
-10.1706
 30
0.0
 10
1.6665
 20
-10.1706
 30
0.0
 10
1.6665
 20
-10.0965
 30
0.0
 10
1.6665
 20
-10.0965
 30
0.0
  0
SPLINE
  5
C6
330
1F
100
AcDbEntity
  8
Ilustrace
 62
   250
370
    30
100
AcDbSpline
210
0.0
220
0.0
230
1.0
 70
    24
 71
     3
 72
     8
 73
     4
 74
     0
 42
0.0000000001
 43
0.0000000001
 40
0.0
 40
0.0
 40
0.0
 40
0.0
 40
1.0
 40
1.0
 40
1.0
 40
1.0
 10
1.3706
 20
-11.0984
 30
0.0
 10
1.3706
 20
-11.0984
 30
0.0
 10
1.3706
 20
-10.5412
 30
0.0
 10
1.3706
 20
-10.5412
 30
0.0
  0
SPLINE
  5
C7
330
1F
100
AcDbEntity
  8
Ilustrace
 62
   250
370
    30
100
AcDbSpline
210
0.0
220
0.0
230
1.0
 70
    24
 71
     3
 72
     8
 73
     4
 74
     0
 42
0.0000000001
 43
0.0000000001
 40
0.0
 40
0.0
 40
0.0
 40
0.0
 40
1.0
 40
1.0
 40
1.0
 40
1.0
 10
1.0808
 20
-10.1706
 30
0.0
 10
1.0808
 20
-10.1706
 30
0.0
 10
1.0772
 20
-10.1706
 30
0.0
 10
1.0772
 20
-10.1706
 30
0.0
  0
SPLINE
  5
C8
330
1F
100
AcDbEntity
  8
Ilustrace
 62
   250
370
    30
100
AcDbSpline
210
0.0
220
0.0
230
1.0
 70
    24
 71
     3
 72
     8
 73
     4
 74
     0
 42
0.0000000001
 43
0.0000000001
 40
0.0
 40
0.0
 40
0.0
 40
0.0
 40
1.0
 40
1.0
 40
1.0
 40
1.0
 10
0.4537
 20
-10.0965
 30
0.0
 10
0.4537
 20
-10.0965
 30
0.0
 10
0.5343
 20
-10.0965
 30
0.0
 10
0.5343
 20
-10.0965
 30
0.0
  0
SPLINE
  5
C9
330
1F
100
AcDbEntity
  8
Ilustrace
 62
   250
370
    30
100
AcDbSpline
210
0.0
220
0.0
230
1.0
 70
    24
 71
     3
 72
     8
 73
     4
 74
     0
 42
0.0000000001
 43
0.0000000001
 40
0.0
 40
0.0
 40
0.0
 40
0.0
 40
1.0
 40
1.0
 40
1.0
 40
1.0
 10
1.0748
 20
-10.1706
 30
0.0
 10
1.0748
 20
-10.1706
 30
0.0
 10
1.0748
 20
-10.0965
 30
0.0
 10
1.0748
 20
-10.0965
 30
0.0
  0
SPLINE
  5
CA
330
1F
100
AcDbEntity
  8
Ilustrace
 62
   250
370
    30
100
AcDbSpline
210
0.0
220
0.0
230
1.0
 70
    24
 71
     3
 72
     8
 73
     4
 74
     0
 42
0.0000000001
 43
0.0000000001
 40
0.0
 40
0.0
 40
0.0
 40
0.0
 40
1.0
 40
1.0
 40
1.0
 40
1.0
 10
1.1993
 20
-10.0965
 30
0.0
 10
1.1993
 20
-10.0965
 30
0.0
 10
1.1142
 20
-10.0965
 30
0.0
 10
1.1142
 20
-10.0965
 30
0.0
  0
SPLINE
  5
CB
330
1F
100
AcDbEntity
  8
Ilustrace
 62
   250
370
    30
100
AcDbSpline
210
0.0
220
0.0
230
1.0
 70
    24
 71
     3
 72
     8
 73
     4
 74
     0
 42
0.0000000001
 43
0.0000000001
 40
0.0
 40
0.0
 40
0.0
 40
0.0
 40
1.0
 40
1.0
 40
1.0
 40
1.0
 10
0.551
 20
-10.1706
 30
0.0
 10
0.551
 20
-10.1706
 30
0.0
 10
0.5358
 20
-10.1706
 30
0.0
 10
0.5358
 20
-10.1706
 30
0.0
  0
SPLINE
  5
CC
330
1F
100
AcDbEntity
  8
Ilustrace
 62
   250
370
    30
100
AcDbSpline
210
0.0
220
0.0
230
1.0
 70
    24
 71
     3
 72
     8
 73
     4
 74
     0
 42
0.0000000001
 43
0.0000000001
 40
0.0
 40
0.0
 40
0.0
 40
0.0
 40
1.0
 40
1.0
 40
1.0
 40
1.0
 10
-0.0161
 20
-10.1706
 30
0.0
 10
-0.0161
 20
-10.1706
 30
0.0
 10
-0.0443
 20
-10.1706
 30
0.0
 10
-0.0443
 20
-10.1706
 30
0.0
  0
SPLINE
  5
CD
330
1F
100
AcDbEntity
  8
Ilustrace
 62
   250
370
    30
100
AcDbSpline
210
0.0
220
0.0
230
1.0
 70
    24
 71
     3
 72
     8
 73
     4
 74
     0
 42
0.0000000001
 43
0.0000000001
 40
0.0
 40
0.0
 40
0.0
 40
0.0
 40
1.0
 40
1.0
 40
1.0
 40
1.0
 10
0.3022
 20
-10.0965
 30
0.0
 10
0.3022
 20
-10.0965
 30
0.0
 10
0.3133
 20
-10.0965
 30
0.0
 10
0.3133
 20
-10.0965
 30
0.0
  0
SPLINE
  5
CE
330
1F
100
AcDbEntity
  8
Ilustrace
 62
   250
370
    30
100
AcDbSpline
210
0.0
220
0.0
230
1.0
 70
    24
 71
     3
 72
     8
 73
     4
 74
     0
 42
0.0000000001
 43
0.0000000001
 40
0.0
 40
0.0
 40
0.0
 40
0.0
 40
1.0
 40
1.0
 40
1.0
 40
1.0
 10
0.3133
 20
-10.1706
 30
0.0
 10
0.3133
 20
-10.1706
 30
0.0
 10
0.3133
 20
-10.0965
 30
0.0
 10
0.3133
 20
-10.0965
 30
0.0
  0
SPLINE
  5
CF
330
1F
100
AcDbEntity
  8
Ilustrace
 62
   250
370
    30
100
AcDbSpline
210
0.0
220
0.0
230
1.0
 70
    24
 71
     3
 72
     8
 73
     4
 74
     0
 42
0.0000000001
 43
0.0000000001
 40
0.0
 40
0.0
 40
0.0
 40
0.0
 40
1.0
 40
1.0
 40
1.0
 40
1.0
 10
0.1384
 20
-10.1706
 30
0.0
 10
0.1384
 20
-10.1706
 30
0.0
 10
0.1384
 20
-10.0965
 30
0.0
 10
0.1384
 20
-10.0965
 30
0.0
  0
SPLINE
  5
D0
330
1F
100
AcDbEntity
  8
Ilustrace
 62
   250
370
    30
100
AcDbSpline
210
0.0
220
0.0
230
1.0
 70
    24
 71
     3
 72
     8
 73
     4
 74
     0
 42
0.0000000001
 43
0.0000000001
 40
0.0
 40
0.0
 40
0.0
 40
0.0
 40
1.0
 40
1.0
 40
1.0
 40
1.0
 10
0.0175
 20
-10.1706
 30
0.0
 10
0.0175
 20
-10.1706
 30
0.0
 10
0.0175
 20
-10.0965
 30
0.0
 10
0.0175
 20
-10.0965
 30
0.0
  0
SPLINE
  5
D1
330
1F
100
AcDbEntity
  8
Ilustrace
 62
   250
370
    30
100
AcDbSpline
210
0.0
220
0.0
230
1.0
 70
    24
 71
     3
 72
     8
 73
     4
 74
     0
 42
0.0000000001
 43
0.0000000001
 40
0.0
 40
0.0
 40
0.0
 40
0.0
 40
1.0
 40
1.0
 40
1.0
 40
1.0
 10
-0.0521
 20
-10.3973
 30
0.0
 10
-0.0521
 20
-10.3973
 30
0.0
 10
0.3524
 20
-10.6309
 30
0.0
 10
0.3524
 20
-10.6309
 30
0.0
  0
SPLINE
  5
D2
330
1F
100
AcDbEntity
  8
Ilustrace
 62
   250
370
    30
100
AcDbSpline
210
0.0
220
0.0
230
1.0
 70
    24
 71
     3
 72
     8
 73
     4
 74
     0
 42
0.0000000001
 43
0.0000000001
 40
0.0
 40
0.0
 40
0.0
 40
0.0
 40
1.0
 40
1.0
 40
1.0
 40
1.0
 10
0.5343
 20
-10.0965
 30
0.0
 10
0.5343
 20
-10.0965
 30
0.0
 10
0.5343
 20
-10.1706
 30
0.0
 10
0.5343
 20
-10.1706
 30
0.0
  0
SPLINE
  5
D3
330
1F
100
AcDbEntity
  8
Ilustrace
 62
   250
370
    30
100
AcDbSpline
210
0.0
220
0.0
230
1.0
 70
    24
 71
     3
 72
     8
 73
     4
 74
     0
 42
0.0000000001
 43
0.0000000001
 40
0.0
 40
0.0
 40
0.0
 40
0.0
 40
1.0
 40
1.0
 40
1.0
 40
1.0
 10
0.3345
 20
-10.1706
 30
0.0
 10
0.3345
 20
-10.1706
 30
0.0
 10
0.3151
 20
-10.1706
 30
0.0
 10
0.3151
 20
-10.1706
 30
0.0
  0
SPLINE
  5
D4
330
1F
100
AcDbEntity
  8
Ilustrace
 62
   250
370
    30
100
AcDbSpline
210
0.0
220
0.0
230
1.0
 70
    24
 71
     3
 72
     8
 73
     4
 74
     0
 42
0.0000000001
 43
0.0000000001
 40
0.0
 40
0.0
 40
0.0
 40
0.0
 40
1.0
 40
1.0
 40
1.0
 40
1.0
 10
0.1632
 20
-10.1706
 30
0.0
 10
0.1632
 20
-10.1706
 30
0.0
 10
0.1406
 20
-10.1706
 30
0.0
 10
0.1406
 20
-10.1706
 30
0.0
  0
SPLINE
  5
D5
330
1F
100
AcDbEntity
  8
Ilustrace
 62
   250
370
    30
100
AcDbSpline
210
0.0
220
0.0
230
1.0
 70
    24
 71
     3
 72
     8
 73
     4
 74
     0
 42
0.0000000001
 43
0.0000000001
 40
0.0
 40
0.0
 40
0.0
 40
0.0
 40
1.0
 40
1.0
 40
1.0
 40
1.0
 10
0.0445
 20
-10.1706
 30
0.0
 10
0.0445
 20
-10.1706
 30
0.0
 10
0.02
 20
-10.1706
 30
0.0
 10
0.02
 20
-10.1706
 30
0.0
  0
SPLINE
  5
D6
330
1F
100
AcDbEntity
  8
Ilustrace
 62
   250
370
    30
100
AcDbSpline
210
0.0
220
0.0
230
1.0
 70
    24
 71
     3
 72
     8
 73
     4
 74
     0
 42
0.0000000001
 43
0.0000000001
 40
0.0
 40
0.0
 40
0.0
 40
0.0
 40
1.0
 40
1.0
 40
1.0
 40
1.0
 10
0.792
 20
-10.0965
 30
0.0
 10
0.792
 20
-10.0965
 30
0.0
 10
0.6454
 20
-10.0965
 30
0.0
 10
0.6454
 20
-10.0965
 30
0.0
  0
SPLINE
  5
D7
330
1F
100
AcDbEntity
  8
Ilustrace
 62
   250
370
    30
100
AcDbSpline
210
0.0
220
0.0
230
1.0
 70
    24
 71
     3
 72
     8
 73
     4
 74
     0
 42
0.0000000001
 43
0.0000000001
 40
0.0
 40
0.0
 40
0.0
 40
0.0
 40
1.0
 40
1.0
 40
1.0
 40
1.0
 10
0.8689
 20
-10.0965
 30
0.0
 10
0.8689
 20
-10.0965
 30
0.0
 10
1.0354
 20
-10.0965
 30
0.0
 10
1.0354
 20
-10.0965
 30
0.0
  0
SPLINE
  5
D8
330
1F
100
AcDbEntity
  8
Ilustrace
 62
   250
370
    30
100
AcDbSpline
210
0.0
220
0.0
230
1.0
 70
    24
 71
     3
 72
     8
 73
     4
 74
     0
 42
0.0000000001
 43
0.0000000001
 40
0.0
 40
0.0
 40
0.0
 40
0.0
 40
1.0
 40
1.0
 40
1.0
 40
1.0
 10
1.542
 20
-10.0965
 30
0.0
 10
1.542
 20
-10.0965
 30
0.0
 10
1.6273
 20
-10.0965
 30
0.0
 10
1.6273
 20
-10.0965
 30
0.0
  0
SPLINE
  5
D9
330
1F
100
AcDbEntity
  8
Ilustrace
 62
   250
370
    30
100
AcDbSpline
210
0.0
220
0.0
230
1.0
 70
    24
 71
     3
 72
     8
 73
     4
 74
     0
 42
0.0000000001
 43
0.0000000001
 40
0.0
 40
0.0
 40
0.0
 40
0.0
 40
1.0
 40
1.0
 40
1.0
 40
1.0
 10
2.7936
 20
-10.134
 30
0.0
 10
2.7936
 20
-10.134
 30
0.0
 10
2.7936
 20
-10.3973
 30
0.0
 10
2.7936
 20
-10.3973
 30
0.0
  0
SPLINE
  5
DA
330
1F
100
AcDbEntity
  8
Ilustrace
 62
   250
370
    30
100
AcDbSpline
210
0.0
220
0.0
230
1.0
 70
    24
 71
     3
 72
     8
 73
     4
 74
     0
 42
0.0000000001
 43
0.0000000001
 40
0.0
 40
0.0
 40
0.0
 40
0.0
 40
1.0
 40
1.0
 40
1.0
 40
1.0
 10
1.3159
 20
-10.147
 30
0.0
 10
1.3159
 20
-10.147
 30
0.0
 10
1.3706
 20
-10.1706
 30
0.0
 10
1.3706
 20
-10.1706
 30
0.0
  0
SPLINE
  5
DB
330
1F
100
AcDbEntity
  8
Ilustrace
 62
   250
370
    30
100
AcDbSpline
210
0.0
220
0.0
230
1.0
 70
    24
 71
     3
 72
     8
 73
     4
 74
     0
 42
0.0000000001
 43
0.0000000001
 40
0.0
 40
0.0
 40
0.0
 40
0.0
 40
1.0
 40
1.0
 40
1.0
 40
1.0
 10
1.9494
 20
-10.0965
 30
0.0
 10
1.9494
 20
-10.0965
 30
0.0
 10
2.0959
 20
-10.0965
 30
0.0
 10
2.0959
 20
-10.0965
 30
0.0
  0
SPLINE
  5
DC
330
1F
100
AcDbEntity
  8
Ilustrace
 62
   250
370
    30
100
AcDbSpline
210
0.0
220
0.0
230
1.0
 70
    24
 71
     3
 72
     8
 73
     4
 74
     0
 42
0.0000000001
 43
0.0000000001
 40
0.0
 40
0.0
 40
0.0
 40
0.0
 40
1.0
 40
1.0
 40
1.0
 40
1.0
 10
1.706
 20
-10.0965
 30
0.0
 10
1.706
 20
-10.0965
 30
0.0
 10
1.8725
 20
-10.0965
 30
0.0
 10
1.8725
 20
-10.0965
 30
0.0
  0
SPLINE
  5
DD
330
1F
100
AcDbEntity
  8
Ilustrace
 62
   250
370
    30
100
AcDbSpline
210
0.0
220
0.0
230
1.0
 70
    24
 71
     3
 72
     8
 73
     4
 74
     0
 42
0.0000000001
 43
0.0000000001
 40
0.0
 40
0.0
 40
0.0
 40
0.0
 40
1.0
 40
1.0
 40
1.0
 40
1.0
 10
2.389
 20
-10.6309
 30
0.0
 10
2.389
 20
-10.6309
 30
0.0
 10
2.7936
 20
-10.3973
 30
0.0
 10
2.7936
 20
-10.3973
 30
0.0
  0
SPLINE
  5
DE
330
1F
100
AcDbEntity
  8
Ilustrace
 62
   250
370
    30
100
AcDbSpline
210
0.0
220
0.0
230
1.0
 70
    24
 71
     3
 72
     8
 73
     4
 74
     0
 42
0.0000000001
 43
0.0000000001
 40
0.0
 40
0.0
 40
0.0
 40
0.0
 40
1.0
 40
1.0
 40
1.0
 40
1.0
 10
0.792
 20
-10.0965
 30
0.0
 10
0.792
 20
-10.0965
 30
0.0
 10
0.792
 20
-10.1706
 30
0.0
 10
0.792
 20
-10.1706
 30
0.0
  0
SPLINE
  5
DF
330
1F
100
AcDbEntity
  8
Ilustrace
 62
   250
370
    30
100
AcDbSpline
210
0.0
220
0.0
230
1.0
 70
    24
 71
     3
 72
     8
 73
     4
 74
     0
 42
0.0000000001
 43
0.0000000001
 40
0.0
 40
0.0
 40
0.0
 40
0.0
 40
1.0
 40
1.0
 40
1.0
 40
1.0
 10
0.793
 20
-10.1706
 30
0.0
 10
0.793
 20
-10.1706
 30
0.0
 10
0.8035
 20
-10.1706
 30
0.0
 10
0.8035
 20
-10.1706
 30
0.0
  0
SPLINE
  5
E0
330
1F
100
AcDbEntity
  8
Ilustrace
 62
   250
370
    30
100
AcDbSpline
210
0.0
220
0.0
230
1.0
 70
    24
 71
     3
 72
     8
 73
     4
 74
     0
 42
0.0000000001
 43
0.0000000001
 40
0.0
 40
0.0
 40
0.0
 40
0.0
 40
1.0
 40
1.0
 40
1.0
 40
1.0
 10
1.3706
 20
-10.1706
 30
0.0
 10
1.3706
 20
-10.1706
 30
0.0
 10
1.3706
 20
-10.0965
 30
0.0
 10
1.3706
 20
-10.0965
 30
0.0
  0
SPLINE
  5
E1
330
1F
100
AcDbEntity
  8
Ilustrace
 62
   250
370
    30
100
AcDbSpline
210
0.0
220
0.0
230
1.0
 70
    24
 71
     3
 72
     8
 73
     4
 74
     0
 42
0.0000000001
 43
0.0000000001
 40
0.0
 40
0.0
 40
0.0
 40
0.0
 40
1.0
 40
1.0
 40
1.0
 40
1.0
 10
1.3706
 20
-10.1706
 30
0.0
 10
1.3706
 20
-10.1706
 30
0.0
 10
1.2733
 20
-10.1465
 30
0.0
 10
1.2733
 20
-10.1465
 30
0.0
  0
SPLINE
  5
E2
330
1F
100
AcDbEntity
  8
Ilustrace
 62
   250
370
    30
100
AcDbSpline
210
0.0
220
0.0
230
1.0
 70
    24
 71
     3
 72
     8
 73
     4
 74
     0
 42
0.0000000001
 43
0.0000000001
 40
0.0
 40
0.0
 40
0.0
 40
0.0
 40
1.0
 40
1.0
 40
1.0
 40
1.0
 10
1.3706
 20
-10.1706
 30
0.0
 10
1.3706
 20
-10.1706
 30
0.0
 10
1.297
 20
-10.1525
 30
0.0
 10
1.297
 20
-10.1525
 30
0.0
  0
SPLINE
  5
E3
330
1F
100
AcDbEntity
  8
Ilustrace
 62
   250
370
    30
100
AcDbSpline
210
0.0
220
0.0
230
1.0
 70
    24
 71
     3
 72
     8
 73
     4
 74
     0
 42
0.0000000001
 43
0.0000000001
 40
0.0
 40
0.0
 40
0.0
 40
0.0
 40
1.0
 40
1.0
 40
1.0
 40
1.0
 10
1.3706
 20
-10.1706
 30
0.0
 10
1.3706
 20
-10.1706
 30
0.0
 10
1.2885
 20
-10.147
 30
0.0
 10
1.2885
 20
-10.147
 30
0.0
  0
SPLINE
  5
E4
330
1F
100
AcDbEntity
  8
Ilustrace
 62
   250
370
    30
100
AcDbSpline
210
0.0
220
0.0
230
1.0
 70
    24
 71
     3
 72
     8
 73
     4
 74
     0
 42
0.0000000001
 43
0.0000000001
 40
0.0
 40
0.0
 40
0.0
 40
0.0
 40
1.0
 40
1.0
 40
1.0
 40
1.0
 10
1.3706
 20
-10.1706
 30
0.0
 10
1.3706
 20
-10.1706
 30
0.0
 10
1.3021
 20
-10.147
 30
0.0
 10
1.3021
 20
-10.147
 30
0.0
  0
SPLINE
  5
E5
330
1F
100
AcDbEntity
  8
Ilustrace
 62
   250
370
    30
100
AcDbSpline
210
0.0
220
0.0
230
1.0
 70
    24
 71
     3
 72
     8
 73
     4
 74
     0
 42
0.0000000001
 43
0.0000000001
 40
0.0
 40
0.0
 40
0.0
 40
0.0
 40
1.0
 40
1.0
 40
1.0
 40
1.0
 10
2.387
 20
-11.1891
 30
0.0
 10
2.387
 20
-11.1891
 30
0.0
 10
0.3543
 20
-11.1891
 30
0.0
 10
0.3543
 20
-11.1891
 30
0.0
  0
SPLINE
  5
E6
330
1F
100
AcDbEntity
  8
Ilustrace
 62
   250
370
    30
100
AcDbSpline
210
0.0
220
0.0
230
1.0
 70
     8
 71
     3
 72
     8
 73
     4
 74
     0
 42
0.0000000001
 43
0.0000000001
 40
0.0
 40
0.0
 40
0.0
 40
0.0
 40
1.0
 40
1.0
 40
1.0
 40
1.0
 10
1.0748
 20
-10.1706
 30
0.0
 10
0.9803
 20
-10.147
 30
0.0
 10
0.8859
 20
-10.1227
 30
0.0
 10
0.792
 20
-10.0965
 30
0.0
  0
SPLINE
  5
E7
330
1F
100
AcDbEntity
  8
Ilustrace
 62
   250
370
    30
100
AcDbSpline
210
0.0
220
0.0
230
1.0
 70
     8
 71
     3
 72
     8
 73
     4
 74
     0
 42
0.0000000001
 43
0.0000000001
 40
0.0
 40
0.0
 40
0.0
 40
0.0
 40
1.0
 40
1.0
 40
1.0
 40
1.0
 10
0.1384
 20
-10.0965
 30
0.0
 10
0.1957
 20
-10.1242
 30
0.0
 10
0.2537
 20
-10.148
 30
0.0
 10
0.3133
 20
-10.1706
 30
0.0
  0
SPLINE
  5
E8
330
1F
100
AcDbEntity
  8
Ilustrace
 62
   250
370
    30
100
AcDbSpline
210
0.0
220
0.0
230
1.0
 70
     8
 71
     3
 72
    12
 73
     8
 74
     0
 42
0.0000000001
 43
0.0000000001
 40
0.0
 40
0.0
 40
0.0
 40
0.0
 40
0.3333333333333333
 40
0.3333333333333333
 40
0.3333333333333333
 40
0.3333333333333333
 40
1.0
 40
1.0
 40
1.0
 40
1.0
 10
0.3543
 20
-10.5412
 30
0.0
 10
0.5765
 20
-10.6085
 30
0.0
 10
0.7958
 20
-10.6503
 30
0.0
 10
1.0287
 20
-10.6216
 30
0.0
 10
1.0287
 20
-10.6216
 30
0.0
 10
1.1043
 20
-10.6123
 30
0.0
 10
1.1795
 20
-10.5967
 30
0.0
 10
1.253
 20
-10.5767
 30
0.0
  0
SPLINE
  5
E9
330
1F
100
AcDbEntity
  8
Ilustrace
 62
   250
370
    30
100
AcDbSpline
210
0.0
220
0.0
230
1.0
 70
     8
 71
     3
 72
    12
 73
     8
 74
     0
 42
0.0000000001
 43
0.0000000001
 40
0.0
 40
0.0
 40
0.0
 40
0.0
 40
0.3333333333333333
 40
0.3333333333333333
 40
0.3333333333333333
 40
0.3333333333333333
 40
1.0
 40
1.0
 40
1.0
 40
1.0
 10
1.253
 20
-10.5767
 30
0.0
 10
1.253
 20
-10.5767
 30
0.0
 10
1.3706
 20
-10.5412
 30
0.0
 10
1.3706
 20
-10.5412
 30
0.0
 10
1.3706
 20
-10.5412
 30
0.0
 10
1.3706
 20
-10.5412
 30
0.0
 10
1.4883
 20
-10.5767
 30
0.0
 10
1.4883
 20
-10.5767
 30
0.0
  0
SPLINE
  5
EA
330
1F
100
AcDbEntity
  8
Ilustrace
 62
   250
370
    30
100
AcDbSpline
210
0.0
220
0.0
230
1.0
 70
     8
 71
     3
 72
    12
 73
     8
 74
     0
 42
0.0000000001
 43
0.0000000001
 40
0.0
 40
0.0
 40
0.0
 40
0.0
 40
0.3333333333333333
 40
0.3333333333333333
 40
0.3333333333333333
 40
0.3333333333333333
 40
1.0
 40
1.0
 40
1.0
 40
1.0
 10
1.4883
 20
-10.5767
 30
0.0
 10
1.5618
 20
-10.5967
 30
0.0
 10
1.6369
 20
-10.6123
 30
0.0
 10
1.7126
 20
-10.6216
 30
0.0
 10
1.7126
 20
-10.6216
 30
0.0
 10
1.9456
 20
-10.6503
 30
0.0
 10
2.1649
 20
-10.6085
 30
0.0
 10
2.387
 20
-10.5412
 30
0.0
  0
SPLINE
  5
EB
330
1F
100
AcDbEntity
  8
Ilustrace
 62
   250
370
    30
100
AcDbSpline
210
0.0
220
0.0
230
1.0
 70
     8
 71
     3
 72
     8
 73
     4
 74
     0
 42
0.0000000001
 43
0.0000000001
 40
0.0
 40
0.0
 40
0.0
 40
0.0
 40
1.0
 40
1.0
 40
1.0
 40
1.0
 10
0.5343
 20
-10.0965
 30
0.0
 10
0.6198
 20
-10.123
 30
0.0
 10
0.7057
 20
-10.1471
 30
0.0
 10
0.792
 20
-10.1706
 30
0.0
  0
SPLINE
  5
EC
330
1F
100
AcDbEntity
  8
Ilustrace
 62
   250
370
    30
100
AcDbSpline
210
0.0
220
0.0
230
1.0
 70
     8
 71
     3
 72
     8
 73
     4
 74
     0
 42
0.0000000001
 43
0.0000000001
 40
0.0
 40
0.0
 40
0.0
 40
0.0
 40
1.0
 40
1.0
 40
1.0
 40
1.0
 10
1.0748
 20
-10.0965
 30
0.0
 10
1.1487
 20
-10.1158
 30
0.0
 10
1.2228
 20
-10.1343
 30
0.0
 10
1.297
 20
-10.1525
 30
0.0
  0
SPLINE
  5
ED
330
1F
100
AcDbEntity
  8
Ilustrace
 62
   250
370
    30
100
AcDbSpline
210
0.0
220
0.0
230
1.0
 70
     8
 71
     3
 72
     8
 73
     4
 74
     0
 42
0.0000000001
 43
0.0000000001
 40
0.0
 40
0.0
 40
0.0
 40
0.0
 40
1.0
 40
1.0
 40
1.0
 40
1.0
 10
0.5358
 20
-10.1706
 30
0.0
 10
0.4608
 20
-10.1486
 30
0.0
 10
0.3865
 20
-10.1241
 30
0.0
 10
0.3133
 20
-10.0965
 30
0.0
  0
SPLINE
  5
EE
330
1F
100
AcDbEntity
  8
Ilustrace
 62
   250
370
    30
100
AcDbSpline
210
0.0
220
0.0
230
1.0
 70
     8
 71
     3
 72
     8
 73
     4
 74
     0
 42
0.0000000001
 43
0.0000000001
 40
0.0
 40
0.0
 40
0.0
 40
0.0
 40
1.0
 40
1.0
 40
1.0
 40
1.0
 10
-0.0443
 20
-10.0965
 30
0.0
 10
-0.0299
 20
-10.127
 30
0.0
 10
-0.0083
 20
-10.1492
 30
0.0
 10
0.0175
 20
-10.1706
 30
0.0
  0
SPLINE
  5
EF
330
1F
100
AcDbEntity
  8
Ilustrace
 62
   250
370
    30
100
AcDbSpline
210
0.0
220
0.0
230
1.0
 70
    24
 71
     3
 72
     8
 73
     4
 74
     0
 42
0.0000000001
 43
0.0000000001
 40
0.0
 40
0.0
 40
0.0
 40
0.0
 40
1.0
 40
1.0
 40
1.0
 40
1.0
 10
-0.0521
 20
-10.134
 30
0.0
 10
-0.0521
 20
-10.134
 30
0.0
 10
-0.0443
 20
-10.1706
 30
0.0
 10
-0.0443
 20
-10.1706
 30
0.0
  0
SPLINE
  5
F0
330
1F
100
AcDbEntity
  8
Ilustrace
 62
   250
370
    30
100
AcDbSpline
210
0.0
220
0.0
230
1.0
 70
     8
 71
     3
 72
     8
 73
     4
 74
     0
 42
0.0000000001
 43
0.0000000001
 40
0.0
 40
0.0
 40
0.0
 40
0.0
 40
1.0
 40
1.0
 40
1.0
 40
1.0
 10
0.1384
 20
-10.1706
 30
0.0
 10
0.0956
 20
-10.1482
 30
0.0
 10
0.0559
 20
-10.1255
 30
0.0
 10
0.0175
 20
-10.0965
 30
0.0
  0
SPLINE
  5
F1
330
1F
100
AcDbEntity
  8
Ilustrace
 62
   250
370
    30
100
AcDbSpline
210
0.0
220
0.0
230
1.0
 70
     8
 71
     3
 72
    20
 73
    16
 74
     0
 42
0.0000000001
 43
0.0000000001
 40
0.0
 40
0.0
 40
0.0
 40
0.0
 40
0.2
 40
0.2
 40
0.2
 40
0.2
 40
0.4
 40
0.4
 40
0.4
 40
0.4
 40
0.6
 40
0.6
 40
0.6
 40
0.6
 40
1.0
 40
1.0
 40
1.0
 40
1.0
 10
2.387
 20
-11.0984
 30
0.0
 10
2.2179
 20
-11.1502
 30
0.0
 10
2.0558
 20
-11.1825
 30
0.0
 10
1.8788
 20
-11.1891
 30
0.0
 10
1.8788
 20
-11.1891
 30
0.0
 10
1.7007
 20
-11.1825
 30
0.0
 10
1.5411
 20
-11.1505
 30
0.0
 10
1.3706
 20
-11.0984
 30
0.0
 10
1.3706
 20
-11.0984
 30
0.0
 10
1.2002
 20
-11.1505
 30
0.0
 10
1.0405
 20
-11.1825
 30
0.0
 10
0.8626
 20
-11.1891
 30
0.0
 10
0.8626
 20
-11.1891
 30
0.0
 10
0.6855
 20
-11.1825
 30
0.0
 10
0.5234
 20
-11.1502
 30
0.0
 10
0.3543
 20
-11.0984
 30
0.0
  0
SPLINE
  5
F2
330
1F
100
AcDbEntity
  8
Ilustrace
 62
   250
370
    30
100
AcDbSpline
210
0.0
220
0.0
230
1.0
 70
     8
 71
     3
 72
     8
 73
     4
 74
     0
 42
0.0000000001
 43
0.0000000001
 40
0.0
 40
0.0
 40
0.0
 40
0.0
 40
1.0
 40
1.0
 40
1.0
 40
1.0
 10
-0.0443
 20
-10.0965
 30
0.0
 10
-0.0479
 20
-10.109
 30
0.0
 10
-0.0521
 20
-10.121
 30
0.0
 10
-0.0521
 20
-10.134
 30
0.0
  0
SPLINE
  5
F3
330
1F
100
AcDbEntity
  8
Ilustrace
 62
   250
370
    30
100
AcDbSpline
210
0.0
220
0.0
230
1.0
 70
    24
 71
     3
 72
     8
 73
     4
 74
     0
 42
0.0000000001
 43
0.0000000001
 40
0.0
 40
0.0
 40
0.0
 40
0.0
 40
1.0
 40
1.0
 40
1.0
 40
1.0
 10
-0.0521
 20
-10.134
 30
0.0
 10
-0.0521
 20
-10.134
 30
0.0
 10
-0.0521
 20
-10.3973
 30
0.0
 10
-0.0521
 20
-10.3973
 30
0.0
  0
SPLINE
  5
F4
330
1F
100
AcDbEntity
  8
Ilustrace
 62
   250
370
    30
100
AcDbSpline
210
0.0
220
0.0
230
1.0
 70
    24
 71
     3
 72
     8
 73
     4
 74
     0
 42
0.0000000001
 43
0.0000000001
 40
0.0
 40
0.0
 40
0.0
 40
0.0
 40
1.0
 40
1.0
 40
1.0
 40
1.0
 10
0.3543
 20
-10.5412
 30
0.0
 10
0.3543
 20
-10.756
 30
0.0
 10
0.3543
 20
-10.9747
 30
0.0
 10
0.3543
 20
-11.1891
 30
0.0
  0
SPLINE
  5
F5
330
1F
100
AcDbEntity
  8
Ilustrace
 62
   250
370
    30
100
AcDbSpline
210
0.0
220
0.0
230
1.0
 70
     8
 71
     3
 72
     8
 73
     4
 74
     0
 42
0.0000000001
 43
0.0000000001
 40
0.0
 40
0.0
 40
0.0
 40
0.0
 40
1.0
 40
1.0
 40
1.0
 40
1.0
 10
2.7857
 20
-10.0965
 30
0.0
 10
2.7908
 20
-10.115
 30
0.0
 10
2.7927
 20
-10.1272
 30
0.0
 10
2.7927
 20
-10.1465
 30
0.0
  0
SPLINE
  5
F6
330
1F
100
AcDbEntity
  8
Ilustrace
 62
   250
370
    30
100
AcDbSpline
210
0.0
220
0.0
230
1.0
 70
     8
 71
     3
 72
     8
 73
     4
 74
     0
 42
0.0000000001
 43
0.0000000001
 40
0.0
 40
0.0
 40
0.0
 40
0.0
 40
1.0
 40
1.0
 40
1.0
 40
1.0
 10
2.7239
 20
-10.0965
 30
0.0
 10
2.7488
 20
-10.1183
 30
0.0
 10
2.7707
 20
-10.1407
 30
0.0
 10
2.7857
 20
-10.1706
 30
0.0
  0
SPLINE
  5
F7
330
1F
100
AcDbEntity
  8
Ilustrace
 62
   250
370
    30
100
AcDbSpline
210
0.0
220
0.0
230
1.0
 70
     8
 71
     3
 72
     8
 73
     4
 74
     0
 42
0.0000000001
 43
0.0000000001
 40
0.0
 40
0.0
 40
0.0
 40
0.0
 40
1.0
 40
1.0
 40
1.0
 40
1.0
 10
2.6029
 20
-10.0965
 30
0.0
 10
2.645
 20
-10.1188
 30
0.0
 10
2.6858
 20
-10.1419
 30
0.0
 10
2.7239
 20
-10.1706
 30
0.0
  0
SPLINE
  5
F8
330
1F
100
AcDbEntity
  8
Ilustrace
 62
   250
370
    30
100
AcDbSpline
210
0.0
220
0.0
230
1.0
 70
     8
 71
     3
 72
     8
 73
     4
 74
     0
 42
0.0000000001
 43
0.0000000001
 40
0.0
 40
0.0
 40
0.0
 40
0.0
 40
1.0
 40
1.0
 40
1.0
 40
1.0
 10
2.2069
 20
-10.1706
 30
0.0
 10
2.1213
 20
-10.1453
 30
0.0
 10
2.0354
 20
-10.121
 30
0.0
 10
1.9494
 20
-10.0965
 30
0.0
  0
SPLINE
  5
F9
330
1F
100
AcDbEntity
  8
Ilustrace
 62
   250
370
    30
100
AcDbSpline
210
0.0
220
0.0
230
1.0
 70
     8
 71
     3
 72
     8
 73
     4
 74
     0
 42
0.0000000001
 43
0.0000000001
 40
0.0
 40
0.0
 40
0.0
 40
0.0
 40
1.0
 40
1.0
 40
1.0
 40
1.0
 10
2.6029
 20
-10.1706
 30
0.0
 10
2.5456
 20
-10.1434
 30
0.0
 10
2.4872
 20
-10.1195
 30
0.0
 10
2.4281
 20
-10.0965
 30
0.0
  0
SPLINE
  5
FA
330
1F
100
AcDbEntity
  8
Ilustrace
 62
   250
370
    30
100
AcDbSpline
210
0.0
220
0.0
230
1.0
 70
    24
 71
     3
 72
     8
 73
     4
 74
     0
 42
0.0000000001
 43
0.0000000001
 40
0.0
 40
0.0
 40
0.0
 40
0.0
 40
1.0
 40
1.0
 40
1.0
 40
1.0
 10
2.387
 20
-10.5412
 30
0.0
 10
2.387
 20
-10.756
 30
0.0
 10
2.387
 20
-10.9747
 30
0.0
 10
2.387
 20
-11.1891
 30
0.0
  0
SPLINE
  5
FB
330
1F
100
AcDbEntity
  8
Ilustrace
 62
   250
370
    30
100
AcDbSpline
210
0.0
220
0.0
230
1.0
 70
     8
 71
     3
 72
     8
 73
     4
 74
     0
 42
0.0000000001
 43
0.0000000001
 40
0.0
 40
0.0
 40
0.0
 40
0.0
 40
1.0
 40
1.0
 40
1.0
 40
1.0
 10
2.4281
 20
-10.1706
 30
0.0
 10
2.3549
 20
-10.1444
 30
0.0
 10
2.281
 20
-10.1202
 30
0.0
 10
2.2069
 20
-10.0965
 30
0.0
  0
SPLINE
  5
FC
330
1F
100
AcDbEntity
  8
Ilustrace
 62
   250
370
    30
100
AcDbSpline
210
0.0
220
0.0
230
1.0
 70
     8
 71
     3
 72
     8
 73
     4
 74
     0
 42
0.0000000001
 43
0.0000000001
 40
0.0
 40
0.0
 40
0.0
 40
0.0
 40
1.0
 40
1.0
 40
1.0
 40
1.0
 10
1.6665
 20
-10.0965
 30
0.0
 10
1.7608
 20
-10.1211
 30
0.0
 10
1.8552
 20
-10.1455
 30
0.0
 10
1.9494
 20
-10.1706
 30
0.0
  0
SPLINE
  5
FD
330
1F
100
AcDbEntity
  8
Ilustrace
 62
   250
370
    30
100
AcDbSpline
210
0.0
220
0.0
230
1.0
 70
     8
 71
     3
 72
    12
 73
     8
 74
     0
 42
0.0000000001
 43
0.0000000001
 40
0.0
 40
0.0
 40
0.0
 40
0.0
 40
0.3333333333333333
 40
0.3333333333333333
 40
0.3333333333333333
 40
0.3333333333333333
 40
1.0
 40
1.0
 40
1.0
 40
1.0
 10
1.6665
 20
-10.1706
 30
0.0
 10
1.6665
 20
-10.1706
 30
0.0
 10
1.4351
 20
-10.113
 30
0.0
 10
1.4351
 20
-10.113
 30
0.0
 10
1.4351
 20
-10.113
 30
0.0
 10
1.4351
 20
-10.113
 30
0.0
 10
1.3706
 20
-10.0965
 30
0.0
 10
1.3706
 20
-10.0965
 30
0.0
  0
SPLINE
  5
FE
330
1F
100
AcDbEntity
  8
Ilustrace
 62
   250
370
    30
100
AcDbSpline
210
0.0
220
0.0
230
1.0
 70
    24
 71
     3
 72
     8
 73
     4
 74
     0
 42
0.0000000001
 43
0.0000000001
 40
0.0
 40
0.0
 40
0.0
 40
0.0
 40
1.0
 40
1.0
 40
1.0
 40
1.0
 10
6.8969
 20
-10.0965
 30
0.0
 10
6.8969
 20
-10.0965
 30
0.0
 10
6.8969
 20
-18.4814
 30
0.0
 10
6.8969
 20
-18.4814
 30
0.0
  0
SPLINE
  5
FF
330
1F
100
AcDbEntity
  8
Ilustrace
 62
   250
370
    30
100
AcDbSpline
210
0.0
220
0.0
230
1.0
 70
    24
 71
     3
 72
     8
 73
     4
 74
     0
 42
0.0000000001
 43
0.0000000001
 40
0.0
 40
0.0
 40
0.0
 40
0.0
 40
1.0
 40
1.0
 40
1.0
 40
1.0
 10
-12.0321
 20
-18.4814
 30
0.0
 10
-12.0321
 20
-18.4814
 30
0.0
 10
7.2781
 20
-18.4814
 30
0.0
 10
7.2781
 20
-18.4814
 30
0.0
  0
SPLINE
  5
100
330
1F
100
AcDbEntity
  8
Ilustrace
 62
   250
370
    30
100
AcDbSpline
210
0.0
220
0.0
230
1.0
 70
    24
 71
     3
 72
     8
 73
     4
 74
     0
 42
0.0000000001
 43
0.0000000001
 40
0.0
 40
0.0
 40
0.0
 40
0.0
 40
1.0
 40
1.0
 40
1.0
 40
1.0
 10
7.2781
 20
-10.0965
 30
0.0
 10
7.2781
 20
-10.0965
 30
0.0
 10
7.2781
 20
-18.4814
 30
0.0
 10
7.2781
 20
-18.4814
 30
0.0
  0
SPLINE
  5
101
330
1F
100
AcDbEntity
  8
Ilustrace
 62
   250
370
    30
100
AcDbSpline
210
0.0
220
0.0
230
1.0
 70
    24
 71
     3
 72
     8
 73
     4
 74
     0
 42
0.0000000001
 43
0.0000000001
 40
0.0
 40
0.0
 40
0.0
 40
0.0
 40
1.0
 40
1.0
 40
1.0
 40
1.0
 10
7.2781
 20
-9.7155
 30
0.0
 10
7.2781
 20
-9.7155
 30
0.0
 10
7.2781
 20
-9.3344
 30
0.0
 10
7.2781
 20
-9.3344
 30
0.0
  0
SPLINE
  5
102
330
1F
100
AcDbEntity
  8
Ilustrace
 62
   250
370
    30
100
AcDbSpline
210
0.0
220
0.0
230
1.0
 70
    24
 71
     3
 72
     8
 73
     4
 74
     0
 42
0.0000000001
 43
0.0000000001
 40
0.0
 40
0.0
 40
0.0
 40
0.0
 40
1.0
 40
1.0
 40
1.0
 40
1.0
 10
-12.0321
 20
-9.3344
 30
0.0
 10
-12.0321
 20
-9.3344
 30
0.0
 10
7.2781
 20
-9.3344
 30
0.0
 10
7.2781
 20
-9.3344
 30
0.0
  0
SPLINE
  5
103
330
1F
100
AcDbEntity
  8
Ilustrace
 62
   250
370
    30
100
AcDbSpline
210
0.0
220
0.0
230
1.0
 70
    24
 71
     3
 72
     8
 73
     4
 74
     0
 42
0.0000000001
 43
0.0000000001
 40
0.0
 40
0.0
 40
0.0
 40
0.0
 40
1.0
 40
1.0
 40
1.0
 40
1.0
 10
-12.0321
 20
-9.7155
 30
0.0
 10
-12.0321
 20
-9.7155
 30
0.0
 10
-12.0321
 20
-9.3344
 30
0.0
 10
-12.0321
 20
-9.3344
 30
0.0
  0
SPLINE
  5
104
330
1F
100
AcDbEntity
  8
Ilustrace
 62
   250
370
    30
100
AcDbSpline
210
0.0
220
0.0
230
1.0
 70
    24
 71
     3
 72
     8
 73
     4
 74
     0
 42
0.0000000001
 43
0.0000000001
 40
0.0
 40
0.0
 40
0.0
 40
0.0
 40
1.0
 40
1.0
 40
1.0
 40
1.0
 10
-12.0321
 20
-18.4814
 30
0.0
 10
-12.0321
 20
-18.4814
 30
0.0
 10
-12.0321
 20
-10.0965
 30
0.0
 10
-12.0321
 20
-10.0965
 30
0.0
  0
SPLINE
  5
105
330
1F
100
AcDbEntity
  8
Ilustrace
 62
   250
370
    30
100
AcDbSpline
210
0.0
220
0.0
230
1.0
 70
    24
 71
     3
 72
     8
 73
     4
 74
     0
 42
0.0000000001
 43
0.0000000001
 40
0.0
 40
0.0
 40
0.0
 40
0.0
 40
1.0
 40
1.0
 40
1.0
 40
1.0
 10
-11.6509
 20
-10.0965
 30
0.0
 10
-11.6509
 20
-10.0965
 30
0.0
 10
-11.6509
 20
-18.4814
 30
0.0
 10
-11.6509
 20
-18.4814
 30
0.0
  0
SPLINE
  5
106
330
1F
100
AcDbEntity
  8
Ilustrace
 62
   250
370
    30
100
AcDbSpline
210
0.0
220
0.0
230
1.0
 70
    24
 71
     3
 72
     8
 73
     4
 74
     0
 42
0.0000000001
 43
0.0000000001
 40
0.0
 40
0.0
 40
0.0
 40
0.0
 40
1.0
 40
1.0
 40
1.0
 40
1.0
 10
11.4704
 20
-10.0965
 30
0.0
 10
11.4704
 20
-10.0965
 30
0.0
 10
-16.2244
 20
-10.0965
 30
0.0
 10
-16.2244
 20
-10.0965
 30
0.0
  0
SPLINE
  5
107
330
1F
100
AcDbEntity
  8
Ilustrace
 62
   250
370
    30
100
AcDbSpline
210
0.0
220
0.0
230
1.0
 70
    24
 71
     3
 72
     8
 73
     4
 74
     0
 42
0.0000000001
 43
0.0000000001
 40
0.0
 40
0.0
 40
0.0
 40
0.0
 40
1.0
 40
1.0
 40
1.0
 40
1.0
 10
-16.2244
 20
-9.7155
 30
0.0
 10
-16.2244
 20
-9.7155
 30
0.0
 10
11.4704
 20
-9.7155
 30
0.0
 10
11.4704
 20
-9.7155
 30
0.0
  0
SPLINE
  5
108
330
1F
100
AcDbEntity
  8
Ilustrace
 62
   250
370
    30
100
AcDbSpline
210
0.0
220
0.0
230
1.0
 70
    24
 71
     3
 72
     8
 73
     4
 74
     0
 42
0.0000000001
 43
0.0000000001
 40
0.0
 40
0.0
 40
0.0
 40
0.0
 40
1.0
 40
1.0
 40
1.0
 40
1.0
 10
11.4704
 20
-10.0965
 30
0.0
 10
11.4704
 20
-10.0965
 30
0.0
 10
11.4704
 20
-9.7155
 30
0.0
 10
11.4704
 20
-9.7155
 30
0.0
  0
SPLINE
  5
109
330
1F
100
AcDbEntity
  8
Ilustrace
 62
   250
370
    30
100
AcDbSpline
210
0.0
220
0.0
230
1.0
 70
    24
 71
     3
 72
     8
 73
     4
 74
     0
 42
0.0000000001
 43
0.0000000001
 40
0.0
 40
0.0
 40
0.0
 40
0.0
 40
1.0
 40
1.0
 40
1.0
 40
1.0
 10
-16.2244
 20
-10.0965
 30
0.0
 10
-16.2244
 20
-10.0965
 30
0.0
 10
-16.2244
 20
-9.7155
 30
0.0
 10
-16.2244
 20
-9.7155
 30
0.0
  0
SPLINE
  5
10A
330
1F
100
AcDbEntity
  8
Ilustrace
 62
     9
100
AcDbSpline
210
0.0
220
0.0
230
1.0
 70
    11
 71
     3
 72
   156
 73
   152
 74
     0
 42
0.0000000001
 43
0.0000000001
 40
0.0
 40
0.0
 40
0.0
 40
0.0
 40
0.0256410256410256
 40
0.0256410256410256
 40
0.0256410256410256
 40
0.0256410256410256
 40
0.0512820512820513
 40
0.0512820512820513
 40
0.0512820512820513
 40
0.0512820512820513
 40
0.0769230769230769
 40
0.0769230769230769
 40
0.0769230769230769
 40
0.0769230769230769
 40
0.1025641025641026
 40
0.1025641025641026
 40
0.1025641025641026
 40
0.1025641025641026
 40
0.1282051282051282
 40
0.1282051282051282
 40
0.1282051282051282
 40
0.1282051282051282
 40
0.1538461538461539
 40
0.1538461538461539
 40
0.1538461538461539
 40
0.1538461538461539
 40
0.1794871794871795
 40
0.1794871794871795
 40
0.1794871794871795
 40
0.1794871794871795
 40
0.2051282051282051
 40
0.2051282051282051
 40
0.2051282051282051
 40
0.2051282051282051
 40
0.2307692307692308
 40
0.2307692307692308
 40
0.2307692307692308
 40
0.2307692307692308
 40
0.2564102564102564
 40
0.2564102564102564
 40
0.2564102564102564
 40
0.2564102564102564
 40
0.282051282051282
 40
0.282051282051282
 40
0.282051282051282
 40
0.282051282051282
 40
0.3076923076923077
 40
0.3076923076923077
 40
0.3076923076923077
 40
0.3076923076923077
 40
0.3333333333333333
 40
0.3333333333333333
 40
0.3333333333333333
 40
0.3333333333333333
 40
0.358974358974359
 40
0.358974358974359
 40
0.358974358974359
 40
0.358974358974359
 40
0.3846153846153846
 40
0.3846153846153846
 40
0.3846153846153846
 40
0.3846153846153846
 40
0.4102564102564102
 40
0.4102564102564102
 40
0.4102564102564102
 40
0.4102564102564102
 40
0.4358974358974359
 40
0.4358974358974359
 40
0.4358974358974359
 40
0.4358974358974359
 40
0.4615384615384616
 40
0.4615384615384616
 40
0.4615384615384616
 40
0.4615384615384616
 40
0.4871794871794872
 40
0.4871794871794872
 40
0.4871794871794872
 40
0.4871794871794872
 40
0.5128205128205128
 40
0.5128205128205128
 40
0.5128205128205128
 40
0.5128205128205128
 40
0.5384615384615384
 40
0.5384615384615384
 40
0.5384615384615384
 40
0.5384615384615384
 40
0.5641025641025641
 40
0.5641025641025641
 40
0.5641025641025641
 40
0.5641025641025641
 40
0.5897435897435898
 40
0.5897435897435898
 40
0.5897435897435898
 40
0.5897435897435898
 40
0.6153846153846154
 40
0.6153846153846154
 40
0.6153846153846154
 40
0.6153846153846154
 40
0.6410256410256411
 40
0.6410256410256411
 40
0.6410256410256411
 40
0.6410256410256411
 40
0.6666666666666666
 40
0.6666666666666666
 40
0.6666666666666666
 40
0.6666666666666666
 40
0.6923076923076923
 40
0.6923076923076923
 40
0.6923076923076923
 40
0.6923076923076923
 40
0.717948717948718
 40
0.717948717948718
 40
0.717948717948718
 40
0.717948717948718
 40
0.7435897435897436
 40
0.7435897435897436
 40
0.7435897435897436
 40
0.7435897435897436
 40
0.7692307692307693
 40
0.7692307692307693
 40
0.7692307692307693
 40
0.7692307692307693
 40
0.7948717948717948
 40
0.7948717948717948
 40
0.7948717948717948
 40
0.7948717948717948
 40
0.8205128205128205
 40
0.8205128205128205
 40
0.8205128205128205
 40
0.8205128205128205
 40
0.8461538461538461
 40
0.8461538461538461
 40
0.8461538461538461
 40
0.8461538461538461
 40
0.8717948717948718
 40
0.8717948717948718
 40
0.8717948717948718
 40
0.8717948717948718
 40
0.8974358974358975
 40
0.8974358974358975
 40
0.8974358974358975
 40
0.8974358974358975
 40
0.9230769230769231
 40
0.9230769230769231
 40
0.9230769230769231
 40
0.9230769230769231
 40
0.9487179487179487
 40
0.9487179487179487
 40
0.9487179487179487
 40
0.9487179487179487
 40
1.0
 40
1.0
 40
1.0
 40
1.0
 10
-15.2814
 20
12.1686
 30
0.0
 10
-15.2814
 20
12.1686
 30
0.0
 10
10.5431
 20
12.1796
 30
0.0
 10
10.5431
 20
12.1796
 30
0.0
 10
10.5431
 20
12.1796
 30
0.0
 10
10.5431
 20
12.1796
 30
0.0
 10
10.8848
 20
12.1465
 30
0.0
 10
10.8848
 20
12.1465
 30
0.0
 10
10.8848
 20
12.1465
 30
0.0
 10
10.8848
 20
12.1465
 30
0.0
 10
11.1384
 20
12.0639
 30
0.0
 10
11.1384
 20
12.0639
 30
0.0
 10
11.1384
 20
12.0639
 30
0.0
 10
11.1384
 20
12.0639
 30
0.0
 10
11.3038
 20
11.9371
 30
0.0
 10
11.3038
 20
11.9371
 30
0.0
 10
11.3038
 20
11.9371
 30
0.0
 10
11.3038
 20
11.9371
 30
0.0
 10
11.4526
 20
11.6945
 30
0.0
 10
11.4526
 20
11.6945
 30
0.0
 10
11.4526
 20
11.6945
 30
0.0
 10
11.4526
 20
11.6945
 30
0.0
 10
11.5463
 20
11.4189
 30
0.0
 10
11.5463
 20
11.4189
 30
0.0
 10
11.5463
 20
11.4189
 30
0.0
 10
11.5463
 20
11.4189
 30
0.0
 10
11.5573
 20
11.0661
 30
0.0
 10
11.5573
 20
11.0661
 30
0.0
 10
11.5573
 20
11.0661
 30
0.0
 10
11.5573
 20
11.0661
 30
0.0
 10
11.5022
 20
7.6761
 30
0.0
 10
11.5022
 20
7.6761
 30
0.0
 10
11.5022
 20
7.6761
 30
0.0
 10
11.5022
 20
7.6761
 30
0.0
 10
11.4857
 20
7.4171
 30
0.0
 10
11.4857
 20
7.4171
 30
0.0
 10
11.4857
 20
7.4171
 30
0.0
 10
11.4857
 20
7.4171
 30
0.0
 10
11.3203
 20
7.2076
 30
0.0
 10
11.3203
 20
7.2076
 30
0.0
 10
11.3203
 20
7.2076
 30
0.0
 10
11.3203
 20
7.2076
 30
0.0
 10
11.1329
 20
7.0477
 30
0.0
 10
11.1329
 20
7.0477
 30
0.0
 10
11.1329
 20
7.0477
 30
0.0
 10
11.1329
 20
7.0477
 30
0.0
 10
10.8959
 20
6.965
 30
0.0
 10
10.8959
 20
6.965
 30
0.0
 10
10.8959
 20
6.965
 30
0.0
 10
10.8959
 20
6.965
 30
0.0
 10
10.5982
 20
6.954
 30
0.0
 10
10.5982
 20
6.954
 30
0.0
 10
10.5982
 20
6.954
 30
0.0
 10
10.5982
 20
6.954
 30
0.0
 10
7.3624
 20
6.9485
 30
0.0
 10
7.3624
 20
6.9485
 30
0.0
 10
7.3624
 20
6.9485
 30
0.0
 10
7.3624
 20
6.9485
 30
0.0
 10
7.3595
 20
-2.02
 30
0.0
 10
7.3595
 20
-2.02
 30
0.0
 10
7.3595
 20
-2.02
 30
0.0
 10
7.3595
 20
-2.02
 30
0.0
 10
7.2769
 20
-2.2956
 30
0.0
 10
7.2769
 20
-2.2956
 30
0.0
 10
7.2769
 20
-2.2956
 30
0.0
 10
7.2769
 20
-2.2956
 30
0.0
 10
7.117
 20
-2.5217
 30
0.0
 10
7.117
 20
-2.5217
 30
0.0
 10
7.117
 20
-2.5217
 30
0.0
 10
7.117
 20
-2.5217
 30
0.0
 10
6.9241
 20
-2.7532
 30
0.0
 10
6.9241
 20
-2.7532
 30
0.0
 10
6.9241
 20
-2.7532
 30
0.0
 10
6.9241
 20
-2.7532
 30
0.0
 10
6.6705
 20
-2.8083
 30
0.0
 10
6.6705
 20
-2.8083
 30
0.0
 10
6.6705
 20
-2.8083
 30
0.0
 10
6.6705
 20
-2.8083
 30
0.0
 10
6.3949
 20
-2.8524
 30
0.0
 10
6.3949
 20
-2.8524
 30
0.0
 10
6.3949
 20
-2.8524
 30
0.0
 10
6.3949
 20
-2.8524
 30
0.0
 10
-11.354
 20
-2.8192
 30
0.0
 10
-11.354
 20
-2.8192
 30
0.0
 10
-11.354
 20
-2.8192
 30
0.0
 10
-11.354
 20
-2.8192
 30
0.0
 10
-11.6296
 20
-2.6979
 30
0.0
 10
-11.6296
 20
-2.6979
 30
0.0
 10
-11.6296
 20
-2.6979
 30
0.0
 10
-11.6296
 20
-2.6979
 30
0.0
 10
-11.8336
 20
-2.4664
 30
0.0
 10
-11.8336
 20
-2.4664
 30
0.0
 10
-11.8336
 20
-2.4664
 30
0.0
 10
-11.8336
 20
-2.4664
 30
0.0
 10
-11.9163
 20
-2.2239
 30
0.0
 10
-11.9163
 20
-2.2239
 30
0.0
 10
-11.9163
 20
-2.2239
 30
0.0
 10
-11.9163
 20
-2.2239
 30
0.0
 10
-11.9714
 20
-2.0034
 30
0.0
 10
-11.9714
 20
-2.0034
 30
0.0
 10
-11.9714
 20
-2.0034
 30
0.0
 10
-11.9714
 20
-2.0034
 30
0.0
 10
-12.0098
 20
6.9321
 30
0.0
 10
-12.0098
 20
6.9321
 30
0.0
 10
-12.0098
 20
6.9321
 30
0.0
 10
-12.0098
 20
6.9321
 30
0.0
 10
-15.4717
 20
6.9706
 30
0.0
 10
-15.4717
 20
6.9706
 30
0.0
 10
-15.4717
 20
6.9706
 30
0.0
 10
-15.4717
 20
6.9706
 30
0.0
 10
-15.7528
 20
7.0864
 30
0.0
 10
-15.7528
 20
7.0864
 30
0.0
 10
-15.7528
 20
7.0864
 30
0.0
 10
-15.7528
 20
7.0864
 30
0.0
 10
-15.9182
 20
7.2297
 30
0.0
 10
-15.9182
 20
7.2297
 30
0.0
 10
-15.9182
 20
7.2297
 30
0.0
 10
-15.9182
 20
7.2297
 30
0.0
 10
-16.0836
 20
7.4998
 30
0.0
 10
-16.0836
 20
7.4998
 30
0.0
 10
-16.0836
 20
7.4998
 30
0.0
 10
-16.0836
 20
7.4998
 30
0.0
 10
-16.1663
 20
7.8305
 30
0.0
 10
-16.1663
 20
7.8305
 30
0.0
 10
-16.1663
 20
7.8305
 30
0.0
 10
-16.1663
 20
7.8305
 30
0.0
 10
-16.1497
 20
11.3745
 30
0.0
 10
-16.1497
 20
11.3745
 30
0.0
 10
-16.1497
 20
11.3745
 30
0.0
 10
-16.1497
 20
11.3745
 30
0.0
 10
-16.089
 20
11.6501
 30
0.0
 10
-16.089
 20
11.6501
 30
0.0
 10
-16.089
 20
11.6501
 30
0.0
 10
-16.089
 20
11.6501
 30
0.0
 10
-15.9788
 20
11.8045
 30
0.0
 10
-15.9788
 20
11.8045
 30
0.0
 10
-15.9788
 20
11.8045
 30
0.0
 10
-15.9788
 20
11.8045
 30
0.0
 10
-15.8024
 20
11.9919
 30
0.0
 10
-15.8024
 20
11.9919
 30
0.0
 10
-15.8024
 20
11.9919
 30
0.0
 10
-15.8024
 20
11.9919
 30
0.0
 10
-15.6425
 20
12.0691
 30
0.0
 10
-15.6425
 20
12.0691
 30
0.0
 10
-15.6425
 20
12.0691
 30
0.0
 10
-15.6425
 20
12.0691
 30
0.0
 10
-15.4606
 20
12.1132
 30
0.0
 10
-15.4606
 20
12.1132
 30
0.0
 10
-15.4606
 20
12.1132
 30
0.0
 10
-15.4606
 20
12.1132
 30
0.0
 10
-15.2814
 20
12.1686
 30
0.0
 10
-15.2814
 20
12.1686
 30
0.0
  0
SPLINE
  5
10B
330
1F
100
AcDbEntity
  8
Ilustrace
  6
New Line3
 62
   250
370
    15
100
AcDbSpline
210
0.0
220
0.0
230
1.0
 70
    24
 71
     3
 72
     8
 73
     4
 74
     0
 42
0.0000000001
 43
0.0000000001
 40
0.0
 40
0.0
 40
0.0
 40
0.0
 40
1.0
 40
1.0
 40
1.0
 40
1.0
 10
-6.0131
 20
0.9841
 30
0.0
 10
-6.0131
 20
0.9841
 30
0.0
 10
-6.0131
 20
8.3704
 30
0.0
 10
-6.0131
 20
8.3704
 30
0.0
  0
SPLINE
  5
10D
330
1F
100
AcDbEntity
  8
Ilustrace
  6
New Line4
 62
   250
370
    15
100
AcDbSpline
210
0.0
220
0.0
230
1.0
 70
    24
 71
     3
 72
     8
 73
     4
 74
     0
 42
0.0000000001
 43
0.0000000001
 40
0.0
 40
0.0
 40
0.0
 40
0.0
 40
1.0
 40
1.0
 40
1.0
 40
1.0
 10
1.4614
 20
0.984
 30
0.0
 10
1.4614
 20
0.984
 30
0.0
 10
1.4614
 20
8.3703
 30
0.0
 10
1.4614
 20
8.3703
 30
0.0
  0
SPLINE
  5
10F
330
1F
100
AcDbEntity
  8
Ilustrace
  6
New Line5
 62
   250
370
    15
100
AcDbSpline
210
0.0
220
0.0
230
1.0
 70
    24
 71
     3
 72
     8
 73
     4
 74
     0
 42
0.0000000001
 43
0.0000000001
 40
0.0
 40
0.0
 40
0.0
 40
0.0
 40
1.0
 40
1.0
 40
1.0
 40
1.0
 10
-3.75
 20
5.2061
 30
0.0
 10
-3.75
 20
5.2061
 30
0.0
 10
-8.5014
 20
5.2061
 30
0.0
 10
-8.5014
 20
5.2061
 30
0.0
  0
SPLINE
  5
111
330
1F
100
AcDbEntity
  8
Ilustrace
  6
New Line6
 62
   250
370
    15
100
AcDbSpline
210
0.0
220
0.0
230
1.0
 70
    24
 71
     3
 72
     8
 73
     4
 74
     0
 42
0.0000000001
 43
0.0000000001
 40
0.0
 40
0.0
 40
0.0
 40
0.0
 40
1.0
 40
1.0
 40
1.0
 40
1.0
 10
3.7245
 20
5.206
 30
0.0
 10
3.7245
 20
5.206
 30
0.0
 10
-1.0269
 20
5.206
 30
0.0
 10
-1.0269
 20
5.206
 30
0.0
  0
SPLINE
  5
113
330
1F
100
AcDbEntity
  8
Ilustrace
 62
   250
370
    30
100
AcDbSpline
210
0.0
220
0.0
230
1.0
 70
    11
 71
     3
 72
    36
 73
    32
 74
     0
 42
0.0000000001
 43
0.0000000001
 40
0.0
 40
0.0
 40
0.0
 40
0.0
 40
0.1111111111111111
 40
0.1111111111111111
 40
0.1111111111111111
 40
0.1111111111111111
 40
0.2222222222222222
 40
0.2222222222222222
 40
0.2222222222222222
 40
0.2222222222222222
 40
0.3333333333333333
 40
0.3333333333333333
 40
0.3333333333333333
 40
0.3333333333333333
 40
0.4444444444444444
 40
0.4444444444444444
 40
0.4444444444444444
 40
0.4444444444444444
 40
0.5555555555555556
 40
0.5555555555555556
 40
0.5555555555555556
 40
0.5555555555555556
 40
0.6666666666666666
 40
0.6666666666666666
 40
0.6666666666666666
 40
0.6666666666666666
 40
0.7777777777777778
 40
0.7777777777777778
 40
0.7777777777777778
 40
0.7777777777777778
 40
1.0
 40
1.0
 40
1.0
 40
1.0
 10
-6.5567
 20
5.2179
 30
0.0
 10
-6.5523
 20
5.1197
 30
0.0
 10
-6.542
 20
5.0351
 30
0.0
 10
-6.4931
 20
4.9473
 30
0.0
 10
-6.4931
 20
4.9473
 30
0.0
 10
-6.4474
 20
4.865
 30
0.0
 10
-6.3788
 20
4.7965
 30
0.0
 10
-6.2965
 20
4.7506
 30
0.0
 10
-6.2965
 20
4.7506
 30
0.0
 10
-6.2418
 20
4.7203
 30
0.0
 10
-6.1817
 20
4.7
 30
0.0
 10
-6.1195
 20
4.6914
 30
0.0
 10
-6.1195
 20
4.6914
 30
0.0
 10
-5.67
 20
4.6287
 30
0.0
 10
-5.3687
 20
5.1697
 30
0.0
 10
-5.6586
 20
5.5189
 30
0.0
 10
-5.6586
 20
5.5189
 30
0.0
 10
-5.6987
 20
5.5673
 30
0.0
 10
-5.7475
 20
5.6076
 30
0.0
 10
-5.8022
 20
5.6381
 30
0.0
 10
-5.8022
 20
5.6381
 30
0.0
 10
-5.89
 20
5.687
 30
0.0
 10
-5.9747
 20
5.6974
 30
0.0
 10
-6.0729
 20
5.7017
 30
0.0
 10
-6.0729
 20
5.7017
 30
0.0
 10
-6.2662
 20
5.675
 30
0.0
 10
-6.4315
 20
5.5863
 30
0.0
 10
-6.514
 20
5.3996
 30
0.0
 10
-6.514
 20
5.3996
 30
0.0
 10
-6.548
 20
5.3229
 30
0.0
 10
-6.5454
 20
5.3
 30
0.0
 10
-6.5567
 20
5.2179
 30
0.0
  0
SPLINE
  5
114
330
1F
100
AcDbEntity
  8
Ilustrace
 62
   250
370
    30
100
AcDbSpline
210
0.0
220
0.0
230
1.0
 70
     8
 71
     3
 72
    28
 73
    24
 74
     0
 42
0.0000000001
 43
0.0000000001
 40
0.0
 40
0.0
 40
0.0
 40
0.0
 40
0.1428571428571428
 40
0.1428571428571428
 40
0.1428571428571428
 40
0.1428571428571428
 40
0.2857142857142857
 40
0.2857142857142857
 40
0.2857142857142857
 40
0.2857142857142857
 40
0.4285714285714285
 40
0.4285714285714285
 40
0.4285714285714285
 40
0.4285714285714285
 40
0.5714285714285714
 40
0.5714285714285714
 40
0.5714285714285714
 40
0.5714285714285714
 40
0.7142857142857143
 40
0.7142857142857143
 40
0.7142857142857143
 40
0.7142857142857143
 40
1.0
 40
1.0
 40
1.0
 40
1.0
 10
-6.6844
 20
5.1945
 30
0.0
 10
-6.6654
 20
5.05
 30
0.0
 10
-6.674
 20
5.0063
 30
0.0
 10
-6.5993
 20
4.877
 30
0.0
 10
-6.5993
 20
4.877
 30
0.0
 10
-6.5435
 20
4.7805
 30
0.0
 10
-6.4634
 20
4.7003
 30
0.0
 10
-6.367
 20
4.6446
 30
0.0
 10
-6.367
 20
4.6446
 30
0.0
 10
-5.9512
 20
4.4047
 30
0.0
 10
-5.4146
 20
4.7146
 30
0.0
 10
-5.4146
 20
5.1945
 30
0.0
 10
-5.4146
 20
5.1945
 30
0.0
 10
-5.4146
 20
5.3058
 30
0.0
 10
-5.4439
 20
5.4154
 30
0.0
 10
-5.4996
 20
5.512
 30
0.0
 10
-5.4996
 20
5.512
 30
0.0
 10
-5.5552
 20
5.6084
 30
0.0
 10
-5.6355
 20
5.6886
 30
0.0
 10
-5.732
 20
5.7443
 30
0.0
 10
-5.732
 20
5.7443
 30
0.0
 10
-5.8615
 20
5.819
 30
0.0
 10
-5.905
 20
5.8104
 30
0.0
 10
-6.0494
 20
5.8294
 30
0.0
  0
SPLINE
  5
115
330
1F
100
AcDbEntity
  8
Ilustrace
 62
   250
370
    30
100
AcDbSpline
210
0.0
220
0.0
230
1.0
 70
    24
 71
     3
 72
     8
 73
     4
 74
     0
 42
0.0000000001
 43
0.0000000001
 40
0.0
 40
0.0
 40
0.0
 40
0.0
 40
1.0
 40
1.0
 40
1.0
 40
1.0
 10
-6.0494
 20
5.8294
 30
0.0
 10
-6.0494
 20
5.8294
 30
0.0
 10
-6.2137
 20
5.8077
 30
0.0
 10
-6.2137
 20
5.8077
 30
0.0
  0
SPLINE
  5
116
330
1F
100
AcDbEntity
  8
Ilustrace
 62
   250
370
    30
100
AcDbSpline
210
0.0
220
0.0
230
1.0
 70
     8
 71
     3
 72
     8
 73
     4
 74
     0
 42
0.0000000001
 43
0.0000000001
 40
0.0
 40
0.0
 40
0.0
 40
0.0
 40
1.0
 40
1.0
 40
1.0
 40
1.0
 10
-6.2137
 20
5.8077
 30
0.0
 10
-6.4309
 20
5.7495
 30
0.0
 10
-6.6045
 20
5.576
 30
0.0
 10
-6.6626
 20
5.3588
 30
0.0
  0
SPLINE
  5
117
330
1F
100
AcDbEntity
  8
Ilustrace
 62
   250
370
    30
100
AcDbSpline
210
0.0
220
0.0
230
1.0
 70
    24
 71
     3
 72
     8
 73
     4
 74
     0
 42
0.0000000001
 43
0.0000000001
 40
0.0
 40
0.0
 40
0.0
 40
0.0
 40
1.0
 40
1.0
 40
1.0
 40
1.0
 10
-6.6626
 20
5.3588
 30
0.0
 10
-6.6626
 20
5.3588
 30
0.0
 10
-6.6844
 20
5.1945
 30
0.0
 10
-6.6844
 20
5.1945
 30
0.0
  0
SPLINE
  5
118
330
1F
100
AcDbEntity
  8
Ilustrace
 62
   250
370
    30
100
AcDbSpline
210
0.0
220
0.0
230
1.0
 70
     8
 71
     3
 72
    12
 73
     8
 74
     0
 42
0.0000000001
 43
0.0000000001
 40
0.0
 40
0.0
 40
0.0
 40
0.0
 40
0.3333333333333333
 40
0.3333333333333333
 40
0.3333333333333333
 40
0.3333333333333333
 40
1.0
 40
1.0
 40
1.0
 40
1.0
 10
-5.351
 20
3.6258
 30
0.0
 10
-5.595
 20
3.5097
 30
0.0
 10
-5.8421
 20
3.4839
 30
0.0
 10
-6.1082
 20
3.4748
 30
0.0
 10
-6.1082
 20
3.4748
 30
0.0
 10
-6.3389
 20
3.4985
 30
0.0
 10
-6.5322
 20
3.5396
 30
0.0
 10
-6.7478
 20
3.6246
 30
0.0
  0
SPLINE
  5
119
330
1F
100
AcDbEntity
  8
Ilustrace
 62
   250
370
    30
100
AcDbSpline
210
0.0
220
0.0
230
1.0
 70
    11
 71
     3
 72
    36
 73
    32
 74
     0
 42
0.0000000001
 43
0.0000000001
 40
0.0
 40
0.0
 40
0.0
 40
0.0
 40
0.1111111111111111
 40
0.1111111111111111
 40
0.1111111111111111
 40
0.1111111111111111
 40
0.2222222222222222
 40
0.2222222222222222
 40
0.2222222222222222
 40
0.2222222222222222
 40
0.3333333333333333
 40
0.3333333333333333
 40
0.3333333333333333
 40
0.3333333333333333
 40
0.4444444444444444
 40
0.4444444444444444
 40
0.4444444444444444
 40
0.4444444444444444
 40
0.5555555555555556
 40
0.5555555555555556
 40
0.5555555555555556
 40
0.5555555555555556
 40
0.6666666666666666
 40
0.6666666666666666
 40
0.6666666666666666
 40
0.6666666666666666
 40
0.7777777777777778
 40
0.7777777777777778
 40
0.7777777777777778
 40
0.7777777777777778
 40
1.0
 40
1.0
 40
1.0
 40
1.0
 10
0.9352
 20
5.2179
 30
0.0
 10
0.9396
 20
5.1197
 30
0.0
 10
0.95
 20
5.0351
 30
0.0
 10
0.9989
 20
4.9473
 30
0.0
 10
0.9989
 20
4.9473
 30
0.0
 10
1.0445
 20
4.865
 30
0.0
 10
1.1133
 20
4.7965
 30
0.0
 10
1.1953
 20
4.7506
 30
0.0
 10
1.1953
 20
4.7506
 30
0.0
 10
1.2503
 20
4.7201
 30
0.0
 10
1.3103
 20
4.7
 30
0.0
 10
1.3724
 20
4.6914
 30
0.0
 10
1.3724
 20
4.6914
 30
0.0
 10
1.822
 20
4.6287
 30
0.0
 10
2.1233
 20
5.1697
 30
0.0
 10
1.8332
 20
5.5189
 30
0.0
 10
1.8332
 20
5.5189
 30
0.0
 10
1.7932
 20
5.5673
 30
0.0
 10
1.7445
 20
5.6076
 30
0.0
 10
1.6898
 20
5.6381
 30
0.0
 10
1.6898
 20
5.6381
 30
0.0
 10
1.6019
 20
5.687
 30
0.0
 10
1.5172
 20
5.6974
 30
0.0
 10
1.419
 20
5.7017
 30
0.0
 10
1.419
 20
5.7017
 30
0.0
 10
1.2259
 20
5.675
 30
0.0
 10
1.0603
 20
5.5863
 30
0.0
 10
0.978
 20
5.3996
 30
0.0
 10
0.978
 20
5.3996
 30
0.0
 10
0.9439
 20
5.3229
 30
0.0
 10
0.9465
 20
5.3
 30
0.0
 10
0.9352
 20
5.2179
 30
0.0
  0
SPLINE
  5
11A
330
1F
100
AcDbEntity
  8
Ilustrace
 62
   250
370
    30
100
AcDbSpline
210
0.0
220
0.0
230
1.0
 70
     8
 71
     3
 72
    28
 73
    24
 74
     0
 42
0.0000000001
 43
0.0000000001
 40
0.0
 40
0.0
 40
0.0
 40
0.0
 40
0.1428571428571428
 40
0.1428571428571428
 40
0.1428571428571428
 40
0.1428571428571428
 40
0.2857142857142857
 40
0.2857142857142857
 40
0.2857142857142857
 40
0.2857142857142857
 40
0.4285714285714285
 40
0.4285714285714285
 40
0.4285714285714285
 40
0.4285714285714285
 40
0.5714285714285714
 40
0.5714285714285714
 40
0.5714285714285714
 40
0.5714285714285714
 40
0.7142857142857143
 40
0.7142857142857143
 40
0.7142857142857143
 40
0.7142857142857143
 40
1.0
 40
1.0
 40
1.0
 40
1.0
 10
0.8077
 20
5.1945
 30
0.0
 10
0.8266
 20
5.05
 30
0.0
 10
0.818
 20
5.0065
 30
0.0
 10
0.8927
 20
4.877
 30
0.0
 10
0.8927
 20
4.877
 30
0.0
 10
0.9485
 20
4.7805
 30
0.0
 10
1.0286
 20
4.7003
 30
0.0
 10
1.1251
 20
4.6446
 30
0.0
 10
1.1251
 20
4.6446
 30
0.0
 10
1.5407
 20
4.4047
 30
0.0
 10
2.0775
 20
4.7146
 30
0.0
 10
2.0775
 20
5.1945
 30
0.0
 10
2.0775
 20
5.1945
 30
0.0
 10
2.0775
 20
5.3058
 30
0.0
 10
2.0482
 20
5.4154
 30
0.0
 10
1.9924
 20
5.512
 30
0.0
 10
1.9924
 20
5.512
 30
0.0
 10
1.9366
 20
5.6084
 30
0.0
 10
1.8564
 20
5.6886
 30
0.0
 10
1.76
 20
5.7443
 30
0.0
 10
1.76
 20
5.7443
 30
0.0
 10
1.6306
 20
5.819
 30
0.0
 10
1.5869
 20
5.8104
 30
0.0
 10
1.4425
 20
5.8294
 30
0.0
  0
SPLINE
  5
11B
330
1F
100
AcDbEntity
  8
Ilustrace
 62
   250
370
    30
100
AcDbSpline
210
0.0
220
0.0
230
1.0
 70
    24
 71
     3
 72
     8
 73
     4
 74
     0
 42
0.0000000001
 43
0.0000000001
 40
0.0
 40
0.0
 40
0.0
 40
0.0
 40
1.0
 40
1.0
 40
1.0
 40
1.0
 10
1.4425
 20
5.8294
 30
0.0
 10
1.4425
 20
5.8294
 30
0.0
 10
1.2782
 20
5.8077
 30
0.0
 10
1.2782
 20
5.8077
 30
0.0
  0
SPLINE
  5
11C
330
1F
100
AcDbEntity
  8
Ilustrace
 62
   250
370
    30
100
AcDbSpline
210
0.0
220
0.0
230
1.0
 70
     8
 71
     3
 72
     8
 73
     4
 74
     0
 42
0.0000000001
 43
0.0000000001
 40
0.0
 40
0.0
 40
0.0
 40
0.0
 40
1.0
 40
1.0
 40
1.0
 40
1.0
 10
1.2782
 20
5.8077
 30
0.0
 10
1.0611
 20
5.7495
 30
0.0
 10
0.8875
 20
5.576
 30
0.0
 10
0.8294
 20
5.3588
 30
0.0
  0
SPLINE
  5
11D
330
1F
100
AcDbEntity
  8
Ilustrace
 62
   250
370
    30
100
AcDbSpline
210
0.0
220
0.0
230
1.0
 70
    24
 71
     3
 72
     8
 73
     4
 74
     0
 42
0.0000000001
 43
0.0000000001
 40
0.0
 40
0.0
 40
0.0
 40
0.0
 40
1.0
 40
1.0
 40
1.0
 40
1.0
 10
0.8294
 20
5.3588
 30
0.0
 10
0.8294
 20
5.3588
 30
0.0
 10
0.8077
 20
5.1945
 30
0.0
 10
0.8077
 20
5.1945
 30
0.0
  0
SPLINE
  5
11E
330
1F
100
AcDbEntity
  8
Ilustrace
 62
   250
370
    30
100
AcDbSpline
210
0.0
220
0.0
230
1.0
 70
     8
 71
     3
 72
    12
 73
     8
 74
     0
 42
0.0000000001
 43
0.0000000001
 40
0.0
 40
0.0
 40
0.0
 40
0.0
 40
0.3333333333333333
 40
0.3333333333333333
 40
0.3333333333333333
 40
0.3333333333333333
 40
1.0
 40
1.0
 40
1.0
 40
1.0
 10
2.141
 20
3.6258
 30
0.0
 10
1.8969
 20
3.5097
 30
0.0
 10
1.6497
 20
3.4839
 30
0.0
 10
1.3837
 20
3.4748
 30
0.0
 10
1.3837
 20
3.4748
 30
0.0
 10
1.1531
 20
3.4985
 30
0.0
 10
0.9599
 20
3.5396
 30
0.0
 10
0.7443
 20
3.6246
 30
0.0
  0
SPLINE
  5
11F
330
1F
100
AcDbEntity
  8
Ilustrace
 62
   250
370
    30
100
AcDbSpline
210
0.0
220
0.0
230
1.0
 70
    24
 71
     3
 72
     8
 73
     4
 74
     0
 42
0.0000000001
 43
0.0000000001
 40
0.0
 40
0.0
 40
0.0
 40
0.0
 40
1.0
 40
1.0
 40
1.0
 40
1.0
 10
-4.6349
 20
5.3431
 30
0.0
 10
-4.6349
 20
5.3431
 30
0.0
 10
-4.6271
 20
5.1945
 30
0.0
 10
-4.6271
 20
5.1945
 30
0.0
  0
SPLINE
  5
120
330
1F
100
AcDbEntity
  8
Ilustrace
 62
   250
370
    30
100
AcDbSpline
210
0.0
220
0.0
230
1.0
 70
    24
 71
     3
 72
     8
 73
     4
 74
     0
 42
0.0000000001
 43
0.0000000001
 40
0.0
 40
0.0
 40
0.0
 40
0.0
 40
1.0
 40
1.0
 40
1.0
 40
1.0
 10
-7.4715
 20
5.1945
 30
0.0
 10
-7.4715
 20
5.1945
 30
0.0
 10
-7.4638
 20
5.0458
 30
0.0
 10
-7.4638
 20
5.0458
 30
0.0
  0
SPLINE
  5
121
330
1F
100
AcDbEntity
  8
Ilustrace
 62
   250
370
    30
100
AcDbSpline
210
0.0
220
0.0
230
1.0
 70
    24
 71
     3
 72
     8
 73
     4
 74
     0
 42
0.0000000001
 43
0.0000000001
 40
0.0
 40
0.0
 40
0.0
 40
0.0
 40
1.0
 40
1.0
 40
1.0
 40
1.0
 10
-6.7605
 20
3.9628
 30
0.0
 10
-6.7605
 20
3.9628
 30
0.0
 10
-6.6279
 20
3.8952
 30
0.0
 10
-6.6279
 20
3.8952
 30
0.0
  0
SPLINE
  5
122
330
1F
100
AcDbEntity
  8
Ilustrace
 62
   250
370
    30
100
AcDbSpline
210
0.0
220
0.0
230
1.0
 70
    24
 71
     3
 72
     8
 73
     4
 74
     0
 42
0.0000000001
 43
0.0000000001
 40
0.0
 40
0.0
 40
0.0
 40
0.0
 40
1.0
 40
1.0
 40
1.0
 40
1.0
 10
-6.2484
 20
3.7862
 30
0.0
 10
-6.2484
 20
3.7862
 30
0.0
 10
-6.0494
 20
3.7722
 30
0.0
 10
-6.0494
 20
3.7722
 30
0.0
  0
SPLINE
  5
123
330
1F
100
AcDbEntity
  8
Ilustrace
 62
   250
370
    30
100
AcDbSpline
210
0.0
220
0.0
230
1.0
 70
     8
 71
     3
 72
     8
 73
     4
 74
     0
 42
0.0000000001
 43
0.0000000001
 40
0.0
 40
0.0
 40
0.0
 40
0.0
 40
1.0
 40
1.0
 40
1.0
 40
1.0
 10
-5.8233
 20
6.1849
 30
0.0
 10
-5.7021
 20
6.1475
 30
0.0
 10
-5.5961
 20
6.1057
 30
0.0
 10
-5.4861
 20
6.0422
 30
0.0
  0
SPLINE
  5
124
330
1F
100
AcDbEntity
  8
Ilustrace
 62
   250
370
    30
100
AcDbSpline
210
0.0
220
0.0
230
1.0
 70
     8
 71
     3
 72
     8
 73
     4
 74
     0
 42
0.0000000001
 43
0.0000000001
 40
0.0
 40
0.0
 40
0.0
 40
0.0
 40
1.0
 40
1.0
 40
1.0
 40
1.0
 10
-5.4578
 20
6.4874
 30
0.0
 10
-5.0824
 20
6.3041
 30
0.0
 10
-4.7894
 20
5.9845
 30
0.0
 10
-4.6795
 20
5.5757
 30
0.0
  0
SPLINE
  5
125
330
1F
100
AcDbEntity
  8
Ilustrace
 62
   250
370
    30
100
AcDbSpline
210
0.0
220
0.0
230
1.0
 70
     8
 71
     3
 72
     8
 73
     4
 74
     0
 42
0.0000000001
 43
0.0000000001
 40
0.0
 40
0.0
 40
0.0
 40
0.0
 40
1.0
 40
1.0
 40
1.0
 40
1.0
 10
-4.7831
 20
4.5484
 30
0.0
 10
-4.6661
 20
4.7685
 30
0.0
 10
-4.6134
 20
5.0308
 30
0.0
 10
-4.6304
 20
5.2789
 30
0.0
  0
SPLINE
  5
126
330
1F
100
AcDbEntity
  8
Ilustrace
 62
   250
370
    30
100
AcDbSpline
210
0.0
220
0.0
230
1.0
 70
     8
 71
     3
 72
     8
 73
     4
 74
     0
 42
0.0000000001
 43
0.0000000001
 40
0.0
 40
0.0
 40
0.0
 40
0.0
 40
1.0
 40
1.0
 40
1.0
 40
1.0
 10
-5.0335
 20
5.7809
 30
0.0
 10
-5.1473
 20
5.8466
 30
0.0
 10
-5.2603
 20
5.9147
 30
0.0
 10
-5.3753
 20
5.9782
 30
0.0
  0
SPLINE
  5
127
330
1F
100
AcDbEntity
  8
Ilustrace
 62
   250
370
    30
100
AcDbSpline
210
0.0
220
0.0
230
1.0
 70
     8
 71
     3
 72
     8
 73
     4
 74
     0
 42
0.0000000001
 43
0.0000000001
 40
0.0
 40
0.0
 40
0.0
 40
0.0
 40
1.0
 40
1.0
 40
1.0
 40
1.0
 10
-5.7076
 20
6.1701
 30
0.0
 10
-5.8202
 20
6.238
 30
0.0
 10
-5.9355
 20
6.3017
 30
0.0
 10
-6.0494
 20
6.3674
 30
0.0
  0
SPLINE
  5
128
330
1F
100
AcDbEntity
  8
Ilustrace
 62
   250
370
    30
100
AcDbSpline
210
0.0
220
0.0
230
1.0
 70
     8
 71
     3
 72
     8
 73
     4
 74
     0
 42
0.0000000001
 43
0.0000000001
 40
0.0
 40
0.0
 40
0.0
 40
0.0
 40
1.0
 40
1.0
 40
1.0
 40
1.0
 10
-7.0646
 20
6.1903
 30
0.0
 10
-7.3441
 20
5.91
 30
0.0
 10
-7.4955
 20
5.5046
 30
0.0
 10
-7.4684
 20
5.1099
 30
0.0
  0
SPLINE
  5
129
330
1F
100
AcDbEntity
  8
Ilustrace
 62
   250
370
    30
100
AcDbSpline
210
0.0
220
0.0
230
1.0
 70
     8
 71
     3
 72
     8
 73
     4
 74
     0
 42
0.0000000001
 43
0.0000000001
 40
0.0
 40
0.0
 40
0.0
 40
0.0
 40
1.0
 40
1.0
 40
1.0
 40
1.0
 10
-7.4193
 20
4.8133
 30
0.0
 10
-7.3165
 20
4.431
 30
0.0
 10
-7.0411
 20
4.0972
 30
0.0
 10
-6.6856
 20
3.9234
 30
0.0
  0
SPLINE
  5
12A
330
1F
100
AcDbEntity
  8
Ilustrace
 62
   250
370
    30
100
AcDbSpline
210
0.0
220
0.0
230
1.0
 70
     8
 71
     3
 72
     8
 73
     4
 74
     0
 42
0.0000000001
 43
0.0000000001
 40
0.0
 40
0.0
 40
0.0
 40
0.0
 40
1.0
 40
1.0
 40
1.0
 40
1.0
 10
-6.4041
 20
3.8174
 30
0.0
 10
-6.3094
 20
3.7921
 30
0.0
 10
-6.2116
 20
3.778
 30
0.0
 10
-6.1137
 20
3.7744
 30
0.0
  0
SPLINE
  5
12B
330
1F
100
AcDbEntity
  8
Ilustrace
 62
   250
370
    30
100
AcDbSpline
210
0.0
220
0.0
230
1.0
 70
     8
 71
     3
 72
     8
 73
     4
 74
     0
 42
0.0000000001
 43
0.0000000001
 40
0.0
 40
0.0
 40
0.0
 40
0.0
 40
1.0
 40
1.0
 40
1.0
 40
1.0
 10
-5.5968
 20
4.2827
 30
0.0
 10
-5.4869
 20
4.3462
 30
0.0
 10
-5.3977
 20
4.4171
 30
0.0
 10
-5.3047
 20
4.5034
 30
0.0
  0
SPLINE
  5
12C
330
1F
100
AcDbEntity
  8
Ilustrace
 62
   250
370
    30
100
AcDbSpline
210
0.0
220
0.0
230
1.0
 70
     8
 71
     3
 72
     8
 73
     4
 74
     0
 42
0.0000000001
 43
0.0000000001
 40
0.0
 40
0.0
 40
0.0
 40
0.0
 40
1.0
 40
1.0
 40
1.0
 40
1.0
 10
-4.7713
 20
4.5705
 30
0.0
 10
-4.8434
 20
4.4349
 30
0.0
 10
-4.9252
 20
4.308
 30
0.0
 10
-5.0342
 20
4.1986
 30
0.0
  0
SPLINE
  5
12D
330
1F
100
AcDbEntity
  8
Ilustrace
 62
   250
370
    30
100
AcDbSpline
210
0.0
220
0.0
230
1.0
 70
     8
 71
     3
 72
     8
 73
     4
 74
     0
 42
0.0000000001
 43
0.0000000001
 40
0.0
 40
0.0
 40
0.0
 40
0.0
 40
1.0
 40
1.0
 40
1.0
 40
1.0
 10
-5.2256
 20
4.0358
 30
0.0
 10
-5.4494
 20
3.8849
 30
0.0
 10
-5.7033
 20
3.7843
 30
0.0
 10
-5.9758
 20
3.7748
 30
0.0
  0
SPLINE
  5
12E
330
1F
100
AcDbEntity
  8
Ilustrace
 62
   250
370
    30
100
AcDbSpline
210
0.0
220
0.0
230
1.0
 70
     8
 71
     3
 72
     8
 73
     4
 74
     0
 42
0.0000000001
 43
0.0000000001
 40
0.0
 40
0.0
 40
0.0
 40
0.0
 40
1.0
 40
1.0
 40
1.0
 40
1.0
 10
-6.7941
 20
4.5034
 30
0.0
 10
-6.7009
 20
4.4171
 30
0.0
 10
-6.612
 20
4.3462
 30
0.0
 10
-6.502
 20
4.2827
 30
0.0
  0
SPLINE
  5
12F
330
1F
100
AcDbEntity
  8
Ilustrace
 62
   250
370
    30
100
AcDbSpline
210
0.0
220
0.0
230
1.0
 70
     8
 71
     3
 72
     8
 73
     4
 74
     0
 42
0.0000000001
 43
0.0000000001
 40
0.0
 40
0.0
 40
0.0
 40
0.0
 40
1.0
 40
1.0
 40
1.0
 40
1.0
 10
-6.0494
 20
4.0214
 30
0.0
 10
-5.9355
 20
4.0871
 30
0.0
 10
-5.8202
 20
4.1508
 30
0.0
 10
-5.7076
 20
4.2187
 30
0.0
  0
SPLINE
  5
130
330
1F
100
AcDbEntity
  8
Ilustrace
 62
   250
370
    30
100
AcDbSpline
210
0.0
220
0.0
230
1.0
 70
     8
 71
     3
 72
     8
 73
     4
 74
     0
 42
0.0000000001
 43
0.0000000001
 40
0.0
 40
0.0
 40
0.0
 40
0.0
 40
1.0
 40
1.0
 40
1.0
 40
1.0
 10
-5.0335
 20
4.608
 30
0.0
 10
-5.1473
 20
4.5421
 30
0.0
 10
-5.2603
 20
4.4741
 30
0.0
 10
-5.3753
 20
4.4105
 30
0.0
  0
SPLINE
  5
131
330
1F
100
AcDbEntity
  8
Ilustrace
 62
   250
370
    30
100
AcDbSpline
210
0.0
220
0.0
230
1.0
 70
     8
 71
     3
 72
     8
 73
     4
 74
     0
 42
0.0000000001
 43
0.0000000001
 40
0.0
 40
0.0
 40
0.0
 40
0.0
 40
1.0
 40
1.0
 40
1.0
 40
1.0
 10
-6.3912
 20
4.2187
 30
0.0
 10
-6.2786
 20
4.151
 30
0.0
 10
-6.1632
 20
4.0871
 30
0.0
 10
-6.0494
 20
4.0214
 30
0.0
  0
SPLINE
  5
132
330
1F
100
AcDbEntity
  8
Ilustrace
 62
   250
370
    30
100
AcDbSpline
210
0.0
220
0.0
230
1.0
 70
     8
 71
     3
 72
     8
 73
     4
 74
     0
 42
0.0000000001
 43
0.0000000001
 40
0.0
 40
0.0
 40
0.0
 40
0.0
 40
1.0
 40
1.0
 40
1.0
 40
1.0
 10
-5.4861
 20
4.3466
 30
0.0
 10
-5.5939
 20
4.2798
 30
0.0
 10
-5.7025
 20
4.2413
 30
0.0
 10
-5.8233
 20
4.204
 30
0.0
  0
SPLINE
  5
133
330
1F
100
AcDbEntity
  8
Ilustrace
 62
   250
370
    30
100
AcDbSpline
210
0.0
220
0.0
230
1.0
 70
     8
 71
     3
 72
     8
 73
     4
 74
     0
 42
0.0000000001
 43
0.0000000001
 40
0.0
 40
0.0
 40
0.0
 40
0.0
 40
1.0
 40
1.0
 40
1.0
 40
1.0
 10
-6.2754
 20
4.204
 30
0.0
 10
-6.3969
 20
4.2415
 30
0.0
 10
-6.5026
 20
4.283
 30
0.0
 10
-6.6127
 20
4.3466
 30
0.0
  0
SPLINE
  5
134
330
1F
100
AcDbEntity
  8
Ilustrace
 62
   250
370
    30
100
AcDbSpline
210
0.0
220
0.0
230
1.0
 70
     8
 71
     3
 72
     8
 73
     4
 74
     0
 42
0.0000000001
 43
0.0000000001
 40
0.0
 40
0.0
 40
0.0
 40
0.0
 40
1.0
 40
1.0
 40
1.0
 40
1.0
 10
-7.0652
 20
5.0026
 30
0.0
 10
-7.0684
 20
4.8712
 30
0.0
 10
-7.0652
 20
4.7392
 30
0.0
 10
-7.0652
 20
4.608
 30
0.0
  0
SPLINE
  5
135
330
1F
100
AcDbEntity
  8
Ilustrace
 62
   250
370
    30
100
AcDbSpline
210
0.0
220
0.0
230
1.0
 70
     8
 71
     3
 72
     8
 73
     4
 74
     0
 42
0.0000000001
 43
0.0000000001
 40
0.0
 40
0.0
 40
0.0
 40
0.0
 40
1.0
 40
1.0
 40
1.0
 40
1.0
 10
-5.296
 20
3.9882
 30
0.0
 10
-5.1837
 20
4.064
 30
0.0
 10
-5.0855
 20
4.1448
 30
0.0
 10
-4.9926
 20
4.2428
 30
0.0
  0
SPLINE
  5
136
330
1F
100
AcDbEntity
  8
Ilustrace
 62
   250
370
    30
100
AcDbSpline
210
0.0
220
0.0
230
1.0
 70
     8
 71
     3
 72
     8
 73
     4
 74
     0
 42
0.0000000001
 43
0.0000000001
 40
0.0
 40
0.0
 40
0.0
 40
0.0
 40
1.0
 40
1.0
 40
1.0
 40
1.0
 10
-5.0335
 20
4.608
 30
0.0
 10
-5.0335
 20
4.7392
 30
0.0
 10
-5.0306
 20
4.8712
 30
0.0
 10
-5.0335
 20
5.0026
 30
0.0
  0
SPLINE
  5
137
330
1F
100
AcDbEntity
  8
Ilustrace
 62
   250
370
    30
100
AcDbSpline
210
0.0
220
0.0
230
1.0
 70
     8
 71
     3
 72
     8
 73
     4
 74
     0
 42
0.0000000001
 43
0.0000000001
 40
0.0
 40
0.0
 40
0.0
 40
0.0
 40
1.0
 40
1.0
 40
1.0
 40
1.0
 10
-4.628
 20
5.2438
 30
0.0
 10
-4.6375
 20
5.3789
 30
0.0
 10
-4.6584
 20
5.5044
 30
0.0
 10
-4.6967
 20
5.634
 30
0.0
  0
SPLINE
  5
138
330
1F
100
AcDbEntity
  8
Ilustrace
 62
   250
370
    30
100
AcDbSpline
210
0.0
220
0.0
230
1.0
 70
     8
 71
     3
 72
     8
 73
     4
 74
     0
 42
0.0000000001
 43
0.0000000001
 40
0.0
 40
0.0
 40
0.0
 40
0.0
 40
1.0
 40
1.0
 40
1.0
 40
1.0
 10
-6.8732
 20
6.3532
 30
0.0
 10
-6.4196
 20
6.659
 30
0.0
 10
-5.8735
 20
6.6901
 30
0.0
 10
-5.3816
 20
6.4501
 30
0.0
  0
SPLINE
  5
139
330
1F
100
AcDbEntity
  8
Ilustrace
 62
   250
370
    30
100
AcDbSpline
210
0.0
220
0.0
230
1.0
 70
     8
 71
     3
 72
     8
 73
     4
 74
     0
 42
0.0000000001
 43
0.0000000001
 40
0.0
 40
0.0
 40
0.0
 40
0.0
 40
1.0
 40
1.0
 40
1.0
 40
1.0
 10
-5.0335
 20
5.1305
 30
0.0
 10
-5.0335
 20
5.2576
 30
0.0
 10
-5.0504
 20
5.3701
 30
0.0
 10
-5.0786
 20
5.4939
 30
0.0
  0
SPLINE
  5
13A
330
1F
100
AcDbEntity
  8
Ilustrace
 62
   250
370
    30
100
AcDbSpline
210
0.0
220
0.0
230
1.0
 70
     8
 71
     3
 72
     8
 73
     4
 74
     0
 42
0.0000000001
 43
0.0000000001
 40
0.0
 40
0.0
 40
0.0
 40
0.0
 40
1.0
 40
1.0
 40
1.0
 40
1.0
 10
-5.5968
 20
6.1062
 30
0.0
 10
-5.4869
 20
6.0426
 30
0.0
 10
-5.3977
 20
5.9718
 30
0.0
 10
-5.3047
 20
5.8854
 30
0.0
  0
SPLINE
  5
13B
330
1F
100
AcDbEntity
  8
Ilustrace
 62
   250
370
    30
100
AcDbSpline
210
0.0
220
0.0
230
1.0
 70
     8
 71
     3
 72
     8
 73
     4
 74
     0
 42
0.0000000001
 43
0.0000000001
 40
0.0
 40
0.0
 40
0.0
 40
0.0
 40
1.0
 40
1.0
 40
1.0
 40
1.0
 10
-5.0335
 20
5.7809
 30
0.0
 10
-5.0335
 20
5.6496
 30
0.0
 10
-5.031
 20
5.5177
 30
0.0
 10
-5.0335
 20
5.3862
 30
0.0
  0
SPLINE
  5
13C
330
1F
100
AcDbEntity
  8
Ilustrace
 62
   250
370
    30
100
AcDbSpline
210
0.0
220
0.0
230
1.0
 70
     8
 71
     3
 72
     8
 73
     4
 74
     0
 42
0.0000000001
 43
0.0000000001
 40
0.0
 40
0.0
 40
0.0
 40
0.0
 40
1.0
 40
1.0
 40
1.0
 40
1.0
 10
-5.0335
 20
5.2584
 30
0.0
 10
-5.0335
 20
5.1312
 30
0.0
 10
-5.0504
 20
5.0188
 30
0.0
 10
-5.0786
 20
4.895
 30
0.0
  0
SPLINE
  5
13D
330
1F
100
AcDbEntity
  8
Ilustrace
 62
   250
370
    30
100
AcDbSpline
210
0.0
220
0.0
230
1.0
 70
     8
 71
     3
 72
     8
 73
     4
 74
     0
 42
0.0000000001
 43
0.0000000001
 40
0.0
 40
0.0
 40
0.0
 40
0.0
 40
1.0
 40
1.0
 40
1.0
 40
1.0
 10
-6.0494
 20
6.3674
 30
0.0
 10
-6.1632
 20
6.3017
 30
0.0
 10
-6.2786
 20
6.238
 30
0.0
 10
-6.3912
 20
6.1701
 30
0.0
  0
SPLINE
  5
13E
330
1F
100
AcDbEntity
  8
Ilustrace
 62
   250
370
    30
100
AcDbSpline
210
0.0
220
0.0
230
1.0
 70
     8
 71
     3
 72
     8
 73
     4
 74
     0
 42
0.0000000001
 43
0.0000000001
 40
0.0
 40
0.0
 40
0.0
 40
0.0
 40
1.0
 40
1.0
 40
1.0
 40
1.0
 10
-6.8028
 20
6.4008
 30
0.0
 10
-6.9152
 20
6.325
 30
0.0
 10
-7.0133
 20
6.2441
 30
0.0
 10
-7.1063
 20
6.146
 30
0.0
  0
SPLINE
  5
13F
330
1F
100
AcDbEntity
  8
Ilustrace
 62
   250
370
    30
100
AcDbSpline
210
0.0
220
0.0
230
1.0
 70
    24
 71
     3
 72
     8
 73
     4
 74
     0
 42
0.0000000001
 43
0.0000000001
 40
0.0
 40
0.0
 40
0.0
 40
0.0
 40
1.0
 40
1.0
 40
1.0
 40
1.0
 10
-7.0652
 20
5.3862
 30
0.0
 10
-7.0652
 20
5.3862
 30
0.0
 10
-7.0663
 20
5.4861
 30
0.0
 10
-7.0663
 20
5.4861
 30
0.0
  0
SPLINE
  5
140
330
1F
100
AcDbEntity
  8
Ilustrace
 62
   250
370
    30
100
AcDbSpline
210
0.0
220
0.0
230
1.0
 70
     8
 71
     3
 72
     8
 73
     4
 74
     0
 42
0.0000000001
 43
0.0000000001
 40
0.0
 40
0.0
 40
0.0
 40
0.0
 40
1.0
 40
1.0
 40
1.0
 40
1.0
 10
-6.2754
 20
6.1849
 30
0.0
 10
-6.4845
 20
6.1203
 30
0.0
 10
-6.6337
 20
6.0342
 30
0.0
 10
-6.7941
 20
5.8854
 30
0.0
  0
SPLINE
  5
141
330
1F
100
AcDbEntity
  8
Ilustrace
 62
   250
370
    30
100
AcDbSpline
210
0.0
220
0.0
230
1.0
 70
     8
 71
     3
 72
     8
 73
     4
 74
     0
 42
0.0000000001
 43
0.0000000001
 40
0.0
 40
0.0
 40
0.0
 40
0.0
 40
1.0
 40
1.0
 40
1.0
 40
1.0
 10
-7.0652
 20
5.1305
 30
0.0
 10
-7.0652
 20
5.2576
 30
0.0
 10
-7.0483
 20
5.3701
 30
0.0
 10
-7.0201
 20
5.4939
 30
0.0
  0
SPLINE
  5
142
330
1F
100
AcDbEntity
  8
Ilustrace
 62
   250
370
    30
100
AcDbSpline
210
0.0
220
0.0
230
1.0
 70
     8
 71
     3
 72
     8
 73
     4
 74
     0
 42
0.0000000001
 43
0.0000000001
 40
0.0
 40
0.0
 40
0.0
 40
0.0
 40
1.0
 40
1.0
 40
1.0
 40
1.0
 10
-7.0652
 20
5.7809
 30
0.0
 10
-6.9638
 20
5.8396
 30
0.0
 10
-6.861
 20
5.9037
 30
0.0
 10
-6.7569
 20
5.9591
 30
0.0
  0
SPLINE
  5
143
330
1F
100
AcDbEntity
  8
Ilustrace
 62
   250
370
    30
100
AcDbSpline
210
0.0
220
0.0
230
1.0
 70
    24
 71
     3
 72
     8
 73
     4
 74
     0
 42
0.0000000001
 43
0.0000000001
 40
0.0
 40
0.0
 40
0.0
 40
0.0
 40
1.0
 40
1.0
 40
1.0
 40
1.0
 10
-6.8106
 20
5.9293
 30
0.0
 10
-6.8106
 20
5.9293
 30
0.0
 10
-6.7235
 20
5.9782
 30
0.0
 10
-6.7235
 20
5.9782
 30
0.0
  0
SPLINE
  5
144
330
1F
100
AcDbEntity
  8
Ilustrace
 62
   250
370
    30
100
AcDbSpline
210
0.0
220
0.0
230
1.0
 70
     8
 71
     3
 72
     8
 73
     4
 74
     0
 42
0.0000000001
 43
0.0000000001
 40
0.0
 40
0.0
 40
0.0
 40
0.0
 40
1.0
 40
1.0
 40
1.0
 40
1.0
 10
-7.0652
 20
5.4247
 30
0.0
 10
-7.0694
 20
5.5427
 30
0.0
 10
-7.0652
 20
5.6638
 30
0.0
 10
-7.0652
 20
5.7809
 30
0.0
  0
SPLINE
  5
145
330
1F
100
AcDbEntity
  8
Ilustrace
 62
   250
370
    30
100
AcDbSpline
210
0.0
220
0.0
230
1.0
 70
     8
 71
     3
 72
     8
 73
     4
 74
     0
 42
0.0000000001
 43
0.0000000001
 40
0.0
 40
0.0
 40
0.0
 40
0.0
 40
1.0
 40
1.0
 40
1.0
 40
1.0
 10
-7.4708
 20
5.145
 30
0.0
 10
-7.4613
 20
5.0101
 30
0.0
 10
-7.4404
 20
4.8846
 30
0.0
 10
-7.4019
 20
4.7549
 30
0.0
  0
SPLINE
  5
146
330
1F
100
AcDbEntity
  8
Ilustrace
 62
   250
370
    30
100
AcDbSpline
210
0.0
220
0.0
230
1.0
 70
     8
 71
     3
 72
     8
 73
     4
 74
     0
 42
0.0000000001
 43
0.0000000001
 40
0.0
 40
0.0
 40
0.0
 40
0.0
 40
1.0
 40
1.0
 40
1.0
 40
1.0
 10
-6.3452
 20
3.8033
 30
0.0
 10
-6.4765
 20
3.8349
 30
0.0
 10
-6.5956
 20
3.8794
 30
0.0
 10
-6.7173
 20
3.9389
 30
0.0
  0
SPLINE
  5
147
330
1F
100
AcDbEntity
  8
Ilustrace
 62
   250
370
    30
100
AcDbSpline
210
0.0
220
0.0
230
1.0
 70
     8
 71
     3
 72
     8
 73
     4
 74
     0
 42
0.0000000001
 43
0.0000000001
 40
0.0
 40
0.0
 40
0.0
 40
0.0
 40
1.0
 40
1.0
 40
1.0
 40
1.0
 10
-7.0652
 20
4.608
 30
0.0
 10
-6.9515
 20
4.5421
 30
0.0
 10
-6.8386
 20
4.4741
 30
0.0
 10
-6.7235
 20
4.4105
 30
0.0
  0
SPLINE
  5
148
330
1F
100
AcDbEntity
  8
Ilustrace
 62
   250
370
    30
100
AcDbSpline
210
0.0
220
0.0
230
1.0
 70
     8
 71
     3
 72
     8
 73
     4
 74
     0
 42
0.0000000001
 43
0.0000000001
 40
0.0
 40
0.0
 40
0.0
 40
0.0
 40
1.0
 40
1.0
 40
1.0
 40
1.0
 10
-7.0652
 20
5.2584
 30
0.0
 10
-7.0652
 20
5.1312
 30
0.0
 10
-7.0483
 20
5.0188
 30
0.0
 10
-7.0201
 20
4.895
 30
0.0
  0
SPLINE
  5
149
330
1F
100
AcDbEntity
  8
Ilustrace
 62
   250
370
    30
100
AcDbSpline
210
0.0
220
0.0
230
1.0
 70
     8
 71
     3
 72
    12
 73
     8
 74
     0
 42
0.0000000001
 43
0.0000000001
 40
0.0
 40
0.0
 40
0.0
 40
0.0
 40
0.3333333333333333
 40
0.3333333333333333
 40
0.3333333333333333
 40
0.3333333333333333
 40
1.0
 40
1.0
 40
1.0
 40
1.0
 10
-5.9506
 20
3.7757
 30
0.0
 10
-5.9506
 20
3.7757
 30
0.0
 10
-6.0494
 20
3.7722
 30
0.0
 10
-6.0494
 20
3.7722
 30
0.0
 10
-6.0494
 20
3.7722
 30
0.0
 10
-6.0494
 20
3.7722
 30
0.0
 10
-6.1494
 20
3.7757
 30
0.0
 10
-6.1494
 20
3.7757
 30
0.0
  0
SPLINE
  5
14A
330
1F
100
AcDbEntity
  8
Ilustrace
 62
   250
370
    30
100
AcDbSpline
210
0.0
220
0.0
230
1.0
 70
    24
 71
     3
 72
     8
 73
     4
 74
     0
 42
0.0000000001
 43
0.0000000001
 40
0.0
 40
0.0
 40
0.0
 40
0.0
 40
1.0
 40
1.0
 40
1.0
 40
1.0
 10
-7.2811
 20
4.4834
 30
0.0
 10
-7.2811
 20
4.4834
 30
0.0
 10
-7.4231
 20
4.8264
 30
0.0
 10
-7.4231
 20
4.8264
 30
0.0
  0
SPLINE
  5
14B
330
1F
100
AcDbEntity
  8
Ilustrace
 62
   250
370
    30
100
AcDbSpline
210
0.0
220
0.0
230
1.0
 70
     8
 71
     3
 72
    20
 73
    16
 74
     0
 42
0.0000000001
 43
0.0000000001
 40
0.0
 40
0.0
 40
0.0
 40
0.0
 40
0.2
 40
0.2
 40
0.2
 40
0.2
 40
0.4
 40
0.4
 40
0.4
 40
0.4
 40
0.6
 40
0.6
 40
0.6
 40
0.6
 40
1.0
 40
1.0
 40
1.0
 40
1.0
 10
-7.4231
 20
4.8264
 30
0.0
 10
-7.4878
 20
5.0674
 30
0.0
 10
-7.4878
 20
5.3213
 30
0.0
 10
-7.4231
 20
5.5625
 30
0.0
 10
-7.4231
 20
5.5625
 30
0.0
 10
-7.185
 20
6.4516
 30
0.0
 10
-6.1353
 20
6.8863
 30
0.0
 10
-5.3383
 20
6.4262
 30
0.0
 10
-5.3383
 20
6.4262
 30
0.0
 10
-4.5412
 20
5.9659
 30
0.0
 10
-4.393
 20
4.8396
 30
0.0
 10
-5.0437
 20
4.1888
 30
0.0
 10
-5.0437
 20
4.1888
 30
0.0
 10
-5.2203
 20
4.0123
 30
0.0
 10
-5.4402
 20
3.8852
 30
0.0
 10
-5.6814
 20
3.8207
 30
0.0
  0
SPLINE
  5
14C
330
1F
100
AcDbEntity
  8
Ilustrace
 62
   250
370
    30
100
AcDbSpline
210
0.0
220
0.0
230
1.0
 70
     8
 71
     3
 72
    12
 73
     8
 74
     0
 42
0.0000000001
 43
0.0000000001
 40
0.0
 40
0.0
 40
0.0
 40
0.0
 40
0.3333333333333333
 40
0.3333333333333333
 40
0.3333333333333333
 40
0.3333333333333333
 40
1.0
 40
1.0
 40
1.0
 40
1.0
 10
-5.6814
 20
3.8207
 30
0.0
 10
-5.6814
 20
3.8207
 30
0.0
 10
-6.0494
 20
3.7722
 30
0.0
 10
-6.0494
 20
3.7722
 30
0.0
 10
-6.0494
 20
3.7722
 30
0.0
 10
-6.0494
 20
3.7722
 30
0.0
 10
-6.4175
 20
3.8207
 30
0.0
 10
-6.4175
 20
3.8207
 30
0.0
  0
SPLINE
  5
14D
330
1F
100
AcDbEntity
  8
Ilustrace
 62
   250
370
    30
100
AcDbSpline
210
0.0
220
0.0
230
1.0
 70
     8
 71
     3
 72
     8
 73
     4
 74
     0
 42
0.0000000001
 43
0.0000000001
 40
0.0
 40
0.0
 40
0.0
 40
0.0
 40
1.0
 40
1.0
 40
1.0
 40
1.0
 10
-6.4175
 20
3.8207
 30
0.0
 10
-6.6586
 20
3.8852
 30
0.0
 10
-6.8785
 20
4.0123
 30
0.0
 10
-7.0551
 20
4.1888
 30
0.0
  0
SPLINE
  5
14E
330
1F
100
AcDbEntity
  8
Ilustrace
 62
   250
370
    30
100
AcDbSpline
210
0.0
220
0.0
230
1.0
 70
    24
 71
     3
 72
     8
 73
     4
 74
     0
 42
0.0000000001
 43
0.0000000001
 40
0.0
 40
0.0
 40
0.0
 40
0.0
 40
1.0
 40
1.0
 40
1.0
 40
1.0
 10
-7.0551
 20
4.1888
 30
0.0
 10
-7.0551
 20
4.1888
 30
0.0
 10
-7.2811
 20
4.4834
 30
0.0
 10
-7.2811
 20
4.4834
 30
0.0
  0
SPLINE
  5
14F
330
1F
100
AcDbEntity
  8
Ilustrace
 62
   250
370
    30
100
AcDbSpline
210
0.0
220
0.0
230
1.0
 70
     8
 71
     3
 72
     8
 73
     4
 74
     0
 42
0.0000000001
 43
0.0000000001
 40
0.0
 40
0.0
 40
0.0
 40
0.0
 40
1.0
 40
1.0
 40
1.0
 40
1.0
 10
-6.7941
 20
4.5034
 30
0.0
 10
-6.8957
 20
4.6309
 30
0.0
 10
-6.9606
 20
4.7433
 30
0.0
 10
-7.0201
 20
4.895
 30
0.0
  0
SPLINE
  5
150
330
1F
100
AcDbEntity
  8
Ilustrace
 62
   250
370
    30
100
AcDbSpline
210
0.0
220
0.0
230
1.0
 70
     8
 71
     3
 72
     8
 73
     4
 74
     0
 42
0.0000000001
 43
0.0000000001
 40
0.0
 40
0.0
 40
0.0
 40
0.0
 40
1.0
 40
1.0
 40
1.0
 40
1.0
 10
-6.2754
 20
4.204
 30
0.0
 10
-6.1143
 20
4.1797
 30
0.0
 10
-5.9847
 20
4.1797
 30
0.0
 10
-5.8233
 20
4.204
 30
0.0
  0
SPLINE
  5
151
330
1F
100
AcDbEntity
  8
Ilustrace
 62
   250
370
    30
100
AcDbSpline
210
0.0
220
0.0
230
1.0
 70
     8
 71
     3
 72
     8
 73
     4
 74
     0
 42
0.0000000001
 43
0.0000000001
 40
0.0
 40
0.0
 40
0.0
 40
0.0
 40
1.0
 40
1.0
 40
1.0
 40
1.0
 10
-5.3047
 20
4.5034
 30
0.0
 10
-5.203
 20
4.6309
 30
0.0
 10
-5.1383
 20
4.7433
 30
0.0
 10
-5.0786
 20
4.895
 30
0.0
  0
SPLINE
  5
152
330
1F
100
AcDbEntity
  8
Ilustrace
 62
   250
370
    30
100
AcDbSpline
210
0.0
220
0.0
230
1.0
 70
     8
 71
     3
 72
     8
 73
     4
 74
     0
 42
0.0000000001
 43
0.0000000001
 40
0.0
 40
0.0
 40
0.0
 40
0.0
 40
1.0
 40
1.0
 40
1.0
 40
1.0
 10
-6.7941
 20
5.8854
 30
0.0
 10
-6.8957
 20
5.7579
 30
0.0
 10
-6.9606
 20
5.6457
 30
0.0
 10
-7.0201
 20
5.4939
 30
0.0
  0
SPLINE
  5
153
330
1F
100
AcDbEntity
  8
Ilustrace
 62
   250
370
    30
100
AcDbSpline
210
0.0
220
0.0
230
1.0
 70
     8
 71
     3
 72
     8
 73
     4
 74
     0
 42
0.0000000001
 43
0.0000000001
 40
0.0
 40
0.0
 40
0.0
 40
0.0
 40
1.0
 40
1.0
 40
1.0
 40
1.0
 10
-6.2754
 20
6.1849
 30
0.0
 10
-6.1143
 20
6.2091
 30
0.0
 10
-5.9847
 20
6.2091
 30
0.0
 10
-5.8233
 20
6.1849
 30
0.0
  0
SPLINE
  5
154
330
1F
100
AcDbEntity
  8
Ilustrace
 62
   250
370
    30
100
AcDbSpline
210
0.0
220
0.0
230
1.0
 70
     8
 71
     3
 72
     8
 73
     4
 74
     0
 42
0.0000000001
 43
0.0000000001
 40
0.0
 40
0.0
 40
0.0
 40
0.0
 40
1.0
 40
1.0
 40
1.0
 40
1.0
 10
-5.3047
 20
5.8854
 30
0.0
 10
-5.203
 20
5.7579
 30
0.0
 10
-5.1383
 20
5.6457
 30
0.0
 10
-5.0786
 20
5.4939
 30
0.0
  0
SPLINE
  5
155
330
1F
100
AcDbEntity
  8
Ilustrace
 62
   250
370
    30
100
AcDbSpline
210
0.0
220
0.0
230
1.0
 70
    24
 71
     3
 72
     8
 73
     4
 74
     0
 42
0.0000000001
 43
0.0000000001
 40
0.0
 40
0.0
 40
0.0
 40
0.0
 40
1.0
 40
1.0
 40
1.0
 40
1.0
 10
0.0204
 20
5.1945
 30
0.0
 10
0.0204
 20
5.1945
 30
0.0
 10
0.0282
 20
5.0458
 30
0.0
 10
0.0282
 20
5.0458
 30
0.0
  0
SPLINE
  5
156
330
1F
100
AcDbEntity
  8
Ilustrace
 62
   250
370
    30
100
AcDbSpline
210
0.0
220
0.0
230
1.0
 70
    24
 71
     3
 72
     8
 73
     4
 74
     0
 42
0.0000000001
 43
0.0000000001
 40
0.0
 40
0.0
 40
0.0
 40
0.0
 40
1.0
 40
1.0
 40
1.0
 40
1.0
 10
2.8569
 20
5.3431
 30
0.0
 10
2.8569
 20
5.3431
 30
0.0
 10
2.8648
 20
5.1945
 30
0.0
 10
2.8648
 20
5.1945
 30
0.0
  0
SPLINE
  5
157
330
1F
100
AcDbEntity
  8
Ilustrace
 62
   250
370
    30
100
AcDbSpline
210
0.0
220
0.0
230
1.0
 70
    24
 71
     3
 72
     8
 73
     4
 74
     0
 42
0.0000000001
 43
0.0000000001
 40
0.0
 40
0.0
 40
0.0
 40
0.0
 40
1.0
 40
1.0
 40
1.0
 40
1.0
 10
0.7314
 20
3.9628
 30
0.0
 10
0.7314
 20
3.9628
 30
0.0
 10
0.8641
 20
3.8952
 30
0.0
 10
0.8641
 20
3.8952
 30
0.0
  0
SPLINE
  5
158
330
1F
100
AcDbEntity
  8
Ilustrace
 62
   250
370
    30
100
AcDbSpline
210
0.0
220
0.0
230
1.0
 70
     8
 71
     3
 72
     8
 73
     4
 74
     0
 42
0.0000000001
 43
0.0000000001
 40
0.0
 40
0.0
 40
0.0
 40
0.0
 40
1.0
 40
1.0
 40
1.0
 40
1.0
 10
1.6687
 20
6.1849
 30
0.0
 10
1.79
 20
6.1475
 30
0.0
 10
1.8959
 20
6.1057
 30
0.0
 10
2.0058
 20
6.0422
 30
0.0
  0
SPLINE
  5
159
330
1F
100
AcDbEntity
  8
Ilustrace
 62
   250
370
    30
100
AcDbSpline
210
0.0
220
0.0
230
1.0
 70
     8
 71
     3
 72
     8
 73
     4
 74
     0
 42
0.0000000001
 43
0.0000000001
 40
0.0
 40
0.0
 40
0.0
 40
0.0
 40
1.0
 40
1.0
 40
1.0
 40
1.0
 10
2.0342
 20
6.4874
 30
0.0
 10
2.4096
 20
6.3041
 30
0.0
 10
2.7025
 20
5.9849
 30
0.0
 10
2.8125
 20
5.5757
 30
0.0
  0
SPLINE
  5
15A
330
1F
100
AcDbEntity
  8
Ilustrace
 62
   250
370
    30
100
AcDbSpline
210
0.0
220
0.0
230
1.0
 70
     8
 71
     3
 72
     8
 73
     4
 74
     0
 42
0.0000000001
 43
0.0000000001
 40
0.0
 40
0.0
 40
0.0
 40
0.0
 40
1.0
 40
1.0
 40
1.0
 40
1.0
 10
2.4578
 20
4.1986
 30
0.0
 10
2.7371
 20
4.4788
 30
0.0
 10
2.8886
 20
4.8842
 30
0.0
 10
2.8614
 20
5.2789
 30
0.0
  0
SPLINE
  5
15B
330
1F
100
AcDbEntity
  8
Ilustrace
 62
   250
370
    30
100
AcDbSpline
210
0.0
220
0.0
230
1.0
 70
     8
 71
     3
 72
     8
 73
     4
 74
     0
 42
0.0000000001
 43
0.0000000001
 40
0.0
 40
0.0
 40
0.0
 40
0.0
 40
1.0
 40
1.0
 40
1.0
 40
1.0
 10
2.1166
 20
5.9782
 30
0.0
 10
2.2317
 20
5.9147
 30
0.0
 10
2.3445
 20
5.8466
 30
0.0
 10
2.4584
 20
5.7809
 30
0.0
  0
SPLINE
  5
15C
330
1F
100
AcDbEntity
  8
Ilustrace
 62
   250
370
    30
100
AcDbSpline
210
0.0
220
0.0
230
1.0
 70
     8
 71
     3
 72
     8
 73
     4
 74
     0
 42
0.0000000001
 43
0.0000000001
 40
0.0
 40
0.0
 40
0.0
 40
0.0
 40
1.0
 40
1.0
 40
1.0
 40
1.0
 10
2.4584
 20
5.2584
 30
0.0
 10
2.4584
 20
5.1312
 30
0.0
 10
2.4415
 20
5.0188
 30
0.0
 10
2.4133
 20
4.895
 30
0.0
  0
SPLINE
  5
15D
330
1F
100
AcDbEntity
  8
Ilustrace
 62
   250
370
    30
100
AcDbSpline
210
0.0
220
0.0
230
1.0
 70
     8
 71
     3
 72
     8
 73
     4
 74
     0
 42
0.0000000001
 43
0.0000000001
 40
0.0
 40
0.0
 40
0.0
 40
0.0
 40
1.0
 40
1.0
 40
1.0
 40
1.0
 10
2.4584
 20
4.608
 30
0.0
 10
2.3447
 20
4.5423
 30
0.0
 10
2.2319
 20
4.4737
 30
0.0
 10
2.1166
 20
4.4105
 30
0.0
  0
SPLINE
  5
15E
330
1F
100
AcDbEntity
  8
Ilustrace
 62
   250
370
    30
100
AcDbSpline
210
0.0
220
0.0
230
1.0
 70
     8
 71
     3
 72
     8
 73
     4
 74
     0
 42
0.0000000001
 43
0.0000000001
 40
0.0
 40
0.0
 40
0.0
 40
0.0
 40
1.0
 40
1.0
 40
1.0
 40
1.0
 10
1.8177
 20
3.8228
 30
0.0
 10
1.9804
 20
3.8665
 30
0.0
 10
2.1275
 20
3.9419
 30
0.0
 10
2.2665
 20
4.0358
 30
0.0
  0
SPLINE
  5
15F
330
1F
100
AcDbEntity
  8
Ilustrace
 62
   250
370
    30
100
AcDbSpline
210
0.0
220
0.0
230
1.0
 70
     8
 71
     3
 72
     8
 73
     4
 74
     0
 42
0.0000000001
 43
0.0000000001
 40
0.0
 40
0.0
 40
0.0
 40
0.0
 40
1.0
 40
1.0
 40
1.0
 40
1.0
 10
2.4584
 20
5.0026
 30
0.0
 10
2.4608
 20
4.8712
 30
0.0
 10
2.4584
 20
4.7394
 30
0.0
 10
2.4584
 20
4.608
 30
0.0
  0
SPLINE
  5
160
330
1F
100
AcDbEntity
  8
Ilustrace
 62
   250
370
    30
100
AcDbSpline
210
0.0
220
0.0
230
1.0
 70
     8
 71
     3
 72
     8
 73
     4
 74
     0
 42
0.0000000001
 43
0.0000000001
 40
0.0
 40
0.0
 40
0.0
 40
0.0
 40
1.0
 40
1.0
 40
1.0
 40
1.0
 10
2.4995
 20
4.2428
 30
0.0
 10
2.4064
 20
4.1448
 30
0.0
 10
2.3082
 20
4.064
 30
0.0
 10
2.1961
 20
3.9882
 30
0.0
  0
SPLINE
  5
161
330
1F
100
AcDbEntity
  8
Ilustrace
 62
   250
370
    30
100
AcDbSpline
210
0.0
220
0.0
230
1.0
 70
     8
 71
     3
 72
     8
 73
     4
 74
     0
 42
0.0000000001
 43
0.0000000001
 40
0.0
 40
0.0
 40
0.0
 40
0.0
 40
1.0
 40
1.0
 40
1.0
 40
1.0
 10
1.5162
 20
3.7748
 30
0.0
 10
1.5591
 20
3.7763
 30
0.0
 10
1.6015
 20
3.7793
 30
0.0
 10
1.6441
 20
3.7867
 30
0.0
  0
SPLINE
  5
162
330
1F
100
AcDbEntity
  8
Ilustrace
 62
   250
370
    30
100
AcDbSpline
210
0.0
220
0.0
230
1.0
 70
     8
 71
     3
 72
     8
 73
     4
 74
     0
 42
0.0000000001
 43
0.0000000001
 40
0.0
 40
0.0
 40
0.0
 40
0.0
 40
1.0
 40
1.0
 40
1.0
 40
1.0
 10
1.4425
 20
4.0214
 30
0.0
 10
1.5563
 20
4.0871
 30
0.0
 10
1.6717
 20
4.151
 30
0.0
 10
1.7843
 20
4.2187
 30
0.0
  0
SPLINE
  5
163
330
1F
100
AcDbEntity
  8
Ilustrace
 62
   250
370
    30
100
AcDbSpline
210
0.0
220
0.0
230
1.0
 70
    24
 71
     3
 72
     8
 73
     4
 74
     0
 42
0.0000000001
 43
0.0000000001
 40
0.0
 40
0.0
 40
0.0
 40
0.0
 40
1.0
 40
1.0
 40
1.0
 40
1.0
 10
1.5413
 20
3.7757
 30
0.0
 10
1.5413
 20
3.7757
 30
0.0
 10
1.4425
 20
3.7722
 30
0.0
 10
1.4425
 20
3.7722
 30
0.0
  0
SPLINE
  5
164
330
1F
100
AcDbEntity
  8
Ilustrace
 62
   250
370
    30
100
AcDbSpline
210
0.0
220
0.0
230
1.0
 70
     8
 71
     3
 72
     8
 73
     4
 74
     0
 42
0.0000000001
 43
0.0000000001
 40
0.0
 40
0.0
 40
0.0
 40
0.0
 40
1.0
 40
1.0
 40
1.0
 40
1.0
 10
1.4425
 20
3.7722
 30
0.0
 10
1.3224
 20
3.7765
 30
0.0
 10
1.2044
 20
3.7862
 30
0.0
 10
1.0878
 20
3.8174
 30
0.0
  0
SPLINE
  5
165
330
1F
100
AcDbEntity
  8
Ilustrace
 62
   250
370
    30
100
AcDbSpline
210
0.0
220
0.0
230
1.0
 70
     8
 71
     3
 72
     8
 73
     4
 74
     0
 42
0.0000000001
 43
0.0000000001
 40
0.0
 40
0.0
 40
0.0
 40
0.0
 40
1.0
 40
1.0
 40
1.0
 40
1.0
 10
0.0725
 20
4.8133
 30
0.0
 10
0.1755
 20
4.431
 30
0.0
 10
0.451
 20
4.0972
 30
0.0
 10
0.8063
 20
3.9234
 30
0.0
  0
SPLINE
  5
166
330
1F
100
AcDbEntity
  8
Ilustrace
 62
   250
370
    30
100
AcDbSpline
210
0.0
220
0.0
230
1.0
 70
     8
 71
     3
 72
     8
 73
     4
 74
     0
 42
0.0000000001
 43
0.0000000001
 40
0.0
 40
0.0
 40
0.0
 40
0.0
 40
1.0
 40
1.0
 40
1.0
 40
1.0
 10
1.4425
 20
4.0214
 30
0.0
 10
1.3287
 20
4.0871
 30
0.0
 10
1.2134
 20
4.151
 30
0.0
 10
1.1007
 20
4.2187
 30
0.0
  0
SPLINE
  5
167
330
1F
100
AcDbEntity
  8
Ilustrace
 62
   250
370
    30
100
AcDbSpline
210
0.0
220
0.0
230
1.0
 70
     8
 71
     3
 72
     8
 73
     4
 74
     0
 42
0.0000000001
 43
0.0000000001
 40
0.0
 40
0.0
 40
0.0
 40
0.0
 40
1.0
 40
1.0
 40
1.0
 40
1.0
 10
0.7684
 20
4.4105
 30
0.0
 10
0.6535
 20
4.4741
 30
0.0
 10
0.5406
 20
4.5421
 30
0.0
 10
0.4266
 20
4.608
 30
0.0
  0
SPLINE
  5
168
330
1F
100
AcDbEntity
  8
Ilustrace
 62
   250
370
    30
100
AcDbSpline
210
0.0
220
0.0
230
1.0
 70
     8
 71
     3
 72
     8
 73
     4
 74
     0
 42
0.0000000001
 43
0.0000000001
 40
0.0
 40
0.0
 40
0.0
 40
0.0
 40
1.0
 40
1.0
 40
1.0
 40
1.0
 10
0.4266
 20
5.1305
 30
0.0
 10
0.4266
 20
5.2576
 30
0.0
 10
0.4436
 20
5.3701
 30
0.0
 10
0.4719
 20
5.4939
 30
0.0
  0
SPLINE
  5
169
330
1F
100
AcDbEntity
  8
Ilustrace
 62
   250
370
    30
100
AcDbSpline
210
0.0
220
0.0
230
1.0
 70
     8
 71
     3
 72
     8
 73
     4
 74
     0
 42
0.0000000001
 43
0.0000000001
 40
0.0
 40
0.0
 40
0.0
 40
0.0
 40
1.0
 40
1.0
 40
1.0
 40
1.0
 10
0.0235
 20
5.1099
 30
0.0
 10
-0.0034
 20
5.5046
 30
0.0
 10
0.1478
 20
5.91
 30
0.0
 10
0.4273
 20
6.1903
 30
0.0
  0
SPLINE
  5
16A
330
1F
100
AcDbEntity
  8
Ilustrace
 62
   250
370
    30
100
AcDbSpline
210
0.0
220
0.0
230
1.0
 70
     8
 71
     3
 72
    12
 73
     8
 74
     0
 42
0.0000000001
 43
0.0000000001
 40
0.0
 40
0.0
 40
0.0
 40
0.0
 40
0.3333333333333333
 40
0.3333333333333333
 40
0.3333333333333333
 40
0.3333333333333333
 40
1.0
 40
1.0
 40
1.0
 40
1.0
 10
1.7973
 20
6.5715
 30
0.0
 10
1.6807
 20
6.6026
 30
0.0
 10
1.5628
 20
6.6125
 30
0.0
 10
1.4425
 20
6.6166
 30
0.0
 10
1.4425
 20
6.6166
 30
0.0
 10
1.1366
 20
6.606
 30
0.0
 10
0.8727
 20
6.5244
 30
0.0
 10
0.6187
 20
6.3532
 30
0.0
  0
SPLINE
  5
16B
330
1F
100
AcDbEntity
  8
Ilustrace
 62
   250
370
    30
100
AcDbSpline
210
0.0
220
0.0
230
1.0
 70
     8
 71
     3
 72
     8
 73
     4
 74
     0
 42
0.0000000001
 43
0.0000000001
 40
0.0
 40
0.0
 40
0.0
 40
0.0
 40
1.0
 40
1.0
 40
1.0
 40
1.0
 10
0.4266
 20
5.7809
 30
0.0
 10
0.4266
 20
5.6496
 30
0.0
 10
0.4243
 20
5.5177
 30
0.0
 10
0.4266
 20
5.3862
 30
0.0
  0
SPLINE
  5
16C
330
1F
100
AcDbEntity
  8
Ilustrace
 62
   250
370
    30
100
AcDbSpline
210
0.0
220
0.0
230
1.0
 70
     8
 71
     3
 72
     8
 73
     4
 74
     0
 42
0.0000000001
 43
0.0000000001
 40
0.0
 40
0.0
 40
0.0
 40
0.0
 40
1.0
 40
1.0
 40
1.0
 40
1.0
 10
0.0211
 20
5.145
 30
0.0
 10
0.0306
 20
5.0101
 30
0.0
 10
0.0515
 20
4.8846
 30
0.0
 10
0.09
 20
4.7549
 30
0.0
  0
SPLINE
  5
16D
330
1F
100
AcDbEntity
  8
Ilustrace
 62
   250
370
    30
100
AcDbSpline
210
0.0
220
0.0
230
1.0
 70
     8
 71
     3
 72
     8
 73
     4
 74
     0
 42
0.0000000001
 43
0.0000000001
 40
0.0
 40
0.0
 40
0.0
 40
0.0
 40
1.0
 40
1.0
 40
1.0
 40
1.0
 10
0.4266
 20
4.608
 30
0.0
 10
0.4266
 20
4.7394
 30
0.0
 10
0.4243
 20
4.8712
 30
0.0
 10
0.4266
 20
5.0026
 30
0.0
  0
SPLINE
  5
16E
330
1F
100
AcDbEntity
  8
Ilustrace
 62
   250
370
    30
100
AcDbSpline
210
0.0
220
0.0
230
1.0
 70
     8
 71
     3
 72
     8
 73
     4
 74
     0
 42
0.0000000001
 43
0.0000000001
 40
0.0
 40
0.0
 40
0.0
 40
0.0
 40
1.0
 40
1.0
 40
1.0
 40
1.0
 10
0.6978
 20
4.5034
 30
0.0
 10
0.791
 20
4.4171
 30
0.0
 10
0.88
 20
4.3462
 30
0.0
 10
0.9901
 20
4.2827
 30
0.0
  0
SPLINE
  5
16F
330
1F
100
AcDbEntity
  8
Ilustrace
 62
   250
370
    30
100
AcDbSpline
210
0.0
220
0.0
230
1.0
 70
     8
 71
     3
 72
     8
 73
     4
 74
     0
 42
0.0000000001
 43
0.0000000001
 40
0.0
 40
0.0
 40
0.0
 40
0.0
 40
1.0
 40
1.0
 40
1.0
 40
1.0
 10
1.1469
 20
3.8033
 30
0.0
 10
1.0154
 20
3.8349
 30
0.0
 10
0.8964
 20
3.8794
 30
0.0
 10
0.7747
 20
3.9389
 30
0.0
  0
SPLINE
  5
170
330
1F
100
AcDbEntity
  8
Ilustrace
 62
   250
370
    30
100
AcDbSpline
210
0.0
220
0.0
230
1.0
 70
     8
 71
     3
 72
     8
 73
     4
 74
     0
 42
0.0000000001
 43
0.0000000001
 40
0.0
 40
0.0
 40
0.0
 40
0.0
 40
1.0
 40
1.0
 40
1.0
 40
1.0
 10
0.8792
 20
4.3466
 30
0.0
 10
0.9894
 20
4.283
 30
0.0
 10
1.0952
 20
4.2415
 30
0.0
 10
1.2166
 20
4.204
 30
0.0
  0
SPLINE
  5
171
330
1F
100
AcDbEntity
  8
Ilustrace
 62
   250
370
    30
100
AcDbSpline
210
0.0
220
0.0
230
1.0
 70
     8
 71
     3
 72
     8
 73
     4
 74
     0
 42
0.0000000001
 43
0.0000000001
 40
0.0
 40
0.0
 40
0.0
 40
0.0
 40
1.0
 40
1.0
 40
1.0
 40
1.0
 10
1.8351
 20
3.8275
 30
0.0
 10
1.7705
 20
3.8096
 30
0.0
 10
1.7064
 20
3.7976
 30
0.0
 10
1.6401
 20
3.786
 30
0.0
  0
SPLINE
  5
172
330
1F
100
AcDbEntity
  8
Ilustrace
 62
   250
370
    30
100
AcDbSpline
210
0.0
220
0.0
230
1.0
 70
     8
 71
     3
 72
     8
 73
     4
 74
     0
 42
0.0000000001
 43
0.0000000001
 40
0.0
 40
0.0
 40
0.0
 40
0.0
 40
1.0
 40
1.0
 40
1.0
 40
1.0
 10
2.1873
 20
4.5034
 30
0.0
 10
2.0269
 20
4.3547
 30
0.0
 10
1.8778
 20
4.2686
 30
0.0
 10
1.6687
 20
4.204
 30
0.0
  0
SPLINE
  5
173
330
1F
100
AcDbEntity
  8
Ilustrace
 62
   250
370
    30
100
AcDbSpline
210
0.0
220
0.0
230
1.0
 70
     8
 71
     3
 72
     8
 73
     4
 74
     0
 42
0.0000000001
 43
0.0000000001
 40
0.0
 40
0.0
 40
0.0
 40
0.0
 40
1.0
 40
1.0
 40
1.0
 40
1.0
 10
2.8639
 20
5.2438
 30
0.0
 10
2.8545
 20
5.3789
 30
0.0
 10
2.8334
 20
5.5044
 30
0.0
 10
2.7951
 20
5.634
 30
0.0
  0
SPLINE
  5
174
330
1F
100
AcDbEntity
  8
Ilustrace
 62
   250
370
    30
100
AcDbSpline
210
0.0
220
0.0
230
1.0
 70
     8
 71
     3
 72
     8
 73
     4
 74
     0
 42
0.0000000001
 43
0.0000000001
 40
0.0
 40
0.0
 40
0.0
 40
0.0
 40
1.0
 40
1.0
 40
1.0
 40
1.0
 10
2.4584
 20
5.7809
 30
0.0
 10
2.4584
 20
5.6496
 30
0.0
 10
2.4608
 20
5.5177
 30
0.0
 10
2.4584
 20
5.3862
 30
0.0
  0
SPLINE
  5
175
330
1F
100
AcDbEntity
  8
Ilustrace
 62
   250
370
    30
100
AcDbSpline
210
0.0
220
0.0
230
1.0
 70
     8
 71
     3
 72
     8
 73
     4
 74
     0
 42
0.0000000001
 43
0.0000000001
 40
0.0
 40
0.0
 40
0.0
 40
0.0
 40
1.0
 40
1.0
 40
1.0
 40
1.0
 10
2.1873
 20
5.8854
 30
0.0
 10
2.0942
 20
5.9718
 30
0.0
 10
2.0051
 20
6.0426
 30
0.0
 10
1.895
 20
6.1062
 30
0.0
  0
SPLINE
  5
176
330
1F
100
AcDbEntity
  8
Ilustrace
 62
   250
370
    30
100
AcDbSpline
210
0.0
220
0.0
230
1.0
 70
     8
 71
     3
 72
     8
 73
     4
 74
     0
 42
0.0000000001
 43
0.0000000001
 40
0.0
 40
0.0
 40
0.0
 40
0.0
 40
1.0
 40
1.0
 40
1.0
 40
1.0
 10
1.4425
 20
6.3674
 30
0.0
 10
1.3287
 20
6.3017
 30
0.0
 10
1.2134
 20
6.238
 30
0.0
 10
1.1007
 20
6.1701
 30
0.0
  0
SPLINE
  5
177
330
1F
100
AcDbEntity
  8
Ilustrace
 62
   250
370
    30
100
AcDbSpline
210
0.0
220
0.0
230
1.0
 70
     8
 71
     3
 72
     8
 73
     4
 74
     0
 42
0.0000000001
 43
0.0000000001
 40
0.0
 40
0.0
 40
0.0
 40
0.0
 40
1.0
 40
1.0
 40
1.0
 40
1.0
 10
0.6891
 20
6.4008
 30
0.0
 10
0.577
 20
6.325
 30
0.0
 10
0.4788
 20
6.2441
 30
0.0
 10
0.3857
 20
6.146
 30
0.0
  0
SPLINE
  5
178
330
1F
100
AcDbEntity
  8
Ilustrace
 62
   250
370
    30
100
AcDbSpline
210
0.0
220
0.0
230
1.0
 70
     8
 71
     3
 72
     8
 73
     4
 74
     0
 42
0.0000000001
 43
0.0000000001
 40
0.0
 40
0.0
 40
0.0
 40
0.0
 40
1.0
 40
1.0
 40
1.0
 40
1.0
 10
0.4266
 20
5.2584
 30
0.0
 10
0.4228
 20
5.1316
 30
0.0
 10
0.4436
 20
5.0183
 30
0.0
 10
0.4719
 20
4.895
 30
0.0
  0
SPLINE
  5
179
330
1F
100
AcDbEntity
  8
Ilustrace
 62
   250
370
    30
100
AcDbSpline
210
0.0
220
0.0
230
1.0
 70
     8
 71
     3
 72
     8
 73
     4
 74
     0
 42
0.0000000001
 43
0.0000000001
 40
0.0
 40
0.0
 40
0.0
 40
0.0
 40
1.0
 40
1.0
 40
1.0
 40
1.0
 10
0.6978
 20
5.8854
 30
0.0
 10
0.791
 20
5.9718
 30
0.0
 10
0.88
 20
6.0426
 30
0.0
 10
0.9901
 20
6.1062
 30
0.0
  0
SPLINE
  5
17A
330
1F
100
AcDbEntity
  8
Ilustrace
 62
   250
370
    30
100
AcDbSpline
210
0.0
220
0.0
230
1.0
 70
     8
 71
     3
 72
     8
 73
     4
 74
     0
 42
0.0000000001
 43
0.0000000001
 40
0.0
 40
0.0
 40
0.0
 40
0.0
 40
1.0
 40
1.0
 40
1.0
 40
1.0
 10
1.4425
 20
6.3674
 30
0.0
 10
1.5563
 20
6.3017
 30
0.0
 10
1.6717
 20
6.238
 30
0.0
 10
1.7843
 20
6.1701
 30
0.0
  0
SPLINE
  5
17B
330
1F
100
AcDbEntity
  8
Ilustrace
 62
   250
370
    30
100
AcDbSpline
210
0.0
220
0.0
230
1.0
 70
     8
 71
     3
 72
     8
 73
     4
 74
     0
 42
0.0000000001
 43
0.0000000001
 40
0.0
 40
0.0
 40
0.0
 40
0.0
 40
1.0
 40
1.0
 40
1.0
 40
1.0
 10
1.7383
 20
6.5856
 30
0.0
 10
1.8696
 20
6.554
 30
0.0
 10
1.9888
 20
6.5093
 30
0.0
 10
2.1104
 20
6.4501
 30
0.0
  0
SPLINE
  5
17C
330
1F
100
AcDbEntity
  8
Ilustrace
 62
   250
370
    30
100
AcDbSpline
210
0.0
220
0.0
230
1.0
 70
     8
 71
     3
 72
     8
 73
     4
 74
     0
 42
0.0000000001
 43
0.0000000001
 40
0.0
 40
0.0
 40
0.0
 40
0.0
 40
1.0
 40
1.0
 40
1.0
 40
1.0
 10
1.2166
 20
6.1849
 30
0.0
 10
1.0952
 20
6.1475
 30
0.0
 10
0.9894
 20
6.1057
 30
0.0
 10
0.8792
 20
6.0422
 30
0.0
  0
SPLINE
  5
17D
330
1F
100
AcDbEntity
  8
Ilustrace
 62
   250
370
    30
100
AcDbSpline
210
0.0
220
0.0
230
1.0
 70
     8
 71
     3
 72
     8
 73
     4
 74
     0
 42
0.0000000001
 43
0.0000000001
 40
0.0
 40
0.0
 40
0.0
 40
0.0
 40
1.0
 40
1.0
 40
1.0
 40
1.0
 10
0.7684
 20
5.9782
 30
0.0
 10
0.6535
 20
5.9147
 30
0.0
 10
0.5406
 20
5.8466
 30
0.0
 10
0.4266
 20
5.7809
 30
0.0
  0
SPLINE
  5
17E
330
1F
100
AcDbEntity
  8
Ilustrace
 62
   250
370
    30
100
AcDbSpline
210
0.0
220
0.0
230
1.0
 70
     8
 71
     3
 72
     8
 73
     4
 74
     0
 42
0.0000000001
 43
0.0000000001
 40
0.0
 40
0.0
 40
0.0
 40
0.0
 40
1.0
 40
1.0
 40
1.0
 40
1.0
 10
2.4584
 20
5.1305
 30
0.0
 10
2.4624
 20
5.2574
 30
0.0
 10
2.4414
 20
5.3706
 30
0.0
 10
2.4133
 20
5.4939
 30
0.0
  0
SPLINE
  5
17F
330
1F
100
AcDbEntity
  8
Ilustrace
 62
   250
370
    30
100
AcDbSpline
210
0.0
220
0.0
230
1.0
 70
    24
 71
     3
 72
     8
 73
     4
 74
     0
 42
0.0000000001
 43
0.0000000001
 40
0.0
 40
0.0
 40
0.0
 40
0.0
 40
1.0
 40
1.0
 40
1.0
 40
1.0
 10
0.2109
 20
4.4834
 30
0.0
 10
0.2109
 20
4.4834
 30
0.0
 10
0.0689
 20
4.8264
 30
0.0
 10
0.0689
 20
4.8264
 30
0.0
  0
SPLINE
  5
180
330
1F
100
AcDbEntity
  8
Ilustrace
 62
   250
370
    30
100
AcDbSpline
210
0.0
220
0.0
230
1.0
 70
     8
 71
     3
 72
    20
 73
    16
 74
     0
 42
0.0000000001
 43
0.0000000001
 40
0.0
 40
0.0
 40
0.0
 40
0.0
 40
0.2
 40
0.2
 40
0.2
 40
0.2
 40
0.4
 40
0.4
 40
0.4
 40
0.4
 40
0.6
 40
0.6
 40
0.6
 40
0.6
 40
1.0
 40
1.0
 40
1.0
 40
1.0
 10
0.0689
 20
4.8264
 30
0.0
 10
0.0041
 20
5.0674
 30
0.0
 10
0.0041
 20
5.3213
 30
0.0
 10
0.0689
 20
5.5625
 30
0.0
 10
0.0689
 20
5.5625
 30
0.0
 10
0.3069
 20
6.4516
 30
0.0
 10
1.3566
 20
6.8863
 30
0.0
 10
2.1537
 20
6.4262
 30
0.0
 10
2.1537
 20
6.4262
 30
0.0
 10
2.9507
 20
5.9659
 30
0.0
 10
3.0989
 20
4.8396
 30
0.0
 10
2.4481
 20
4.1888
 30
0.0
 10
2.4481
 20
4.1888
 30
0.0
 10
2.2717
 20
4.0123
 30
0.0
 10
2.0518
 20
3.8852
 30
0.0
 10
1.8106
 20
3.8207
 30
0.0
  0
SPLINE
  5
181
330
1F
100
AcDbEntity
  8
Ilustrace
 62
   250
370
    30
100
AcDbSpline
210
0.0
220
0.0
230
1.0
 70
     8
 71
     3
 72
    12
 73
     8
 74
     0
 42
0.0000000001
 43
0.0000000001
 40
0.0
 40
0.0
 40
0.0
 40
0.0
 40
0.3333333333333333
 40
0.3333333333333333
 40
0.3333333333333333
 40
0.3333333333333333
 40
1.0
 40
1.0
 40
1.0
 40
1.0
 10
1.8106
 20
3.8207
 30
0.0
 10
1.8106
 20
3.8207
 30
0.0
 10
1.4425
 20
3.7722
 30
0.0
 10
1.4425
 20
3.7722
 30
0.0
 10
1.4425
 20
3.7722
 30
0.0
 10
1.4425
 20
3.7722
 30
0.0
 10
1.0745
 20
3.8207
 30
0.0
 10
1.0745
 20
3.8207
 30
0.0
  0
SPLINE
  5
182
330
1F
100
AcDbEntity
  8
Ilustrace
 62
   250
370
    30
100
AcDbSpline
210
0.0
220
0.0
230
1.0
 70
     8
 71
     3
 72
     8
 73
     4
 74
     0
 42
0.0000000001
 43
0.0000000001
 40
0.0
 40
0.0
 40
0.0
 40
0.0
 40
1.0
 40
1.0
 40
1.0
 40
1.0
 10
1.0745
 20
3.8207
 30
0.0
 10
0.8333
 20
3.8852
 30
0.0
 10
0.6134
 20
4.0123
 30
0.0
 10
0.4368
 20
4.1888
 30
0.0
  0
SPLINE
  5
183
330
1F
100
AcDbEntity
  8
Ilustrace
 62
   250
370
    30
100
AcDbSpline
210
0.0
220
0.0
230
1.0
 70
    24
 71
     3
 72
     8
 73
     4
 74
     0
 42
0.0000000001
 43
0.0000000001
 40
0.0
 40
0.0
 40
0.0
 40
0.0
 40
1.0
 40
1.0
 40
1.0
 40
1.0
 10
0.4368
 20
4.1888
 30
0.0
 10
0.4368
 20
4.1888
 30
0.0
 10
0.2109
 20
4.4834
 30
0.0
 10
0.2109
 20
4.4834
 30
0.0
  0
SPLINE
  5
184
330
1F
100
AcDbEntity
  8
Ilustrace
 62
   250
370
    30
100
AcDbSpline
210
0.0
220
0.0
230
1.0
 70
     8
 71
     3
 72
     8
 73
     4
 74
     0
 42
0.0000000001
 43
0.0000000001
 40
0.0
 40
0.0
 40
0.0
 40
0.0
 40
1.0
 40
1.0
 40
1.0
 40
1.0
 10
0.6978
 20
4.5034
 30
0.0
 10
0.5961
 20
4.6309
 30
0.0
 10
0.5314
 20
4.7433
 30
0.0
 10
0.4719
 20
4.895
 30
0.0
  0
SPLINE
  5
185
330
1F
100
AcDbEntity
  8
Ilustrace
 62
   250
370
    30
100
AcDbSpline
210
0.0
220
0.0
230
1.0
 70
     8
 71
     3
 72
     8
 73
     4
 74
     0
 42
0.0000000001
 43
0.0000000001
 40
0.0
 40
0.0
 40
0.0
 40
0.0
 40
1.0
 40
1.0
 40
1.0
 40
1.0
 10
1.2166
 20
4.204
 30
0.0
 10
1.3777
 20
4.1797
 30
0.0
 10
1.5074
 20
4.1797
 30
0.0
 10
1.6687
 20
4.204
 30
0.0
  0
SPLINE
  5
186
330
1F
100
AcDbEntity
  8
Ilustrace
 62
   250
370
    30
100
AcDbSpline
210
0.0
220
0.0
230
1.0
 70
     8
 71
     3
 72
     8
 73
     4
 74
     0
 42
0.0000000001
 43
0.0000000001
 40
0.0
 40
0.0
 40
0.0
 40
0.0
 40
1.0
 40
1.0
 40
1.0
 40
1.0
 10
2.1873
 20
4.5034
 30
0.0
 10
2.2889
 20
4.6309
 30
0.0
 10
2.3538
 20
4.7433
 30
0.0
 10
2.4133
 20
4.895
 30
0.0
  0
SPLINE
  5
187
330
1F
100
AcDbEntity
  8
Ilustrace
 62
   250
370
    30
100
AcDbSpline
210
0.0
220
0.0
230
1.0
 70
     8
 71
     3
 72
     8
 73
     4
 74
     0
 42
0.0000000001
 43
0.0000000001
 40
0.0
 40
0.0
 40
0.0
 40
0.0
 40
1.0
 40
1.0
 40
1.0
 40
1.0
 10
0.6978
 20
5.8854
 30
0.0
 10
0.5961
 20
5.7579
 30
0.0
 10
0.5314
 20
5.6457
 30
0.0
 10
0.4719
 20
5.4939
 30
0.0
  0
SPLINE
  5
188
330
1F
100
AcDbEntity
  8
Ilustrace
 62
   250
370
    30
100
AcDbSpline
210
0.0
220
0.0
230
1.0
 70
     8
 71
     3
 72
     8
 73
     4
 74
     0
 42
0.0000000001
 43
0.0000000001
 40
0.0
 40
0.0
 40
0.0
 40
0.0
 40
1.0
 40
1.0
 40
1.0
 40
1.0
 10
1.2166
 20
6.1849
 30
0.0
 10
1.3777
 20
6.2091
 30
0.0
 10
1.5074
 20
6.2091
 30
0.0
 10
1.6687
 20
6.1849
 30
0.0
  0
SPLINE
  5
189
330
1F
100
AcDbEntity
  8
Ilustrace
 62
   250
370
    30
100
AcDbSpline
210
0.0
220
0.0
230
1.0
 70
     8
 71
     3
 72
     8
 73
     4
 74
     0
 42
0.0000000001
 43
0.0000000001
 40
0.0
 40
0.0
 40
0.0
 40
0.0
 40
1.0
 40
1.0
 40
1.0
 40
1.0
 10
2.1873
 20
5.8854
 30
0.0
 10
2.2889
 20
5.7579
 30
0.0
 10
2.3538
 20
5.6457
 30
0.0
 10
2.4133
 20
5.4939
 30
0.0
  0
SPLINE
  5
18A
330
1F
100
AcDbEntity
  8
Ilustrace
 62
   250
370
    30
100
AcDbSpline
210
0.0
220
0.0
230
1.0
 70
    24
 71
     3
 72
     8
 73
     4
 74
     0
 42
0.0000000001
 43
0.0000000001
 40
0.0
 40
0.0
 40
0.0
 40
0.0
 40
1.0
 40
1.0
 40
1.0
 40
1.0
 10
-11.9541
 20
6.9722
 30
0.0
 10
-11.9541
 20
6.9722
 30
0.0
 10
-11.5731
 20
6.9722
 30
0.0
 10
-11.5731
 20
6.9722
 30
0.0
  0
SPLINE
  5
18B
330
1F
100
AcDbEntity
  8
Ilustrace
 62
   250
370
    30
100
AcDbSpline
210
0.0
220
0.0
230
1.0
 70
    24
 71
     3
 72
     8
 73
     4
 74
     0
 42
0.0000000001
 43
0.0000000001
 40
0.0
 40
0.0
 40
0.0
 40
0.0
 40
1.0
 40
1.0
 40
1.0
 40
1.0
 10
6.9663
 20
6.9722
 30
0.0
 10
6.9663
 20
6.9722
 30
0.0
 10
7.3472
 20
6.9722
 30
0.0
 10
7.3472
 20
6.9722
 30
0.0
  0
SPLINE
  5
18C
330
1F
100
AcDbEntity
  8
Ilustrace
 62
   250
370
    30
100
AcDbSpline
210
0.0
220
0.0
230
1.0
 70
    24
 71
     3
 72
    12
 73
     8
 74
     0
 42
0.0000000001
 43
0.0000000001
 40
0.0
 40
0.0
 40
0.0
 40
0.0
 40
0.3333333333333333
 40
0.3333333333333333
 40
0.3333333333333333
 40
0.3333333333333333
 40
1.0
 40
1.0
 40
1.0
 40
1.0
 10
6.9663
 20
6.9722
 30
0.0
 10
6.9663
 20
6.9722
 30
0.0
 10
6.9663
 20
6.4643
 30
0.0
 10
6.9663
 20
6.4643
 30
0.0
 10
6.9663
 20
6.4643
 30
0.0
 10
6.9663
 20
6.4643
 30
0.0
 10
6.9663
 20
-1.5356
 30
0.0
 10
6.9663
 20
-1.5356
 30
0.0
  0
SPLINE
  5
18D
330
1F
100
AcDbEntity
  8
Ilustrace
 62
   250
370
    30
100
AcDbSpline
210
0.0
220
0.0
230
1.0
 70
     8
 71
     3
 72
    12
 73
     8
 74
     0
 42
0.0000000001
 43
0.0000000001
 40
0.0
 40
0.0
 40
0.0
 40
0.0
 40
0.3333333333333333
 40
0.3333333333333333
 40
0.3333333333333333
 40
0.3333333333333333
 40
1.0
 40
1.0
 40
1.0
 40
1.0
 10
6.9663
 20
-1.5356
 30
0.0
 10
6.9663
 20
-1.8091
 30
0.0
 10
7.0651
 20
-2.2792
 30
0.0
 10
6.7111
 20
-2.403
 30
0.0
 10
6.7111
 20
-2.403
 30
0.0
 10
6.6696
 20
-2.4177
 30
0.0
 10
6.6291
 20
-2.422
 30
0.0
 10
6.5854
 20
-2.4246
 30
0.0
  0
SPLINE
  5
18E
330
1F
100
AcDbEntity
  8
Ilustrace
 62
   250
370
    30
100
AcDbSpline
210
0.0
220
0.0
230
1.0
 70
    24
 71
     3
 72
    16
 73
    12
 74
     0
 42
0.0000000001
 43
0.0000000001
 40
0.0
 40
0.0
 40
0.0
 40
0.0
 40
0.25
 40
0.25
 40
0.25
 40
0.25
 40
0.5
 40
0.5
 40
0.5
 40
0.5
 40
1.0
 40
1.0
 40
1.0
 40
1.0
 10
6.5854
 20
-2.4246
 30
0.0
 10
6.5854
 20
-2.4246
 30
0.0
 10
6.0774
 20
-2.4246
 30
0.0
 10
6.0774
 20
-2.4246
 30
0.0
 10
6.0774
 20
-2.4246
 30
0.0
 10
6.0774
 20
-2.4246
 30
0.0
 10
-10.6843
 20
-2.4246
 30
0.0
 10
-10.6843
 20
-2.4246
 30
0.0
 10
-10.6843
 20
-2.4246
 30
0.0
 10
-10.6843
 20
-2.4246
 30
0.0
 10
-11.1923
 20
-2.4246
 30
0.0
 10
-11.1923
 20
-2.4246
 30
0.0
  0
SPLINE
  5
18F
330
1F
100
AcDbEntity
  8
Ilustrace
 62
   250
370
    30
100
AcDbSpline
210
0.0
220
0.0
230
1.0
 70
     8
 71
     3
 72
    12
 73
     8
 74
     0
 42
0.0000000001
 43
0.0000000001
 40
0.0
 40
0.0
 40
0.0
 40
0.0
 40
0.3333333333333333
 40
0.3333333333333333
 40
0.3333333333333333
 40
0.3333333333333333
 40
1.0
 40
1.0
 40
1.0
 40
1.0
 10
-11.1923
 20
-2.4246
 30
0.0
 10
-11.235
 20
-2.4244
 30
0.0
 10
-11.2776
 20
-2.4173
 30
0.0
 10
-11.3181
 20
-2.403
 30
0.0
 10
-11.3181
 20
-2.403
 30
0.0
 10
-11.6721
 20
-2.2792
 30
0.0
 10
-11.5731
 20
-1.8091
 30
0.0
 10
-11.5731
 20
-1.5356
 30
0.0
  0
SPLINE
  5
190
330
1F
100
AcDbEntity
  8
Ilustrace
 62
   250
370
    30
100
AcDbSpline
210
0.0
220
0.0
230
1.0
 70
    24
 71
     3
 72
    12
 73
     8
 74
     0
 42
0.0000000001
 43
0.0000000001
 40
0.0
 40
0.0
 40
0.0
 40
0.0
 40
0.3333333333333333
 40
0.3333333333333333
 40
0.3333333333333333
 40
0.3333333333333333
 40
1.0
 40
1.0
 40
1.0
 40
1.0
 10
-11.5731
 20
-1.5356
 30
0.0
 10
-11.5731
 20
-1.5356
 30
0.0
 10
-11.5731
 20
6.4643
 30
0.0
 10
-11.5731
 20
6.4643
 30
0.0
 10
-11.5731
 20
6.4643
 30
0.0
 10
-11.5731
 20
6.4643
 30
0.0
 10
-11.5731
 20
6.9722
 30
0.0
 10
-11.5731
 20
6.9722
 30
0.0
  0
SPLINE
  5
191
330
1F
100
AcDbEntity
  8
Ilustrace
 62
   250
370
    30
100
AcDbSpline
210
0.0
220
0.0
230
1.0
 70
     8
 71
     3
 72
    20
 73
    16
 74
     0
 42
0.0000000001
 43
0.0000000001
 40
0.0
 40
0.0
 40
0.0
 40
0.0
 40
0.2
 40
0.2
 40
0.2
 40
0.2
 40
0.4
 40
0.4
 40
0.4
 40
0.4
 40
0.6
 40
0.6
 40
0.6
 40
0.6
 40
1.0
 40
1.0
 40
1.0
 40
1.0
 10
-11.9541
 20
6.9722
 30
0.0
 10
-11.9541
 20
6.9722
 30
0.0
 10
-11.9541
 20
6.4643
 30
0.0
 10
-11.9541
 20
6.4643
 30
0.0
 10
-11.9541
 20
6.4643
 30
0.0
 10
-11.9541
 20
6.4643
 30
0.0
 10
-11.9541
 20
-1.5356
 30
0.0
 10
-11.9541
 20
-1.5356
 30
0.0
 10
-11.9541
 20
-1.5356
 30
0.0
 10
-11.9541
 20
-1.5356
 30
0.0
 10
-11.9541
 20
-2.0436
 30
0.0
 10
-11.9541
 20
-2.0436
 30
0.0
 10
-11.9541
 20
-2.0436
 30
0.0
 10
-11.9541
 20
-2.0436
 30
0.0
 10
-11.9499
 20
-2.1177
 30
0.0
 10
-11.9499
 20
-2.1177
 30
0.0
  0
SPLINE
  5
192
330
1F
100
AcDbEntity
  8
Ilustrace
 62
   250
370
    30
100
AcDbSpline
210
0.0
220
0.0
230
1.0
 70
     8
 71
     3
 72
     8
 73
     4
 74
     0
 42
0.0000000001
 43
0.0000000001
 40
0.0
 40
0.0
 40
0.0
 40
0.0
 40
1.0
 40
1.0
 40
1.0
 40
1.0
 10
-11.8392
 20
-2.4457
 30
0.0
 10
-11.9197
 20
-2.3271
 30
0.0
 10
-11.9463
 20
-2.1838
 30
0.0
 10
-11.9541
 20
-2.0436
 30
0.0
  0
SPLINE
  5
193
330
1F
100
AcDbEntity
  8
Ilustrace
 62
   250
370
    30
100
AcDbSpline
210
0.0
220
0.0
230
1.0
 70
     8
 71
     3
 72
    16
 73
    12
 74
     0
 42
0.0000000001
 43
0.0000000001
 40
0.0
 40
0.0
 40
0.0
 40
0.0
 40
0.25
 40
0.25
 40
0.25
 40
0.25
 40
0.5
 40
0.5
 40
0.5
 40
0.5
 40
1.0
 40
1.0
 40
1.0
 40
1.0
 10
-11.2664
 20
-2.8013
 30
0.0
 10
-11.2664
 20
-2.8013
 30
0.0
 10
-11.1923
 20
-2.8054
 30
0.0
 10
-11.1923
 20
-2.8054
 30
0.0
 10
-11.1923
 20
-2.8054
 30
0.0
 10
-11.1923
 20
-2.8054
 30
0.0
 10
-10.6843
 20
-2.8054
 30
0.0
 10
-10.6843
 20
-2.8054
 30
0.0
 10
-10.6843
 20
-2.8054
 30
0.0
 10
-10.6843
 20
-2.8054
 30
0.0
 10
6.0774
 20
-2.8054
 30
0.0
 10
6.0774
 20
-2.8054
 30
0.0
  0
SPLINE
  5
194
330
1F
100
AcDbEntity
  8
Ilustrace
 62
   250
370
    30
100
AcDbSpline
210
0.0
220
0.0
230
1.0
 70
     8
 71
     3
 72
    12
 73
     8
 74
     0
 42
0.0000000001
 43
0.0000000001
 40
0.0
 40
0.0
 40
0.0
 40
0.0
 40
0.3333333333333333
 40
0.3333333333333333
 40
0.3333333333333333
 40
0.3333333333333333
 40
1.0
 40
1.0
 40
1.0
 40
1.0
 10
6.0774
 20
-2.8054
 30
0.0
 10
6.3784
 20
-2.8054
 30
0.0
 10
6.7199
 20
-2.859
 30
0.0
 10
6.9909
 20
-2.6887
 30
0.0
 10
6.9909
 20
-2.6887
 30
0.0
 10
7.0553
 20
-2.648
 30
0.0
 10
7.0677
 20
-2.6327
 30
0.0
 10
7.1243
 20
-2.582
 30
0.0
  0
SPLINE
  5
195
330
1F
100
AcDbEntity
  8
Ilustrace
 62
   250
370
    30
100
AcDbSpline
210
0.0
220
0.0
230
1.0
 70
    24
 71
     3
 72
    12
 73
     8
 74
     0
 42
0.0000000001
 43
0.0000000001
 40
0.0
 40
0.0
 40
0.0
 40
0.0
 40
0.3333333333333333
 40
0.3333333333333333
 40
0.3333333333333333
 40
0.3333333333333333
 40
1.0
 40
1.0
 40
1.0
 40
1.0
 10
7.3472
 20
6.9722
 30
0.0
 10
7.3472
 20
6.9722
 30
0.0
 10
7.3472
 20
6.4643
 30
0.0
 10
7.3472
 20
6.4643
 30
0.0
 10
7.3472
 20
6.4643
 30
0.0
 10
7.3472
 20
6.4643
 30
0.0
 10
7.3472
 20
-1.5356
 30
0.0
 10
7.3472
 20
-1.5356
 30
0.0
  0
SPLINE
  5
196
330
1F
100
AcDbEntity
  8
Ilustrace
 62
   250
370
    30
100
AcDbSpline
210
0.0
220
0.0
230
1.0
 70
     8
 71
     3
 72
    12
 73
     8
 74
     0
 42
0.0000000001
 43
0.0000000001
 40
0.0
 40
0.0
 40
0.0
 40
0.0
 40
0.3333333333333333
 40
0.3333333333333333
 40
0.3333333333333333
 40
0.3333333333333333
 40
1.0
 40
1.0
 40
1.0
 40
1.0
 10
7.3472
 20
-1.5356
 30
0.0
 10
7.3472
 20
-1.8366
 30
0.0
 10
7.4007
 20
-2.178
 30
0.0
 10
7.2305
 20
-2.4489
 30
0.0
 10
7.2305
 20
-2.4489
 30
0.0
 10
7.1899
 20
-2.5133
 30
0.0
 10
7.1746
 20
-2.5258
 30
0.0
 10
7.1243
 20
-2.582
 30
0.0
  0
SPLINE
  5
197
330
1F
100
AcDbEntity
  8
Ilustrace
 62
   250
370
    30
100
AcDbSpline
210
0.0
220
0.0
230
1.0
 70
     8
 71
     3
 72
     8
 73
     4
 74
     0
 42
0.0000000001
 43
0.0000000001
 40
0.0
 40
0.0
 40
0.0
 40
0.0
 40
1.0
 40
1.0
 40
1.0
 40
1.0
 10
-11.1923
 20
-2.8054
 30
0.0
 10
-11.3325
 20
-2.7976
 30
0.0
 10
-11.4756
 20
-2.7711
 30
0.0
 10
-11.5943
 20
-2.6906
 30
0.0
  0
SPLINE
  5
198
330
1F
100
AcDbEntity
  8
Ilustrace
 62
   250
370
    30
100
AcDbSpline
210
0.0
220
0.0
230
1.0
 70
     8
 71
     3
 72
     8
 73
     4
 74
     0
 42
0.0000000001
 43
0.0000000001
 40
0.0
 40
0.0
 40
0.0
 40
0.0
 40
1.0
 40
1.0
 40
1.0
 40
1.0
 10
-11.8786
 20
-2.3744
 30
0.0
 10
-11.7907
 20
-2.5334
 30
0.0
 10
-11.6819
 20
-2.6421
 30
0.0
 10
-11.5229
 20
-2.73
 30
0.0
  0
SPLINE
  5
199
330
1F
100
AcDbEntity
  8
Ilustrace
 62
   250
370
    30
100
AcDbSpline
210
0.0
220
0.0
230
1.0
 70
     8
 71
     3
 72
     8
 73
     4
 74
     0
 42
0.0000000001
 43
0.0000000001
 40
0.0
 40
0.0
 40
0.0
 40
0.0
 40
1.0
 40
1.0
 40
1.0
 40
1.0
 10
-11.1923
 20
-2.4246
 30
0.0
 10
-11.347
 20
-2.3929
 30
0.0
 10
-11.4245
 20
-2.2654
 30
0.0
 10
-11.5097
 20
-2.1422
 30
0.0
  0
SPLINE
  5
19A
330
1F
100
AcDbEntity
  8
Ilustrace
 62
   250
370
    30
100
AcDbSpline
210
0.0
220
0.0
230
1.0
 70
     8
 71
     3
 72
     8
 73
     4
 74
     0
 42
0.0000000001
 43
0.0000000001
 40
0.0
 40
0.0
 40
0.0
 40
0.0
 40
1.0
 40
1.0
 40
1.0
 40
1.0
 10
6.9663
 20
-2.0436
 30
0.0
 10
6.8696
 20
-2.1936
 30
0.0
 10
6.7739
 20
-2.386
 30
0.0
 10
6.5854
 20
-2.4246
 30
0.0
  0
SPLINE
  5
19B
330
1F
100
AcDbEntity
  8
Ilustrace
 62
   250
370
    30
100
AcDbSpline
210
0.0
220
0.0
230
1.0
 70
     8
 71
     3
 72
    20
 73
    16
 74
     0
 42
0.0000000001
 43
0.0000000001
 40
0.0
 40
0.0
 40
0.0
 40
0.0
 40
0.2
 40
0.2
 40
0.2
 40
0.2
 40
0.4
 40
0.4
 40
0.4
 40
0.4
 40
0.6
 40
0.6
 40
0.6
 40
0.6
 40
1.0
 40
1.0
 40
1.0
 40
1.0
 10
2.141
 20
3.9557
 30
0.0
 10
2.141
 20
3.9557
 30
0.0
 10
2.141
 20
3.4479
 30
0.0
 10
2.141
 20
3.4479
 30
0.0
 10
2.141
 20
3.4479
 30
0.0
 10
2.141
 20
3.4479
 30
0.0
 10
2.141
 20
0.1151
 30
0.0
 10
2.141
 20
0.1151
 30
0.0
 10
2.141
 20
0.1151
 30
0.0
 10
2.141
 20
0.1151
 30
0.0
 10
2.141
 20
-0.3928
 30
0.0
 10
2.141
 20
-0.3928
 30
0.0
 10
2.141
 20
-0.3928
 30
0.0
 10
2.141
 20
-0.3928
 30
0.0
 10
2.1362
 20
-0.4738
 30
0.0
 10
2.1362
 20
-0.4738
 30
0.0
  0
SPLINE
  5
19C
330
1F
100
AcDbEntity
  8
Ilustrace
 62
   250
370
    30
100
AcDbSpline
210
0.0
220
0.0
230
1.0
 70
     8
 71
     3
 72
    16
 73
    12
 74
     0
 42
0.0000000001
 43
0.0000000001
 40
0.0
 40
0.0
 40
0.0
 40
0.0
 40
0.25
 40
0.25
 40
0.25
 40
0.25
 40
0.5
 40
0.5
 40
0.5
 40
0.5
 40
1.0
 40
1.0
 40
1.0
 40
1.0
 10
2.1362
 20
-0.4738
 30
0.0
 10
2.0958
 20
-0.8209
 30
0.0
 10
1.8175
 20
-1.051
 30
0.0
 10
1.4832
 20
-1.09
 30
0.0
 10
1.4832
 20
-1.09
 30
0.0
 10
1.4
 20
-1.09
 30
0.0
 10
1.3226
 20
-1.0859
 30
0.0
 10
1.2423
 20
-1.0619
 30
0.0
 10
1.2423
 20
-1.0619
 30
0.0
 10
0.9373
 20
-0.9706
 30
0.0
 10
0.762
 20
-0.7001
 30
0.0
 10
0.7442
 20
-0.393
 30
0.0
  0
SPLINE
  5
19D
330
1F
100
AcDbEntity
  8
Ilustrace
 62
   250
370
    30
100
AcDbSpline
210
0.0
220
0.0
230
1.0
 70
    24
 71
     3
 72
    12
 73
     8
 74
     0
 42
0.0000000001
 43
0.0000000001
 40
0.0
 40
0.0
 40
0.0
 40
0.0
 40
0.3333333333333333
 40
0.3333333333333333
 40
0.3333333333333333
 40
0.3333333333333333
 40
1.0
 40
1.0
 40
1.0
 40
1.0
 10
7.3472
 20
6.9722
 30
0.0
 10
7.3472
 20
6.9722
 30
0.0
 10
7.8552
 20
6.9722
 30
0.0
 10
7.8552
 20
6.9722
 30
0.0
 10
7.8552
 20
6.9722
 30
0.0
 10
7.8552
 20
6.9722
 30
0.0
 10
10.2679
 20
6.9722
 30
0.0
 10
10.2679
 20
6.9722
 30
0.0
  0
SPLINE
  5
19E
330
1F
100
AcDbEntity
  8
Ilustrace
 62
   250
370
    30
100
AcDbSpline
210
0.0
220
0.0
230
1.0
 70
     8
 71
     3
 72
    12
 73
     8
 74
     0
 42
0.0000000001
 43
0.0000000001
 40
0.0
 40
0.0
 40
0.0
 40
0.0
 40
0.3333333333333333
 40
0.3333333333333333
 40
0.3333333333333333
 40
0.3333333333333333
 40
1.0
 40
1.0
 40
1.0
 40
1.0
 10
10.2679
 20
6.9722
 30
0.0
 10
10.6239
 20
6.9722
 30
0.0
 10
11.0009
 20
6.9116
 30
0.0
 10
11.2855
 20
7.1679
 30
0.0
 10
11.2855
 20
7.1679
 30
0.0
 10
11.4456
 20
7.312
 30
0.0
 10
11.5362
 20
7.5192
 30
0.0
 10
11.5377
 20
7.7341
 30
0.0
  0
SPLINE
  5
19F
330
1F
100
AcDbEntity
  8
Ilustrace
 62
   250
370
    30
100
AcDbSpline
210
0.0
220
0.0
230
1.0
 70
    24
 71
     3
 72
    12
 73
     8
 74
     0
 42
0.0000000001
 43
0.0000000001
 40
0.0
 40
0.0
 40
0.0
 40
0.0
 40
0.3333333333333333
 40
0.3333333333333333
 40
0.3333333333333333
 40
0.3333333333333333
 40
1.0
 40
1.0
 40
1.0
 40
1.0
 10
11.5377
 20
7.7341
 30
0.0
 10
11.5377
 20
7.7341
 30
0.0
 10
11.5377
 20
8.242
 30
0.0
 10
11.5377
 20
8.242
 30
0.0
 10
11.5377
 20
8.242
 30
0.0
 10
11.5377
 20
8.242
 30
0.0
 10
11.5377
 20
10.9086
 30
0.0
 10
11.5377
 20
10.9086
 30
0.0
  0
SPLINE
  5
1A0
330
1F
100
AcDbEntity
  8
Ilustrace
 62
   250
370
    30
100
AcDbSpline
210
0.0
220
0.0
230
1.0
 70
     8
 71
     3
 72
    20
 73
    16
 74
     0
 42
0.0000000001
 43
0.0000000001
 40
0.0
 40
0.0
 40
0.0
 40
0.0
 40
0.2
 40
0.2
 40
0.2
 40
0.2
 40
0.4
 40
0.4
 40
0.4
 40
0.4
 40
0.6
 40
0.6
 40
0.6
 40
0.6
 40
1.0
 40
1.0
 40
1.0
 40
1.0
 10
11.5377
 20
10.9086
 30
0.0
 10
11.5377
 20
11.2951
 30
0.0
 10
11.5998
 20
11.6997
 30
0.0
 10
11.2855
 20
11.9829
 30
0.0
 10
11.2855
 20
11.9829
 30
0.0
 10
11.2461
 20
12.0184
 30
0.0
 10
11.2028
 20
12.0497
 30
0.0
 10
11.1567
 20
12.0764
 30
0.0
 10
11.1567
 20
12.0764
 30
0.0
 10
11.0876
 20
12.1163
 30
0.0
 10
11.0122
 20
12.1453
 30
0.0
 10
10.9342
 20
12.1619
 30
0.0
 10
10.9342
 20
12.1619
 30
0.0
 10
10.7307
 20
12.2051
 30
0.0
 10
10.4322
 20
12.1784
 30
0.0
 10
10.2679
 20
12.1784
 30
0.0
  0
SPLINE
  5
1A1
330
1F
100
AcDbEntity
  8
Ilustrace
 62
   250
370
    30
100
AcDbSpline
210
0.0
220
0.0
230
1.0
 70
    24
 71
     3
 72
    12
 73
     8
 74
     0
 42
0.0000000001
 43
0.0000000001
 40
0.0
 40
0.0
 40
0.0
 40
0.0
 40
0.3333333333333333
 40
0.3333333333333333
 40
0.3333333333333333
 40
0.3333333333333333
 40
1.0
 40
1.0
 40
1.0
 40
1.0
 10
10.2679
 20
12.1784
 30
0.0
 10
10.2679
 20
12.1784
 30
0.0
 10
-14.8747
 20
12.1784
 30
0.0
 10
-14.8747
 20
12.1784
 30
0.0
 10
-14.8747
 20
12.1784
 30
0.0
 10
-14.8747
 20
12.1784
 30
0.0
 10
-15.3825
 20
12.1784
 30
0.0
 10
-15.3825
 20
12.1784
 30
0.0
  0
SPLINE
  5
1A2
330
1F
100
AcDbEntity
  8
Ilustrace
 62
   250
370
    30
100
AcDbSpline
210
0.0
220
0.0
230
1.0
 70
     8
 71
     3
 72
    16
 73
    12
 74
     0
 42
0.0000000001
 43
0.0000000001
 40
0.0
 40
0.0
 40
0.0
 40
0.0
 40
0.25
 40
0.25
 40
0.25
 40
0.25
 40
0.5
 40
0.5
 40
0.5
 40
0.5
 40
1.0
 40
1.0
 40
1.0
 40
1.0
 10
-15.3825
 20
12.1784
 30
0.0
 10
-15.4639
 20
12.1742
 30
0.0
 10
-15.5401
 20
12.1664
 30
0.0
 10
-15.6181
 20
12.1412
 30
0.0
 10
-15.6181
 20
12.1412
 30
0.0
 10
-15.694
 20
12.1165
 30
0.0
 10
-15.7659
 20
12.0798
 30
0.0
 10
-15.8304
 20
12.033
 30
0.0
 10
-15.8304
 20
12.033
 30
0.0
 10
-16.2058
 20
11.7602
 30
0.0
 10
-16.1445
 20
11.3233
 30
0.0
 10
-16.1445
 20
10.9086
 30
0.0
  0
SPLINE
  5
1A3
330
1F
100
AcDbEntity
  8
Ilustrace
 62
   250
370
    30
100
AcDbSpline
210
0.0
220
0.0
230
1.0
 70
    24
 71
     3
 72
     8
 73
     4
 74
     0
 42
0.0000000001
 43
0.0000000001
 40
0.0
 40
0.0
 40
0.0
 40
0.0
 40
1.0
 40
1.0
 40
1.0
 40
1.0
 10
-16.1445
 20
10.9086
 30
0.0
 10
-16.1445
 20
10.9086
 30
0.0
 10
-16.1445
 20
8.242
 30
0.0
 10
-16.1445
 20
8.242
 30
0.0
  0
SPLINE
  5
1A4
330
1F
100
AcDbEntity
  8
Ilustrace
 62
   250
370
    30
100
AcDbSpline
210
0.0
220
0.0
230
1.0
 70
     8
 71
     3
 72
    12
 73
     8
 74
     0
 42
0.0000000001
 43
0.0000000001
 40
0.0
 40
0.0
 40
0.0
 40
0.0
 40
0.3333333333333333
 40
0.3333333333333333
 40
0.3333333333333333
 40
0.3333333333333333
 40
1.0
 40
1.0
 40
1.0
 40
1.0
 10
-16.1445
 20
8.242
 30
0.0
 10
-16.1445
 20
7.9186
 30
0.0
 10
-16.2014
 20
7.5648
 30
0.0
 10
-15.9989
 20
7.2862
 30
0.0
 10
-15.9989
 20
7.2862
 30
0.0
 10
-15.7264
 20
6.911
 30
0.0
 10
-15.2893
 20
6.9722
 30
0.0
 10
-14.8747
 20
6.9722
 30
0.0
  0
SPLINE
  5
1A5
330
1F
100
AcDbEntity
  8
Ilustrace
 62
   250
370
    30
100
AcDbSpline
210
0.0
220
0.0
230
1.0
 70
    24
 71
     3
 72
    12
 73
     8
 74
     0
 42
0.0000000001
 43
0.0000000001
 40
0.0
 40
0.0
 40
0.0
 40
0.0
 40
0.3333333333333333
 40
0.3333333333333333
 40
0.3333333333333333
 40
0.3333333333333333
 40
1.0
 40
1.0
 40
1.0
 40
1.0
 10
-14.8747
 20
6.9722
 30
0.0
 10
-14.8747
 20
6.9722
 30
0.0
 10
-12.4621
 20
6.9722
 30
0.0
 10
-12.4621
 20
6.9722
 30
0.0
 10
-12.4621
 20
6.9722
 30
0.0
 10
-12.4621
 20
6.9722
 30
0.0
 10
-11.9541
 20
6.9722
 30
0.0
 10
-11.9541
 20
6.9722
 30
0.0
  0
SPLINE
  5
1A6
330
1F
100
AcDbEntity
  8
Ilustrace
 62
   250
370
    30
100
AcDbSpline
210
0.0
220
0.0
230
1.0
 70
     8
 71
     3
 72
    12
 73
     8
 74
     0
 42
0.0000000001
 43
0.0000000001
 40
0.0
 40
0.0
 40
0.0
 40
0.0
 40
0.3333333333333333
 40
0.3333333333333333
 40
0.3333333333333333
 40
0.3333333333333333
 40
1.0
 40
1.0
 40
1.0
 40
1.0
 10
-11.5731
 20
6.9722
 30
0.0
 10
-11.4172
 20
6.9722
 30
0.0
 10
-11.2028
 20
6.9915
 30
0.0
 10
-11.0339
 20
6.9556
 30
0.0
 10
-11.0339
 20
6.9556
 30
0.0
 10
-10.7146
 20
6.8877
 30
0.0
 10
-10.4686
 20
6.6144
 30
0.0
 10
-10.4345
 20
6.29
 30
0.0
  0
SPLINE
  5
1A7
330
1F
100
AcDbEntity
  8
Ilustrace
 62
   250
370
    30
100
AcDbSpline
210
0.0
220
0.0
230
1.0
 70
     8
 71
     3
 72
    16
 73
    12
 74
     0
 42
0.0000000001
 43
0.0000000001
 40
0.0
 40
0.0
 40
0.0
 40
0.0
 40
0.25
 40
0.25
 40
0.25
 40
0.25
 40
0.5
 40
0.5
 40
0.5
 40
0.5
 40
1.0
 40
1.0
 40
1.0
 40
1.0
 10
-10.4345
 20
6.29
 30
0.0
 10
-10.4345
 20
6.29
 30
0.0
 10
-10.4303
 20
6.2104
 30
0.0
 10
-10.4303
 20
6.2104
 30
0.0
 10
-10.4303
 20
6.2104
 30
0.0
 10
-10.4303
 20
6.2104
 30
0.0
 10
-10.4303
 20
5.7024
 30
0.0
 10
-10.4303
 20
5.7024
 30
0.0
 10
-10.4303
 20
5.7024
 30
0.0
 10
-10.4303
 20
5.7024
 30
0.0
 10
-10.4303
 20
-1.1547
 30
0.0
 10
-10.4303
 20
-1.1547
 30
0.0
  0
SPLINE
  5
1A8
330
1F
100
AcDbEntity
  8
Ilustrace
 62
   250
370
    30
100
AcDbSpline
210
0.0
220
0.0
230
1.0
 70
     8
 71
     3
 72
    16
 73
    12
 74
     0
 42
0.0000000001
 43
0.0000000001
 40
0.0
 40
0.0
 40
0.0
 40
0.0
 40
0.25
 40
0.25
 40
0.25
 40
0.25
 40
0.5
 40
0.5
 40
0.5
 40
0.5
 40
1.0
 40
1.0
 40
1.0
 40
1.0
 10
-10.4303
 20
-1.1547
 30
0.0
 10
-10.4303
 20
-1.5694
 30
0.0
 10
-10.4916
 20
-2.0063
 30
0.0
 10
-10.1162
 20
-2.279
 30
0.0
 10
-10.1162
 20
-2.279
 30
0.0
 10
-10.0517
 20
-2.326
 30
0.0
 10
-9.9797
 20
-2.3625
 30
0.0
 10
-9.9039
 20
-2.3872
 30
0.0
 10
-9.9039
 20
-2.3872
 30
0.0
 10
-9.826
 20
-2.4125
 30
0.0
 10
-9.7497
 20
-2.4202
 30
0.0
 10
-9.6684
 20
-2.4246
 30
0.0
  0
SPLINE
  5
1A9
330
1F
100
AcDbEntity
  8
Ilustrace
 62
   250
370
    30
100
AcDbSpline
210
0.0
220
0.0
230
1.0
 70
     8
 71
     3
 72
    16
 73
    12
 74
     0
 42
0.0000000001
 43
0.0000000001
 40
0.0
 40
0.0
 40
0.0
 40
0.0
 40
0.25
 40
0.25
 40
0.25
 40
0.25
 40
0.5
 40
0.5
 40
0.5
 40
0.5
 40
1.0
 40
1.0
 40
1.0
 40
1.0
 10
5.0616
 20
-2.4246
 30
0.0
 10
5.1428
 20
-2.4202
 30
0.0
 10
5.2191
 20
-2.4125
 30
0.0
 10
5.297
 20
-2.3872
 30
0.0
 10
5.297
 20
-2.3872
 30
0.0
 10
5.3728
 20
-2.3625
 30
0.0
 10
5.4447
 20
-2.326
 30
0.0
 10
5.5094
 20
-2.279
 30
0.0
 10
5.5094
 20
-2.279
 30
0.0
 10
5.8847
 20
-2.0063
 30
0.0
 10
5.8234
 20
-1.5694
 30
0.0
 10
5.8234
 20
-1.1547
 30
0.0
  0
SPLINE
  5
1AA
330
1F
100
AcDbEntity
  8
Ilustrace
 62
   250
370
    30
100
AcDbSpline
210
0.0
220
0.0
230
1.0
 70
     8
 71
     3
 72
    16
 73
    12
 74
     0
 42
0.0000000001
 43
0.0000000001
 40
0.0
 40
0.0
 40
0.0
 40
0.0
 40
0.25
 40
0.25
 40
0.25
 40
0.25
 40
0.5
 40
0.5
 40
0.5
 40
0.5
 40
1.0
 40
1.0
 40
1.0
 40
1.0
 10
5.8234
 20
-1.1547
 30
0.0
 10
5.8234
 20
-1.1547
 30
0.0
 10
5.8234
 20
5.7024
 30
0.0
 10
5.8234
 20
5.7024
 30
0.0
 10
5.8234
 20
5.7024
 30
0.0
 10
5.8234
 20
5.7024
 30
0.0
 10
5.8234
 20
6.2104
 30
0.0
 10
5.8234
 20
6.2104
 30
0.0
 10
5.8234
 20
6.2104
 30
0.0
 10
5.8234
 20
6.2104
 30
0.0
 10
5.8277
 20
6.29
 30
0.0
 10
5.8277
 20
6.29
 30
0.0
  0
SPLINE
  5
1AB
330
1F
100
AcDbEntity
  8
Ilustrace
 62
   250
370
    30
100
AcDbSpline
210
0.0
220
0.0
230
1.0
 70
     8
 71
     3
 72
    12
 73
     8
 74
     0
 42
0.0000000001
 43
0.0000000001
 40
0.0
 40
0.0
 40
0.0
 40
0.0
 40
0.3333333333333333
 40
0.3333333333333333
 40
0.3333333333333333
 40
0.3333333333333333
 40
1.0
 40
1.0
 40
1.0
 40
1.0
 10
5.8277
 20
6.29
 30
0.0
 10
5.8617
 20
6.6146
 30
0.0
 10
6.1076
 20
6.8877
 30
0.0
 10
6.4269
 20
6.9556
 30
0.0
 10
6.4269
 20
6.9556
 30
0.0
 10
6.5959
 20
6.9915
 30
0.0
 10
6.8104
 20
6.9722
 30
0.0
 10
6.9663
 20
6.9722
 30
0.0
  0
SPLINE
  5
1AC
330
1F
100
AcDbEntity
  8
Ilustrace
 62
   250
370
    30
100
AcDbSpline
210
0.0
220
0.0
230
1.0
 70
    24
 71
     3
 72
    12
 73
     8
 74
     0
 42
0.0000000001
 43
0.0000000001
 40
0.0
 40
0.0
 40
0.0
 40
0.0
 40
0.3333333333333333
 40
0.3333333333333333
 40
0.3333333333333333
 40
0.3333333333333333
 40
1.0
 40
1.0
 40
1.0
 40
1.0
 10
-6.7478
 20
3.9557
 30
0.0
 10
-6.7478
 20
3.9557
 30
0.0
 10
-6.7478
 20
3.4479
 30
0.0
 10
-6.7478
 20
3.4479
 30
0.0
 10
-6.7478
 20
3.4479
 30
0.0
 10
-6.7478
 20
3.4479
 30
0.0
 10
-6.7478
 20
-0.2658
 30
0.0
 10
-6.7478
 20
-0.2658
 30
0.0
  0
SPLINE
  5
1AD
330
1F
100
AcDbEntity
  8
Ilustrace
 62
   250
370
    30
100
AcDbSpline
210
0.0
220
0.0
230
1.0
 70
     8
 71
     3
 72
    16
 73
    12
 74
     0
 42
0.0000000001
 43
0.0000000001
 40
0.0
 40
0.0
 40
0.0
 40
0.0
 40
0.25
 40
0.25
 40
0.25
 40
0.25
 40
0.5
 40
0.5
 40
0.5
 40
0.5
 40
1.0
 40
1.0
 40
1.0
 40
1.0
 10
-6.7478
 20
-0.2658
 30
0.0
 10
-6.7478
 20
-0.6078
 30
0.0
 10
-6.8123
 20
-0.984
 30
0.0
 10
-6.5564
 20
-1.2541
 30
0.0
 10
-6.5564
 20
-1.2541
 30
0.0
 10
-6.1784
 20
-1.6531
 30
0.0
 10
-5.4854
 20
-1.4606
 30
0.0
 10
-5.3673
 20
-0.9239
 30
0.0
 10
-5.3673
 20
-0.9239
 30
0.0
 10
-5.3235
 20
-0.7249
 30
0.0
 10
-5.351
 20
-0.4185
 30
0.0
 10
-5.351
 20
-0.2658
 30
0.0
  0
SPLINE
  5
1AE
330
1F
100
AcDbEntity
  8
Ilustrace
 62
   250
370
    30
100
AcDbSpline
210
0.0
220
0.0
230
1.0
 70
    24
 71
     3
 72
    12
 73
     8
 74
     0
 42
0.0000000001
 43
0.0000000001
 40
0.0
 40
0.0
 40
0.0
 40
0.0
 40
0.3333333333333333
 40
0.3333333333333333
 40
0.3333333333333333
 40
0.3333333333333333
 40
1.0
 40
1.0
 40
1.0
 40
1.0
 10
-5.351
 20
-0.2658
 30
0.0
 10
-5.351
 20
-0.2658
 30
0.0
 10
-5.351
 20
3.4477
 30
0.0
 10
-5.351
 20
3.4477
 30
0.0
 10
-5.351
 20
3.4477
 30
0.0
 10
-5.351
 20
3.4477
 30
0.0
 10
-5.351
 20
3.9557
 30
0.0
 10
-5.351
 20
3.9557
 30
0.0
  0
SPLINE
  5
1AF
330
1F
100
AcDbEntity
  8
Ilustrace
 62
   250
370
    30
100
AcDbSpline
210
0.0
220
0.0
230
1.0
 70
     8
 71
     3
 72
    12
 73
     8
 74
     0
 42
0.0000000001
 43
0.0000000001
 40
0.0
 40
0.0
 40
0.0
 40
0.0
 40
0.3333333333333333
 40
0.3333333333333333
 40
0.3333333333333333
 40
0.3333333333333333
 40
1.0
 40
1.0
 40
1.0
 40
1.0
 10
0.7443
 20
3.9557
 30
0.0
 10
0.7443
 20
3.9557
 30
0.0
 10
0.7443
 20
3.4477
 30
0.0
 10
0.7443
 20
3.4477
 30
0.0
 10
0.7443
 20
3.4477
 30
0.0
 10
0.7443
 20
3.4477
 30
0.0
 10
0.7442
 20
-0.2658
 30
0.0
 10
0.7442
 20
-0.2658
 30
0.0
  0
SPLINE
  5
1B0
330
1F
100
AcDbEntity
  8
Ilustrace
 62
   250
370
    30
100
AcDbSpline
210
0.0
220
0.0
230
1.0
 70
     8
 71
     3
 72
    16
 73
    12
 74
     0
 42
0.0000000001
 43
0.0000000001
 40
0.0
 40
0.0
 40
0.0
 40
0.0
 40
0.25
 40
0.25
 40
0.25
 40
0.25
 40
0.5
 40
0.5
 40
0.5
 40
0.5
 40
1.0
 40
1.0
 40
1.0
 40
1.0
 10
0.7442
 20
-0.2658
 30
0.0
 10
0.7442
 20
-0.6078
 30
0.0
 10
0.6797
 20
-0.984
 30
0.0
 10
0.9355
 20
-1.2541
 30
0.0
 10
0.9355
 20
-1.2541
 30
0.0
 10
1.3135
 20
-1.6531
 30
0.0
 10
2.0064
 20
-1.4606
 30
0.0
 10
2.1246
 20
-0.9239
 30
0.0
 10
2.1246
 20
-0.9239
 30
0.0
 10
2.1685
 20
-0.7249
 30
0.0
 10
2.141
 20
-0.4185
 30
0.0
 10
2.141
 20
-0.2658
 30
0.0
  0
SPLINE
  5
1B1
330
1F
100
AcDbEntity
  8
Ilustrace
 62
   250
370
    30
100
AcDbSpline
210
0.0
220
0.0
230
1.0
 70
    24
 71
     3
 72
    12
 73
     8
 74
     0
 42
0.0000000001
 43
0.0000000001
 40
0.0
 40
0.0
 40
0.0
 40
0.0
 40
0.3333333333333333
 40
0.3333333333333333
 40
0.3333333333333333
 40
0.3333333333333333
 40
1.0
 40
1.0
 40
1.0
 40
1.0
 10
2.141
 20
-0.2658
 30
0.0
 10
2.141
 20
-0.2658
 30
0.0
 10
2.141
 20
3.4479
 30
0.0
 10
2.141
 20
3.4479
 30
0.0
 10
2.141
 20
3.4479
 30
0.0
 10
2.141
 20
3.4479
 30
0.0
 10
2.141
 20
3.9558
 30
0.0
 10
2.141
 20
3.9558
 30
0.0
  0
SPLINE
  5
1B2
330
1F
100
AcDbEntity
  8
Ilustrace
 62
   250
370
    15
100
AcDbSpline
210
0.0
220
0.0
230
1.0
 70
    24
 71
     3
 72
     8
 73
     4
 74
     0
 42
0.0000000001
 43
0.0000000001
 40
0.0
 40
0.0
 40
0.0
 40
0.0
 40
1.0
 40
1.0
 40
1.0
 40
1.0
 10
11.5969
 20
12.1332
 30
0.0
 10
11.5969
 20
12.1332
 30
0.0
 10
11.5969
 20
15.8407
 30
0.0
 10
11.5969
 20
15.8407
 30
0.0
  0
SPLINE
  5
1B3
330
1F
100
AcDbEntity
  8
Ilustrace
 62
   250
370
    15
100
AcDbSpline
210
0.0
220
0.0
230
1.0
 70
    24
 71
     3
 72
     8
 73
     4
 74
     0
 42
0.0000000001
 43
0.0000000001
 40
0.0
 40
0.0
 40
0.0
 40
0.0
 40
1.0
 40
1.0
 40
1.0
 40
1.0
 10
7.4297
 20
-7.1589
 30
0.0
 10
7.4297
 20
-7.1589
 30
0.0
 10
7.4297
 20
-2.6141
 30
0.0
 10
7.4297
 20
-2.6141
 30
0.0
  0
SPLINE
  5
1B4
330
1F
100
AcDbEntity
  8
Ilustrace
 62
   250
370
    15
100
AcDbSpline
210
0.0
220
0.0
230
1.0
 70
    24
 71
     3
 72
     8
 73
     4
 74
     0
 42
0.0000000001
 43
0.0000000001
 40
0.0
 40
0.0
 40
0.0
 40
0.0
 40
1.0
 40
1.0
 40
1.0
 40
1.0
 10
-16.0969
 20
12.3538
 30
0.0
 10
-16.0969
 20
12.3538
 30
0.0
 10
-16.0969
 20
15.9193
 30
0.0
 10
-16.0969
 20
15.9193
 30
0.0
  0
SPLINE
  5
1B5
330
1F
100
AcDbEntity
  8
Ilustrace
 62
   250
370
    15
100
AcDbSpline
210
0.0
220
0.0
230
1.0
 70
    24
 71
     3
 72
     8
 73
     4
 74
     0
 42
0.0000000001
 43
0.0000000001
 40
0.0
 40
0.0
 40
0.0
 40
0.0
 40
1.0
 40
1.0
 40
1.0
 40
1.0
 10
-12.0179
 20
-7.1588
 30
0.0
 10
-12.0179
 20
-7.1588
 30
0.0
 10
-12.0179
 20
-2.6899
 30
0.0
 10
-12.0179
 20
-2.6899
 30
0.0
  0
SPLINE
  5
1B6
330
1F
100
AcDbEntity
  8
Ilustrace
 62
   250
370
    15
100
AcDbSpline
210
0.0
220
0.0
230
1.0
 70
    24
 71
     3
 72
     8
 73
     4
 74
     0
 42
0.0000000001
 43
0.0000000001
 40
0.0
 40
0.0
 40
0.0
 40
0.0
 40
1.0
 40
1.0
 40
1.0
 40
1.0
 10
15.602
 20
-2.8123
 30
0.0
 10
15.602
 20
-2.8123
 30
0.0
 10
7.2295
 20
-2.8123
 30
0.0
 10
7.2295
 20
-2.8123
 30
0.0
  0
SPLINE
  5
1B7
330
1F
100
AcDbEntity
  8
Ilustrace
 62
   250
100
AcDbSpline
210
0.0
220
0.0
230
1.0
 70
    11
 71
     3
 72
    36
 73
    32
 74
     0
 42
0.0000000001
 43
0.0000000001
 40
0.0
 40
0.0
 40
0.0
 40
0.0
 40
0.1111111111111111
 40
0.1111111111111111
 40
0.1111111111111111
 40
0.1111111111111111
 40
0.2222222222222222
 40
0.2222222222222222
 40
0.2222222222222222
 40
0.2222222222222222
 40
0.3333333333333333
 40
0.3333333333333333
 40
0.3333333333333333
 40
0.3333333333333333
 40
0.4444444444444444
 40
0.4444444444444444
 40
0.4444444444444444
 40
0.4444444444444444
 40
0.5555555555555556
 40
0.5555555555555556
 40
0.5555555555555556
 40
0.5555555555555556
 40
0.6666666666666666
 40
0.6666666666666666
 40
0.6666666666666666
 40
0.6666666666666666
 40
0.7777777777777778
 40
0.7777777777777778
 40
0.7777777777777778
 40
0.7777777777777778
 40
1.0
 40
1.0
 40
1.0
 40
1.0
 10
-3.5513
 20
15.9518
 30
0.0
 10
-3.5513
 20
15.9518
 30
0.0
 10
-3.2875
 20
15.9518
 30
0.0
 10
-3.2875
 20
15.9518
 30
0.0
 10
-3.2875
 20
15.9518
 30
0.0
 10
-3.2875
 20
15.9518
 30
0.0
 10
-3.2875
 20
18.4739
 30
0.0
 10
-3.2875
 20
18.4739
 30
0.0
 10
-3.2875
 20
18.4739
 30
0.0
 10
-3.2875
 20
18.4739
 30
0.0
 10
-3.5203
 20
18.4739
 30
0.0
 10
-3.5203
 20
18.4739
 30
0.0
 10
-3.5203
 20
18.4739
 30
0.0
 10
-3.5203
 20
18.4739
 30
0.0
 10
-3.9611
 20
18.1791
 30
0.0
 10
-3.9611
 20
18.1791
 30
0.0
 10
-3.9611
 20
18.1791
 30
0.0
 10
-3.9611
 20
18.1791
 30
0.0
 10
-3.9083
 20
17.919
 30
0.0
 10
-3.9083
 20
17.919
 30
0.0
 10
-3.9083
 20
17.919
 30
0.0
 10
-3.9083
 20
17.919
 30
0.0
 10
-3.5575
 20
18.1557
 30
0.0
 10
-3.5575
 20
18.1557
 30
0.0
 10
-3.5575
 20
18.1557
 30
0.0
 10
-3.5575
 20
18.1557
 30
0.0
 10
-3.5513
 20
18.1557
 30
0.0
 10
-3.5513
 20
18.1557
 30
0.0
 10
-3.5513
 20
18.1557
 30
0.0
 10
-3.5513
 20
18.1557
 30
0.0
 10
-3.5513
 20
15.9518
 30
0.0
 10
-3.5513
 20
15.9518
 30
0.0
  0
SPLINE
  5
1B8
330
1F
100
AcDbEntity
  8
Ilustrace
 62
   250
100
AcDbSpline
210
0.0
220
0.0
230
1.0
 70
    11
 71
     3
 72
    56
 73
    52
 74
     0
 42
0.0000000001
 43
0.0000000001
 40
0.0
 40
0.0
 40
0.0
 40
0.0
 40
0.0714285714285714
 40
0.0714285714285714
 40
0.0714285714285714
 40
0.0714285714285714
 40
0.1428571428571428
 40
0.1428571428571428
 40
0.1428571428571428
 40
0.1428571428571428
 40
0.2142857142857143
 40
0.2142857142857143
 40
0.2142857142857143
 40
0.2142857142857143
 40
0.2857142857142857
 40
0.2857142857142857
 40
0.2857142857142857
 40
0.2857142857142857
 40
0.3571428571428572
 40
0.3571428571428572
 40
0.3571428571428572
 40
0.3571428571428572
 40
0.4285714285714285
 40
0.4285714285714285
 40
0.4285714285714285
 40
0.4285714285714285
 40
0.5
 40
0.5
 40
0.5
 40
0.5
 40
0.5714285714285714
 40
0.5714285714285714
 40
0.5714285714285714
 40
0.5714285714285714
 40
0.6428571428571429
 40
0.6428571428571429
 40
0.6428571428571429
 40
0.6428571428571429
 40
0.7142857142857143
 40
0.7142857142857143
 40
0.7142857142857143
 40
0.7142857142857143
 40
0.7857142857142857
 40
0.7857142857142857
 40
0.7857142857142857
 40
0.7857142857142857
 40
0.8571428571428571
 40
0.8571428571428571
 40
0.8571428571428571
 40
0.8571428571428571
 40
1.0
 40
1.0
 40
1.0
 40
1.0
 10
-1.8751
 20
18.5166
 30
0.0
 10
-1.978
 20
18.5166
 30
0.0
 10
-2.0722
 20
18.4882
 30
0.0
 10
-2.158
 20
18.4312
 30
0.0
 10
-2.158
 20
18.4312
 30
0.0
 10
-2.244
 20
18.3744
 30
0.0
 10
-2.3179
 20
18.291
 30
0.0
 10
-2.381
 20
18.1798
 30
0.0
 10
-2.381
 20
18.1798
 30
0.0
 10
-2.4441
 20
18.0684
 30
0.0
 10
-2.4928
 20
17.9314
 30
0.0
 10
-2.5275
 20
17.7684
 30
0.0
 10
-2.5275
 20
17.7684
 30
0.0
 10
-2.5616
 20
17.6055
 30
0.0
 10
-2.5791
 20
17.4179
 30
0.0
 10
-2.5797
 20
17.205
 30
0.0
 10
-2.5797
 20
17.205
 30
0.0
 10
-2.5766
 20
16.9263
 30
0.0
 10
-2.5471
 20
16.691
 30
0.0
 10
-2.4908
 20
16.4983
 30
0.0
 10
-2.4908
 20
16.4983
 30
0.0
 10
-2.4344
 20
16.3055
 30
0.0
 10
-2.3562
 20
16.1595
 30
0.0
 10
-2.2569
 20
16.0598
 30
0.0
 10
-2.2569
 20
16.0598
 30
0.0
 10
-2.1576
 20
15.9602
 30
0.0
 10
-2.0417
 20
15.9098
 30
0.0
 10
-1.9093
 20
15.9091
 30
0.0
 10
-1.9093
 20
15.9091
 30
0.0
 10
-1.7608
 20
15.9098
 30
0.0
 10
-1.6345
 20
15.9615
 30
0.0
 10
-1.5301
 20
16.0637
 30
0.0
 10
-1.5301
 20
16.0637
 30
0.0
 10
-1.4255
 20
16.1659
 30
0.0
 10
-1.3458
 20
16.3159
 30
0.0
 10
-1.291
 20
16.5139
 30
0.0
 10
-1.291
 20
16.5139
 30
0.0
 10
-1.2357
 20
16.7117
 30
0.0
 10
-1.2082
 20
16.9536
 30
0.0
 10
-1.2077
 20
17.24
 30
0.0
 10
-1.2077
 20
17.24
 30
0.0
 10
-1.2082
 20
17.5085
 30
0.0
 10
-1.2346
 20
17.7381
 30
0.0
 10
-1.2869
 20
17.9282
 30
0.0
 10
-1.2869
 20
17.9282
 30
0.0
 10
-1.3391
 20
18.1183
 30
0.0
 10
-1.4151
 20
18.2637
 30
0.0
 10
-1.5144
 20
18.364
 30
0.0
 10
-1.5144
 20
18.364
 30
0.0
 10
-1.6138
 20
18.4649
 30
0.0
 10
-1.7338
 20
18.516
 30
0.0
 10
-1.8751
 20
18.5166
 30
0.0
  0
SPLINE
  5
1B9
330
1F
100
AcDbEntity
  8
Ilustrace
 62
   250
100
AcDbSpline
210
0.0
220
0.0
230
1.0
 70
    11
 71
     3
 72
    56
 73
    52
 74
     0
 42
0.0000000001
 43
0.0000000001
 40
0.0
 40
0.0
 40
0.0
 40
0.0
 40
0.0714285714285714
 40
0.0714285714285714
 40
0.0714285714285714
 40
0.0714285714285714
 40
0.1428571428571428
 40
0.1428571428571428
 40
0.1428571428571428
 40
0.1428571428571428
 40
0.2142857142857143
 40
0.2142857142857143
 40
0.2142857142857143
 40
0.2142857142857143
 40
0.2857142857142857
 40
0.2857142857142857
 40
0.2857142857142857
 40
0.2857142857142857
 40
0.3571428571428572
 40
0.3571428571428572
 40
0.3571428571428572
 40
0.3571428571428572
 40
0.4285714285714285
 40
0.4285714285714285
 40
0.4285714285714285
 40
0.4285714285714285
 40
0.5
 40
0.5
 40
0.5
 40
0.5
 40
0.5714285714285714
 40
0.5714285714285714
 40
0.5714285714285714
 40
0.5714285714285714
 40
0.6428571428571429
 40
0.6428571428571429
 40
0.6428571428571429
 40
0.6428571428571429
 40
0.7142857142857143
 40
0.7142857142857143
 40
0.7142857142857143
 40
0.7142857142857143
 40
0.7857142857142857
 40
0.7857142857142857
 40
0.7857142857142857
 40
0.7857142857142857
 40
0.8571428571428571
 40
0.8571428571428571
 40
0.8571428571428571
 40
0.8571428571428571
 40
1.0
 40
1.0
 40
1.0
 40
1.0
 10
-1.8938
 20
18.2528
 30
0.0
 10
-1.8223
 20
18.2522
 30
0.0
 10
-1.7608
 20
18.2282
 30
0.0
 10
-1.709
 20
18.1798
 30
0.0
 10
-1.709
 20
18.1798
 30
0.0
 10
-1.6573
 20
18.1312
 30
0.0
 10
-1.6149
 20
18.0619
 30
0.0
 10
-1.5817
 20
17.9716
 30
0.0
 10
-1.5817
 20
17.9716
 30
0.0
 10
-1.5486
 20
17.8815
 30
0.0
 10
-1.5237
 20
17.7728
 30
0.0
 10
-1.5077
 20
17.6475
 30
0.0
 10
-1.5077
 20
17.6475
 30
0.0
 10
-1.4918
 20
17.5214
 30
0.0
 10
-1.484
 20
17.3804
 30
0.0
 10
-1.484
 20
17.2246
 30
0.0
 10
-1.484
 20
17.2246
 30
0.0
 10
-1.484
 20
17.0085
 30
0.0
 10
-1.4989
 20
16.8223
 30
0.0
 10
-1.5289
 20
16.6658
 30
0.0
 10
-1.5289
 20
16.6658
 30
0.0
 10
-1.5585
 20
16.5087
 30
0.0
 10
-1.6039
 20
16.3876
 30
0.0
 10
-1.6645
 20
16.3022
 30
0.0
 10
-1.6645
 20
16.3022
 30
0.0
 10
-1.725
 20
16.2169
 30
0.0
 10
-1.8017
 20
16.1742
 30
0.0
 10
-1.8938
 20
16.1729
 30
0.0
 10
-1.8938
 20
16.1729
 30
0.0
 10
-1.977
 20
16.1736
 30
0.0
 10
-2.0489
 20
16.2136
 30
0.0
 10
-2.1104
 20
16.294
 30
0.0
 10
-2.1104
 20
16.294
 30
0.0
 10
-2.1715
 20
16.3742
 30
0.0
 10
-2.2186
 20
16.4905
 30
0.0
 10
-2.2523
 20
16.6432
 30
0.0
 10
-2.2523
 20
16.6432
 30
0.0
 10
-2.2859
 20
16.7963
 30
0.0
 10
-2.303
 20
16.9819
 30
0.0
 10
-2.3035
 20
17.2013
 30
0.0
 10
-2.3035
 20
17.2013
 30
0.0
 10
-2.303
 20
17.4308
 30
0.0
 10
-2.2849
 20
17.6229
 30
0.0
 10
-2.2496
 20
17.7795
 30
0.0
 10
-2.2496
 20
17.7795
 30
0.0
 10
-2.2144
 20
17.9353
 30
0.0
 10
-2.1664
 20
18.053
 30
0.0
 10
-2.1048
 20
18.1331
 30
0.0
 10
-2.1048
 20
18.1331
 30
0.0
 10
-2.0433
 20
18.2128
 30
0.0
 10
-1.9728
 20
18.2528
 30
0.0
 10
-1.8938
 20
18.2528
 30
0.0
  0
SPLINE
  5
1BA
330
1F
100
AcDbEntity
  8
Ilustrace
 62
   250
100
AcDbSpline
210
0.0
220
0.0
230
1.0
 70
    11
 71
     3
 72
   124
 73
   120
 74
     0
 42
0.0000000001
 43
0.0000000001
 40
0.0
 40
0.0
 40
0.0
 40
0.0
 40
0.032258064516129
 40
0.032258064516129
 40
0.032258064516129
 40
0.032258064516129
 40
0.0645161290322581
 40
0.0645161290322581
 40
0.0645161290322581
 40
0.0645161290322581
 40
0.0967741935483871
 40
0.0967741935483871
 40
0.0967741935483871
 40
0.0967741935483871
 40
0.1290322580645161
 40
0.1290322580645161
 40
0.1290322580645161
 40
0.1290322580645161
 40
0.1612903225806452
 40
0.1612903225806452
 40
0.1612903225806452
 40
0.1612903225806452
 40
0.1935483870967742
 40
0.1935483870967742
 40
0.1935483870967742
 40
0.1935483870967742
 40
0.2258064516129032
 40
0.2258064516129032
 40
0.2258064516129032
 40
0.2258064516129032
 40
0.2580645161290323
 40
0.2580645161290323
 40
0.2580645161290323
 40
0.2580645161290323
 40
0.2903225806451613
 40
0.2903225806451613
 40
0.2903225806451613
 40
0.2903225806451613
 40
0.3225806451612903
 40
0.3225806451612903
 40
0.3225806451612903
 40
0.3225806451612903
 40
0.3548387096774194
 40
0.3548387096774194
 40
0.3548387096774194
 40
0.3548387096774194
 40
0.3870967741935484
 40
0.3870967741935484
 40
0.3870967741935484
 40
0.3870967741935484
 40
0.4193548387096774
 40
0.4193548387096774
 40
0.4193548387096774
 40
0.4193548387096774
 40
0.4516129032258064
 40
0.4516129032258064
 40
0.4516129032258064
 40
0.4516129032258064
 40
0.4838709677419355
 40
0.4838709677419355
 40
0.4838709677419355
 40
0.4838709677419355
 40
0.5161290322580645
 40
0.5161290322580645
 40
0.5161290322580645
 40
0.5161290322580645
 40
0.5483870967741935
 40
0.5483870967741935
 40
0.5483870967741935
 40
0.5483870967741935
 40
0.5806451612903226
 40
0.5806451612903226
 40
0.5806451612903226
 40
0.5806451612903226
 40
0.6129032258064516
 40
0.6129032258064516
 40
0.6129032258064516
 40
0.6129032258064516
 40
0.6451612903225806
 40
0.6451612903225806
 40
0.6451612903225806
 40
0.6451612903225806
 40
0.6774193548387096
 40
0.6774193548387096
 40
0.6774193548387096
 40
0.6774193548387096
 40
0.7096774193548387
 40
0.7096774193548387
 40
0.7096774193548387
 40
0.7096774193548387
 40
0.7419354838709677
 40
0.7419354838709677
 40
0.7419354838709677
 40
0.7419354838709677
 40
0.7741935483870968
 40
0.7741935483870968
 40
0.7741935483870968
 40
0.7741935483870968
 40
0.8064516129032258
 40
0.8064516129032258
 40
0.8064516129032258
 40
0.8064516129032258
 40
0.8387096774193549
 40
0.8387096774193549
 40
0.8387096774193549
 40
0.8387096774193549
 40
0.8709677419354839
 40
0.8709677419354839
 40
0.8709677419354839
 40
0.8709677419354839
 40
0.9032258064516129
 40
0.9032258064516129
 40
0.9032258064516129
 40
0.9032258064516129
 40
0.9354838709677419
 40
0.9354838709677419
 40
0.9354838709677419
 40
0.9354838709677419
 40
1.0
 40
1.0
 40
1.0
 40
1.0
 10
-0.8011
 20
15.9131
 30
0.0
 10
-0.7685
 20
15.9111
 30
0.0
 10
-0.7308
 20
15.9111
 30
0.0
 10
-0.6883
 20
15.9143
 30
0.0
 10
-0.6883
 20
15.9143
 30
0.0
 10
-0.6458
 20
15.9168
 30
0.0
 10
-0.5993
 20
15.9227
 30
0.0
 10
-0.5496
 20
15.9324
 30
0.0
 10
-0.5496
 20
15.9324
 30
0.0
 10
-0.4767
 20
15.9428
 30
0.0
 10
-0.4052
 20
15.9627
 30
0.0
 10
-0.3355
 20
15.9913
 30
0.0
 10
-0.3355
 20
15.9913
 30
0.0
 10
-0.2656
 20
16.0203
 30
0.0
 10
-0.1989
 20
16.0585
 30
0.0
 10
-0.1358
 20
16.1051
 30
0.0
 10
-0.1358
 20
16.1051
 30
0.0
 10
-0.0727
 20
16.1516
 30
0.0
 10
-0.0151
 20
16.2066
 30
0.0
 10
0.0371
 20
16.27
 30
0.0
 10
0.0371
 20
16.27
 30
0.0
 10
0.1038
 20
16.3501
 30
0.0
 10
0.1634
 20
16.4466
 30
0.0
 10
0.2156
 20
16.5603
 30
0.0
 10
0.2156
 20
16.5603
 30
0.0
 10
0.2678
 20
16.6735
 30
0.0
 10
0.3087
 20
16.8042
 30
0.0
 10
0.3387
 20
16.9522
 30
0.0
 10
0.3387
 20
16.9522
 30
0.0
 10
0.3687
 20
17.1003
 30
0.0
 10
0.3842
 20
17.2658
 30
0.0
 10
0.3847
 20
17.4495
 30
0.0
 10
0.3847
 20
17.4495
 30
0.0
 10
0.3847
 20
17.6132
 30
0.0
 10
0.3692
 20
17.7599
 30
0.0
 10
0.3387
 20
17.8912
 30
0.0
 10
0.3387
 20
17.8912
 30
0.0
 10
0.3081
 20
18.0225
 30
0.0
 10
0.2637
 20
18.1344
 30
0.0
 10
0.2057
 20
18.2277
 30
0.0
 10
0.2057
 20
18.2277
 30
0.0
 10
0.1477
 20
18.3207
 30
0.0
 10
0.078
 20
18.3918
 30
0.0
 10
-0.0044
 20
18.4416
 30
0.0
 10
-0.0044
 20
18.4416
 30
0.0
 10
-0.0866
 20
18.4915
 30
0.0
 10
-0.1793
 20
18.516
 30
0.0
 10
-0.2827
 20
18.5166
 30
0.0
 10
-0.2827
 20
18.5166
 30
0.0
 10
-0.3861
 20
18.516
 30
0.0
 10
-0.4803
 20
18.4915
 30
0.0
 10
-0.5646
 20
18.4436
 30
0.0
 10
-0.5646
 20
18.4436
 30
0.0
 10
-0.649
 20
18.3964
 30
0.0
 10
-0.7214
 20
18.3304
 30
0.0
 10
-0.782
 20
18.2476
 30
0.0
 10
-0.782
 20
18.2476
 30
0.0
 10
-0.843
 20
18.1642
 30
0.0
 10
-0.8896
 20
18.0691
 30
0.0
 10
-0.9222
 20
17.9617
 30
0.0
 10
-0.9222
 20
17.9617
 30
0.0
 10
-0.9547
 20
17.8544
 30
0.0
 10
-0.9712
 20
17.7406
 30
0.0
 10
-0.9718
 20
17.6202
 30
0.0
 10
-0.9718
 20
17.6202
 30
0.0
 10
-0.9712
 20
17.5123
 30
0.0
 10
-0.9573
 20
17.4115
 30
0.0
 10
-0.9299
 20
17.3182
 30
0.0
 10
-0.9299
 20
17.3182
 30
0.0
 10
-0.9019
 20
17.2246
 30
0.0
 10
-0.862
 20
17.143
 30
0.0
 10
-0.8104
 20
17.0725
 30
0.0
 10
-0.8104
 20
17.0725
 30
0.0
 10
-0.7586
 20
17.0027
 30
0.0
 10
-0.696
 20
16.9477
 30
0.0
 10
-0.6236
 20
16.9082
 30
0.0
 10
-0.6236
 20
16.9082
 30
0.0
 10
-0.5507
 20
16.8688
 30
0.0
 10
-0.4694
 20
16.8489
 30
0.0
 10
-0.3788
 20
16.8482
 30
0.0
 10
-0.3788
 20
16.8482
 30
0.0
 10
-0.2764
 20
16.8489
 30
0.0
 10
-0.1848
 20
16.872
 30
0.0
 10
-0.1046
 20
16.9179
 30
0.0
 10
-0.1046
 20
16.9179
 30
0.0
 10
-0.025
 20
16.9638
 30
0.0
 10
0.0433
 20
17.0298
 30
0.0
 10
0.0991
 20
17.1159
 30
0.0
 10
0.0991
 20
17.1159
 30
0.0
 10
0.0991
 20
17.1159
 30
0.0
 10
0.1084
 20
17.1159
 30
0.0
 10
0.1084
 20
17.1159
 30
0.0
 10
0.1084
 20
17.1159
 30
0.0
 10
0.0893
 20
16.9685
 30
0.0
 10
0.0568
 20
16.839
 30
0.0
 10
0.0111
 20
16.7285
 30
0.0
 10
0.0111
 20
16.7285
 30
0.0
 10
-0.0348
 20
16.6173
 30
0.0
 10
-0.0913
 20
16.5241
 30
0.0
 10
-0.1584
 20
16.4484
 30
0.0
 10
-0.1584
 20
16.4484
 30
0.0
 10
-0.2164
 20
16.3786
 30
0.0
 10
-0.2811
 20
16.3243
 30
0.0
 10
-0.353
 20
16.2841
 30
0.0
 10
-0.353
 20
16.2841
 30
0.0
 10
-0.4249
 20
16.2441
 30
0.0
 10
-0.5009
 20
16.2176
 30
0.0
 10
-0.5807
 20
16.204
 30
0.0
 10
-0.5807
 20
16.204
 30
0.0
 10
-0.6267
 20
16.1982
 30
0.0
 10
-0.6681
 20
16.1937
 30
0.0
 10
-0.7038
 20
16.191
 30
0.0
 10
-0.7038
 20
16.191
 30
0.0
 10
-0.7395
 20
16.1885
 30
0.0
 10
-0.7721
 20
16.1885
 30
0.0
 10
-0.8011
 20
16.1923
 30
0.0
 10
-0.8011
 20
16.1923
 30
0.0
 10
-0.8011
 20
16.1923
 30
0.0
 10
-0.8011
 20
15.9131
 30
0.0
 10
-0.8011
 20
15.9131
 30
0.0
  0
SPLINE
  5
1BB
330
1F
100
AcDbEntity
  8
Ilustrace
 62
   250
100
AcDbSpline
210
0.0
220
0.0
230
1.0
 70
    11
 71
     3
 72
    64
 73
    60
 74
     0
 42
0.0000000001
 43
0.0000000001
 40
0.0
 40
0.0
 40
0.0
 40
0.0
 40
0.0625
 40
0.0625
 40
0.0625
 40
0.0625
 40
0.125
 40
0.125
 40
0.125
 40
0.125
 40
0.1875
 40
0.1875
 40
0.1875
 40
0.1875
 40
0.25
 40
0.25
 40
0.25
 40
0.25
 40
0.3125
 40
0.3125
 40
0.3125
 40
0.3125
 40
0.375
 40
0.375
 40
0.375
 40
0.375
 40
0.4375
 40
0.4375
 40
0.4375
 40
0.4375
 40
0.5
 40
0.5
 40
0.5
 40
0.5
 40
0.5625
 40
0.5625
 40
0.5625
 40
0.5625
 40
0.625
 40
0.625
 40
0.625
 40
0.625
 40
0.6875
 40
0.6875
 40
0.6875
 40
0.6875
 40
0.75
 40
0.75
 40
0.75
 40
0.75
 40
0.8125
 40
0.8125
 40
0.8125
 40
0.8125
 40
0.875
 40
0.875
 40
0.875
 40
0.875
 40
1.0
 40
1.0
 40
1.0
 40
1.0
 10
-0.3075
 20
18.2567
 30
0.0
 10
-0.2356
 20
18.256
 30
0.0
 10
-0.1729
 20
18.2366
 30
0.0
 10
-0.1207
 20
18.1984
 30
0.0
 10
-0.1207
 20
18.1984
 30
0.0
 10
-0.0685
 20
18.1602
 30
0.0
 10
-0.025
 20
18.1066
 30
0.0
 10
0.0086
 20
18.0381
 30
0.0
 10
0.0086
 20
18.0381
 30
0.0
 10
0.0427
 20
17.9696
 30
0.0
 10
0.0677
 20
17.8887
 30
0.0
 10
0.0842
 20
17.7969
 30
0.0
 10
0.0842
 20
17.7969
 30
0.0
 10
0.1007
 20
17.7043
 30
0.0
 10
0.1084
 20
17.6041
 30
0.0
 10
0.1084
 20
17.4961
 30
0.0
 10
0.1084
 20
17.4961
 30
0.0
 10
0.1084
 20
17.4676
 30
0.0
 10
0.1064
 20
17.443
 30
0.0
 10
0.1018
 20
17.4237
 30
0.0
 10
0.1018
 20
17.4237
 30
0.0
 10
0.0977
 20
17.4036
 30
0.0
 10
0.0913
 20
17.3849
 30
0.0
 10
0.0836
 20
17.3681
 30
0.0
 10
0.0836
 20
17.3681
 30
0.0
 10
0.0598
 20
17.317
 30
0.0
 10
0.0282
 20
17.2718
 30
0.0
 10
-0.0105
 20
17.2323
 30
0.0
 10
-0.0105
 20
17.2323
 30
0.0
 10
-0.0488
 20
17.1929
 30
0.0
 10
-0.0939
 20
17.1618
 30
0.0
 10
-0.1451
 20
17.1392
 30
0.0
 10
-0.1451
 20
17.1392
 30
0.0
 10
-0.1963
 20
17.1165
 30
0.0
 10
-0.2527
 20
17.1048
 30
0.0
 10
-0.3137
 20
17.1043
 30
0.0
 10
-0.3137
 20
17.1043
 30
0.0
 10
-0.3929
 20
17.1048
 30
0.0
 10
-0.4612
 20
17.1281
 30
0.0
 10
-0.5191
 20
17.1735
 30
0.0
 10
-0.5191
 20
17.1735
 30
0.0
 10
-0.5771
 20
17.2187
 30
0.0
 10
-0.622
 20
17.2807
 30
0.0
 10
-0.6536
 20
17.3609
 30
0.0
 10
-0.6536
 20
17.3609
 30
0.0
 10
-0.6851
 20
17.4412
 30
0.0
 10
-0.7012
 20
17.5343
 30
0.0
 10
-0.7018
 20
17.6398
 30
0.0
 10
-0.7018
 20
17.6398
 30
0.0
 10
-0.7012
 20
17.7614
 30
0.0
 10
-0.6841
 20
17.8681
 30
0.0
 10
-0.6506
 20
17.9599
 30
0.0
 10
-0.6506
 20
17.9599
 30
0.0
 10
-0.6168
 20
18.0523
 30
0.0
 10
-0.5708
 20
18.1247
 30
0.0
 10
-0.5118
 20
18.1771
 30
0.0
 10
-0.5118
 20
18.1771
 30
0.0
 10
-0.4529
 20
18.2295
 30
0.0
 10
-0.3846
 20
18.256
 30
0.0
 10
-0.3075
 20
18.2567
 30
0.0
  0
SPLINE
  5
1BC
330
1F
100
AcDbEntity
  8
Ilustrace
 62
   250
100
AcDbSpline
210
0.0
220
0.0
230
1.0
 70
    11
 71
     3
 72
    36
 73
    32
 74
     0
 42
0.0000000001
 43
0.0000000001
 40
0.0
 40
0.0
 40
0.0
 40
0.0
 40
0.1111111111111111
 40
0.1111111111111111
 40
0.1111111111111111
 40
0.1111111111111111
 40
0.2222222222222222
 40
0.2222222222222222
 40
0.2222222222222222
 40
0.2222222222222222
 40
0.3333333333333333
 40
0.3333333333333333
 40
0.3333333333333333
 40
0.3333333333333333
 40
0.4444444444444444
 40
0.4444444444444444
 40
0.4444444444444444
 40
0.4444444444444444
 40
0.5555555555555556
 40
0.5555555555555556
 40
0.5555555555555556
 40
0.5555555555555556
 40
0.6666666666666666
 40
0.6666666666666666
 40
0.6666666666666666
 40
0.6666666666666666
 40
0.7777777777777778
 40
0.7777777777777778
 40
0.7777777777777778
 40
0.7777777777777778
 40
1.0
 40
1.0
 40
1.0
 40
1.0
 10
-4.107
 20
-3.7512
 30
0.0
 10
-4.107
 20
-3.7512
 30
0.0
 10
-4.107
 20
-4.0344
 30
0.0
 10
-4.107
 20
-4.0344
 30
0.0
 10
-4.107
 20
-4.0344
 30
0.0
 10
-4.107
 20
-4.0344
 30
0.0
 10
-3.1199
 20
-4.0344
 30
0.0
 10
-3.1199
 20
-4.0344
 30
0.0
 10
-3.1199
 20
-4.0344
 30
0.0
 10
-3.1199
 20
-4.0344
 30
0.0
 10
-3.1199
 20
-4.0421
 30
0.0
 10
-3.1199
 20
-4.0421
 30
0.0
 10
-3.1199
 20
-4.0421
 30
0.0
 10
-3.1199
 20
-4.0421
 30
0.0
 10
-3.9952
 20
-6.2733
 30
0.0
 10
-3.9952
 20
-6.2733
 30
0.0
 10
-3.9952
 20
-6.2733
 30
0.0
 10
-3.9952
 20
-6.2733
 30
0.0
 10
-3.7127
 20
-6.2733
 30
0.0
 10
-3.7127
 20
-6.2733
 30
0.0
 10
-3.7127
 20
-6.2733
 30
0.0
 10
-3.7127
 20
-6.2733
 30
0.0
 10
-2.8342
 20
-3.9761
 30
0.0
 10
-2.8342
 20
-3.9761
 30
0.0
 10
-2.8342
 20
-3.9761
 30
0.0
 10
-2.8342
 20
-3.9761
 30
0.0
 10
-2.8342
 20
-3.7512
 30
0.0
 10
-2.8342
 20
-3.7512
 30
0.0
 10
-2.8342
 20
-3.7512
 30
0.0
 10
-2.8342
 20
-3.7512
 30
0.0
 10
-4.107
 20
-3.7512
 30
0.0
 10
-4.107
 20
-3.7512
 30
0.0
  0
SPLINE
  5
1BD
330
1F
100
AcDbEntity
  8
Ilustrace
 62
   250
100
AcDbSpline
210
0.0
220
0.0
230
1.0
 70
    11
 71
     3
 72
   124
 73
   120
 74
     0
 42
0.0000000001
 43
0.0000000001
 40
0.0
 40
0.0
 40
0.0
 40
0.0
 40
0.032258064516129
 40
0.032258064516129
 40
0.032258064516129
 40
0.032258064516129
 40
0.0645161290322581
 40
0.0645161290322581
 40
0.0645161290322581
 40
0.0645161290322581
 40
0.0967741935483871
 40
0.0967741935483871
 40
0.0967741935483871
 40
0.0967741935483871
 40
0.1290322580645161
 40
0.1290322580645161
 40
0.1290322580645161
 40
0.1290322580645161
 40
0.1612903225806452
 40
0.1612903225806452
 40
0.1612903225806452
 40
0.1612903225806452
 40
0.1935483870967742
 40
0.1935483870967742
 40
0.1935483870967742
 40
0.1935483870967742
 40
0.2258064516129032
 40
0.2258064516129032
 40
0.2258064516129032
 40
0.2258064516129032
 40
0.2580645161290323
 40
0.2580645161290323
 40
0.2580645161290323
 40
0.2580645161290323
 40
0.2903225806451613
 40
0.2903225806451613
 40
0.2903225806451613
 40
0.2903225806451613
 40
0.3225806451612903
 40
0.3225806451612903
 40
0.3225806451612903
 40
0.3225806451612903
 40
0.3548387096774194
 40
0.3548387096774194
 40
0.3548387096774194
 40
0.3548387096774194
 40
0.3870967741935484
 40
0.3870967741935484
 40
0.3870967741935484
 40
0.3870967741935484
 40
0.4193548387096774
 40
0.4193548387096774
 40
0.4193548387096774
 40
0.4193548387096774
 40
0.4516129032258064
 40
0.4516129032258064
 40
0.4516129032258064
 40
0.4516129032258064
 40
0.4838709677419355
 40
0.4838709677419355
 40
0.4838709677419355
 40
0.4838709677419355
 40
0.5161290322580645
 40
0.5161290322580645
 40
0.5161290322580645
 40
0.5161290322580645
 40
0.5483870967741935
 40
0.5483870967741935
 40
0.5483870967741935
 40
0.5483870967741935
 40
0.5806451612903226
 40
0.5806451612903226
 40
0.5806451612903226
 40
0.5806451612903226
 40
0.6129032258064516
 40
0.6129032258064516
 40
0.6129032258064516
 40
0.6129032258064516
 40
0.6451612903225806
 40
0.6451612903225806
 40
0.6451612903225806
 40
0.6451612903225806
 40
0.6774193548387096
 40
0.6774193548387096
 40
0.6774193548387096
 40
0.6774193548387096
 40
0.7096774193548387
 40
0.7096774193548387
 40
0.7096774193548387
 40
0.7096774193548387
 40
0.7419354838709677
 40
0.7419354838709677
 40
0.7419354838709677
 40
0.7419354838709677
 40
0.7741935483870968
 40
0.7741935483870968
 40
0.7741935483870968
 40
0.7741935483870968
 40
0.8064516129032258
 40
0.8064516129032258
 40
0.8064516129032258
 40
0.8064516129032258
 40
0.8387096774193549
 40
0.8387096774193549
 40
0.8387096774193549
 40
0.8387096774193549
 40
0.8709677419354839
 40
0.8709677419354839
 40
0.8709677419354839
 40
0.8709677419354839
 40
0.9032258064516129
 40
0.9032258064516129
 40
0.9032258064516129
 40
0.9032258064516129
 40
0.9354838709677419
 40
0.9354838709677419
 40
0.9354838709677419
 40
0.9354838709677419
 40
1.0
 40
1.0
 40
1.0
 40
1.0
 10
-1.4001
 20
-3.7123
 30
0.0
 10
-1.425
 20
-3.7123
 30
0.0
 10
-1.4544
 20
-3.7135
 30
0.0
 10
-1.4876
 20
-3.7162
 30
0.0
 10
-1.4876
 20
-3.7162
 30
0.0
 10
-1.5212
 20
-3.7187
 30
0.0
 10
-1.5585
 20
-3.7239
 30
0.0
 10
-1.5988
 20
-3.7317
 30
0.0
 10
-1.5988
 20
-3.7317
 30
0.0
 10
-1.7266
 20
-3.7512
 30
0.0
 10
-1.8451
 20
-3.7925
 30
0.0
 10
-1.9542
 20
-3.8552
 30
0.0
 10
-1.9542
 20
-3.8552
 30
0.0
 10
-2.0634
 20
-3.918
 30
0.0
 10
-2.1602
 20
-4.0009
 30
0.0
 10
-2.2444
 20
-4.1042
 30
0.0
 10
-2.2444
 20
-4.1042
 30
0.0
 10
-2.3123
 20
-4.187
 30
0.0
 10
-2.3717
 20
-4.2853
 30
0.0
 10
-2.4225
 20
-4.3992
 30
0.0
 10
-2.4225
 20
-4.3992
 30
0.0
 10
-2.4737
 20
-4.5123
 30
0.0
 10
-2.5136
 20
-4.6397
 30
0.0
 10
-2.5424
 20
-4.7806
 30
0.0
 10
-2.5424
 20
-4.7806
 30
0.0
 10
-2.571
 20
-4.9216
 30
0.0
 10
-2.5855
 20
-5.0757
 30
0.0
 10
-2.5859
 20
-5.2412
 30
0.0
 10
-2.5859
 20
-5.2412
 30
0.0
 10
-2.5855
 20
-5.4055
 30
0.0
 10
-2.5684
 20
-5.5536
 30
0.0
 10
-2.5352
 20
-5.6854
 30
0.0
 10
-2.5352
 20
-5.6854
 30
0.0
 10
-2.5017
 20
-5.8179
 30
0.0
 10
-2.4535
 20
-5.9306
 30
0.0
 10
-2.3909
 20
-6.0244
 30
0.0
 10
-2.3909
 20
-6.0244
 30
0.0
 10
-2.3288
 20
-6.1182
 30
0.0
 10
-2.2537
 20
-6.1904
 30
0.0
 10
-2.1669
 20
-6.2403
 30
0.0
 10
-2.1669
 20
-6.2403
 30
0.0
 10
-2.08
 20
-6.2902
 30
0.0
 10
-1.9827
 20
-6.3153
 30
0.0
 10
-1.8751
 20
-6.316
 30
0.0
 10
-1.8751
 20
-6.316
 30
0.0
 10
-1.7695
 20
-6.3147
 30
0.0
 10
-1.6748
 20
-6.2902
 30
0.0
 10
-1.5916
 20
-6.2423
 30
0.0
 10
-1.5916
 20
-6.2423
 30
0.0
 10
-1.5088
 20
-6.1937
 30
0.0
 10
-1.4379
 20
-6.1279
 30
0.0
 10
-1.38
 20
-6.0443
 30
0.0
 10
-1.38
 20
-6.0443
 30
0.0
 10
-1.322
 20
-5.9609
 30
0.0
 10
-1.2775
 20
-5.8658
 30
0.0
 10
-1.2476
 20
-5.7591
 30
0.0
 10
-1.2476
 20
-5.7591
 30
0.0
 10
-1.217
 20
-5.6531
 30
0.0
 10
-1.2015
 20
-5.5412
 30
0.0
 10
-1.2015
 20
-5.4236
 30
0.0
 10
-1.2015
 20
-5.4236
 30
0.0
 10
-1.2019
 20
-5.3007
 30
0.0
 10
-1.217
 20
-5.1894
 30
0.0
 10
-1.2464
 20
-5.0898
 30
0.0
 10
-1.2464
 20
-5.0898
 30
0.0
 10
-1.276
 20
-4.9903
 30
0.0
 10
-1.3179
 20
-4.9042
 30
0.0
 10
-1.3717
 20
-4.8325
 30
0.0
 10
-1.3717
 20
-4.8325
 30
0.0
 10
-1.426
 20
-4.7613
 30
0.0
 10
-1.4902
 20
-4.7057
 30
0.0
 10
-1.5642
 20
-4.6675
 30
0.0
 10
-1.5642
 20
-4.6675
 30
0.0
 10
-1.6381
 20
-4.6287
 30
0.0
 10
-1.7205
 20
-4.6094
 30
0.0
 10
-1.8098
 20
-4.6086
 30
0.0
 10
-1.8098
 20
-4.6086
 30
0.0
 10
-1.8844
 20
-4.6094
 30
0.0
 10
-1.9527
 20
-4.6228
 30
0.0
 10
-2.0147
 20
-4.6488
 30
0.0
 10
-2.0147
 20
-4.6488
 30
0.0
 10
-2.0768
 20
-4.6754
 30
0.0
 10
-2.1322
 20
-4.7102
 30
0.0
 10
-2.1803
 20
-4.7548
 30
0.0
 10
-2.1803
 20
-4.7548
 30
0.0
 10
-2.2279
 20
-4.7987
 30
0.0
 10
-2.2682
 20
-4.8486
 30
0.0
 10
-2.3004
 20
-4.9035
 30
0.0
 10
-2.3004
 20
-4.9035
 30
0.0
 10
-2.3004
 20
-4.9035
 30
0.0
 10
-2.3065
 20
-4.9035
 30
0.0
 10
-2.3065
 20
-4.9035
 30
0.0
 10
-2.3065
 20
-4.9035
 30
0.0
 10
-2.2952
 20
-4.7982
 30
0.0
 10
-2.2724
 20
-4.6967
 30
0.0
 10
-2.2378
 20
-4.599
 30
0.0
 10
-2.2378
 20
-4.599
 30
0.0
 10
-2.2037
 20
-4.5019
 30
0.0
 10
-2.158
 20
-4.4128
 30
0.0
 10
-2.1001
 20
-4.3319
 30
0.0
 10
-2.1001
 20
-4.3319
 30
0.0
 10
-2.0421
 20
-4.2518
 30
0.0
 10
-1.9724
 20
-4.1831
 30
0.0
 10
-1.89
 20
-4.1275
 30
0.0
 10
-1.89
 20
-4.1275
 30
0.0
 10
-1.8078
 20
-4.0719
 30
0.0
 10
-1.7126
 20
-4.0331
 30
0.0
 10
-1.605
 20
-4.0111
 30
0.0
 10
-1.605
 20
-4.0111
 30
0.0
 10
-1.5662
 20
-4.0034
 30
0.0
 10
-1.5289
 20
-3.9974
 30
0.0
 10
-1.4943
 20
-3.9942
 30
0.0
 10
-1.4943
 20
-3.9942
 30
0.0
 10
-1.4596
 20
-3.9904
 30
0.0
 10
-1.4281
 20
-3.9897
 30
0.0
 10
-1.4001
 20
-3.9917
 30
0.0
 10
-1.4001
 20
-3.9917
 30
0.0
 10
-1.4001
 20
-3.9917
 30
0.0
 10
-1.4001
 20
-3.7123
 30
0.0
 10
-1.4001
 20
-3.7123
 30
0.0
  0
SPLINE
  5
1BE
330
1F
100
AcDbEntity
  8
Ilustrace
 62
   250
100
AcDbSpline
210
0.0
220
0.0
230
1.0
 70
    11
 71
     3
 72
    64
 73
    60
 74
     0
 42
0.0000000001
 43
0.0000000001
 40
0.0
 40
0.0
 40
0.0
 40
0.0
 40
0.0625
 40
0.0625
 40
0.0625
 40
0.0625
 40
0.125
 40
0.125
 40
0.125
 40
0.125
 40
0.1875
 40
0.1875
 40
0.1875
 40
0.1875
 40
0.25
 40
0.25
 40
0.25
 40
0.25
 40
0.3125
 40
0.3125
 40
0.3125
 40
0.3125
 40
0.375
 40
0.375
 40
0.375
 40
0.375
 40
0.4375
 40
0.4375
 40
0.4375
 40
0.4375
 40
0.5
 40
0.5
 40
0.5
 40
0.5
 40
0.5625
 40
0.5625
 40
0.5625
 40
0.5625
 40
0.625
 40
0.625
 40
0.625
 40
0.625
 40
0.6875
 40
0.6875
 40
0.6875
 40
0.6875
 40
0.75
 40
0.75
 40
0.75
 40
0.75
 40
0.8125
 40
0.8125
 40
0.8125
 40
0.8125
 40
0.875
 40
0.875
 40
0.875
 40
0.875
 40
1.0
 40
1.0
 40
1.0
 40
1.0
 10
-1.8688
 20
-6.0522
 30
0.0
 10
-1.9413
 20
-6.0515
 30
0.0
 10
-2.005
 20
-6.0333
 30
0.0
 10
-2.0603
 20
-5.9971
 30
0.0
 10
-2.0603
 20
-5.9971
 30
0.0
 10
-2.1151
 20
-5.9609
 30
0.0
 10
-2.1616
 20
-5.9105
 30
0.0
 10
-2.1995
 20
-5.8452
 30
0.0
 10
-2.1995
 20
-5.8452
 30
0.0
 10
-2.2372
 20
-5.7799
 30
0.0
 10
-2.2657
 20
-5.703
 30
0.0
 10
-2.2853
 20
-5.6149
 30
0.0
 10
-2.2853
 20
-5.6149
 30
0.0
 10
-2.305
 20
-5.5271
 30
0.0
 10
-2.3149
 20
-5.4306
 30
0.0
 10
-2.3159
 20
-5.3266
 30
0.0
 10
-2.3159
 20
-5.3266
 30
0.0
 10
-2.3159
 20
-5.2955
 30
0.0
 10
-2.3127
 20
-5.2683
 30
0.0
 10
-2.3075
 20
-5.2437
 30
0.0
 10
-2.3075
 20
-5.2437
 30
0.0
 10
-2.3024
 20
-5.2198
 30
0.0
 10
-2.2956
 20
-5.1985
 30
0.0
 10
-2.2879
 20
-5.1791
 30
0.0
 10
-2.2879
 20
-5.1791
 30
0.0
 10
-2.2626
 20
-5.1164
 30
0.0
 10
-2.2299
 20
-5.062
 30
0.0
 10
-2.1892
 20
-5.0154
 30
0.0
 10
-2.1892
 20
-5.0154
 30
0.0
 10
-2.1487
 20
-4.9695
 30
0.0
 10
-2.1032
 20
-4.9333
 30
0.0
 10
-2.0526
 20
-4.9074
 30
0.0
 10
-2.0526
 20
-4.9074
 30
0.0
 10
-2.0018
 20
-4.8821
 30
0.0
 10
-1.949
 20
-4.8687
 30
0.0
 10
-1.8938
 20
-4.8687
 30
0.0
 10
-1.8938
 20
-4.8687
 30
0.0
 10
-1.8094
 20
-4.8692
 30
0.0
 10
-1.7364
 20
-4.8925
 30
0.0
 10
-1.6738
 20
-4.9385
 30
0.0
 10
-1.6738
 20
-4.9385
 30
0.0
 10
-1.6117
 20
-4.9844
 30
0.0
 10
-1.5636
 20
-5.0504
 30
0.0
 10
-1.5295
 20
-5.1364
 30
0.0
 10
-1.5295
 20
-5.1364
 30
0.0
 10
-1.4953
 20
-5.2224
 30
0.0
 10
-1.4783
 20
-5.3258
 30
0.0
 10
-1.4777
 20
-5.4469
 30
0.0
 10
-1.4777
 20
-5.4469
 30
0.0
 10
-1.4783
 20
-5.5678
 30
0.0
 10
-1.4948
 20
-5.6738
 30
0.0
 10
-1.5275
 20
-5.7643
 30
0.0
 10
-1.5275
 20
-5.7643
 30
0.0
 10
-1.56
 20
-5.8549
 30
0.0
 10
-1.6055
 20
-5.9247
 30
0.0
 10
-1.6639
 20
-5.9752
 30
0.0
 10
-1.6639
 20
-5.9752
 30
0.0
 10
-1.7225
 20
-6.0256
 30
0.0
 10
-1.7908
 20
-6.0515
 30
0.0
 10
-1.8688
 20
-6.0522
 30
0.0
  0
SPLINE
  5
1BF
330
1F
100
AcDbEntity
  8
Ilustrace
 62
   250
370
    15
100
AcDbSpline
210
0.0
220
0.0
230
1.0
 70
    24
 71
     3
 72
     8
 73
     4
 74
     0
 42
0.0000000001
 43
0.0000000001
 40
0.0
 40
0.0
 40
0.0
 40
0.0
 40
1.0
 40
1.0
 40
1.0
 40
1.0
 10
11.3505
 20
15.4075
 30
0.0
 10
11.3505
 20
15.4075
 30
0.0
 10
-15.2587
 20
15.4075
 30
0.0
 10
-15.2587
 20
15.4075
 30
0.0
  0
SPLINE
  5
1C0
330
1F
100
AcDbEntity
  8
Ilustrace
 62
   250
370
    15
100
AcDbSpline
210
0.0
220
0.0
230
1.0
 70
    24
 71
     3
 72
     8
 73
     4
 74
     0
 42
0.0000000001
 43
0.0000000001
 40
0.0
 40
0.0
 40
0.0
 40
0.0
 40
1.0
 40
1.0
 40
1.0
 40
1.0
 10
7.1776
 20
-6.8176
 30
0.0
 10
7.1776
 20
-6.8176
 30
0.0
 10
-11.586
 20
-6.8176
 30
0.0
 10
-11.586
 20
-6.8176
 30
0.0
  0
SPLINE
  5
1C1
330
1F
100
AcDbEntity
  8
Ilustrace
 62
   250
370
    15
100
AcDbSpline
210
0.0
220
0.0
230
1.0
 70
    24
 71
     3
 72
     8
 73
     4
 74
     0
 42
0.0000000001
 43
0.0000000001
 40
0.0
 40
0.0
 40
0.0
 40
0.0
 40
1.0
 40
1.0
 40
1.0
 40
1.0
 10
15.3583
 20
11.5378
 30
0.0
 10
15.3583
 20
11.5378
 30
0.0
 10
15.3583
 20
-2.5857
 30
0.0
 10
15.3583
 20
-2.5857
 30
0.0
  0
SPLINE
  5
1C2
330
1F
100
AcDbEntity
  8
Ilustrace
 62
   250
370
     9
100
AcDbSpline
210
0.0
220
0.0
230
1.0
 70
    11
 71
     3
 72
    32
 73
    28
 74
     0
 42
0.0000000001
 43
0.0000000001
 40
0.0
 40
0.0
 40
0.0
 40
0.0
 40
0.125
 40
0.125
 40
0.125
 40
0.125
 40
0.25
 40
0.25
 40
0.25
 40
0.25
 40
0.375
 40
0.375
 40
0.375
 40
0.375
 40
0.5
 40
0.5
 40
0.5
 40
0.5
 40
0.625
 40
0.625
 40
0.625
 40
0.625
 40
0.75
 40
0.75
 40
0.75
 40
0.75
 40
1.0
 40
1.0
 40
1.0
 40
1.0
 10
10.2831
 20
14.9548
 30
0.0
 10
10.2831
 20
14.9548
 30
0.0
 10
10.2831
 20
14.9548
 30
0.0
 10
10.2831
 20
14.9548
 30
0.0
 10
10.2831
 20
14.9548
 30
0.0
 10
10.2831
 20
14.9548
 30
0.0
 10
10.2831
 20
14.9548
 30
0.0
 10
10.2831
 20
14.9548
 30
0.0
 10
10.2831
 20
14.9548
 30
0.0
 10
10.2831
 20
14.9548
 30
0.0
 10
11.5559
 20
15.3982
 30
0.0
 10
11.5559
 20
15.3982
 30
0.0
 10
11.5559
 20
15.3982
 30
0.0
 10
11.5559
 20
15.3982
 30
0.0
 10
10.2831
 20
15.8416
 30
0.0
 10
10.2831
 20
15.8416
 30
0.0
 10
10.2831
 20
15.8416
 30
0.0
 10
10.2831
 20
15.8416
 30
0.0
 10
10.2831
 20
15.8416
 30
0.0
 10
10.2831
 20
15.8416
 30
0.0
 10
10.2831
 20
15.8416
 30
0.0
 10
10.2831
 20
15.8416
 30
0.0
 10
10.2831
 20
15.8416
 30
0.0
 10
10.2831
 20
15.8416
 30
0.0
 10
10.2831
 20
15.8416
 30
0.0
 10
10.2831
 20
15.8416
 30
0.0
 10
10.2831
 20
14.9548
 30
0.0
 10
10.2831
 20
14.9548
 30
0.0
  0
SPLINE
  5
1C3
330
1F
100
AcDbEntity
  8
Ilustrace
 62
   250
370
     9
100
AcDbSpline
210
0.0
220
0.0
230
1.0
 70
    11
 71
     3
 72
    32
 73
    28
 74
     0
 42
0.0000000001
 43
0.0000000001
 40
0.0
 40
0.0
 40
0.0
 40
0.0
 40
0.125
 40
0.125
 40
0.125
 40
0.125
 40
0.25
 40
0.25
 40
0.25
 40
0.25
 40
0.375
 40
0.375
 40
0.375
 40
0.375
 40
0.5
 40
0.5
 40
0.5
 40
0.5
 40
0.625
 40
0.625
 40
0.625
 40
0.625
 40
0.75
 40
0.75
 40
0.75
 40
0.75
 40
1.0
 40
1.0
 40
1.0
 40
1.0
 10
6.1324
 20
-7.2593
 30
0.0
 10
6.1324
 20
-7.2593
 30
0.0
 10
6.1324
 20
-7.2593
 30
0.0
 10
6.1324
 20
-7.2593
 30
0.0
 10
6.1324
 20
-7.2593
 30
0.0
 10
6.1324
 20
-7.2593
 30
0.0
 10
6.1324
 20
-7.2593
 30
0.0
 10
6.1324
 20
-7.2593
 30
0.0
 10
6.1324
 20
-7.2593
 30
0.0
 10
6.1324
 20
-7.2593
 30
0.0
 10
7.4052
 20
-6.8159
 30
0.0
 10
7.4052
 20
-6.8159
 30
0.0
 10
7.4052
 20
-6.8159
 30
0.0
 10
7.4052
 20
-6.8159
 30
0.0
 10
6.1324
 20
-6.3725
 30
0.0
 10
6.1324
 20
-6.3725
 30
0.0
 10
6.1324
 20
-6.3725
 30
0.0
 10
6.1324
 20
-6.3725
 30
0.0
 10
6.1324
 20
-6.3725
 30
0.0
 10
6.1324
 20
-6.3725
 30
0.0
 10
6.1324
 20
-6.3725
 30
0.0
 10
6.1324
 20
-6.3725
 30
0.0
 10
6.1324
 20
-6.3725
 30
0.0
 10
6.1324
 20
-6.3725
 30
0.0
 10
6.1324
 20
-6.3725
 30
0.0
 10
6.1324
 20
-6.3725
 30
0.0
 10
6.1324
 20
-7.2593
 30
0.0
 10
6.1324
 20
-7.2593
 30
0.0
  0
SPLINE
  5
1C4
330
1F
100
AcDbEntity
  8
Ilustrace
 62
   250
370
     9
100
AcDbSpline
210
0.0
220
0.0
230
1.0
 70
    11
 71
     3
 72
    32
 73
    28
 74
     0
 42
0.0000000001
 43
0.0000000001
 40
0.0
 40
0.0
 40
0.0
 40
0.0
 40
0.125
 40
0.125
 40
0.125
 40
0.125
 40
0.25
 40
0.25
 40
0.25
 40
0.25
 40
0.375
 40
0.375
 40
0.375
 40
0.375
 40
0.5
 40
0.5
 40
0.5
 40
0.5
 40
0.625
 40
0.625
 40
0.625
 40
0.625
 40
0.75
 40
0.75
 40
0.75
 40
0.75
 40
1.0
 40
1.0
 40
1.0
 40
1.0
 10
15.7835
 20
10.8842
 30
0.0
 10
15.7835
 20
10.8842
 30
0.0
 10
15.7835
 20
10.8842
 30
0.0
 10
15.7835
 20
10.8842
 30
0.0
 10
15.7835
 20
10.8842
 30
0.0
 10
15.7835
 20
10.8842
 30
0.0
 10
15.7835
 20
10.8842
 30
0.0
 10
15.7835
 20
10.8842
 30
0.0
 10
15.7835
 20
10.8842
 30
0.0
 10
15.7835
 20
10.8842
 30
0.0
 10
15.3401
 20
12.157
 30
0.0
 10
15.3401
 20
12.157
 30
0.0
 10
15.3401
 20
12.157
 30
0.0
 10
15.3401
 20
12.157
 30
0.0
 10
14.8967
 20
10.8842
 30
0.0
 10
14.8967
 20
10.8842
 30
0.0
 10
14.8967
 20
10.8842
 30
0.0
 10
14.8967
 20
10.8842
 30
0.0
 10
14.8967
 20
10.8842
 30
0.0
 10
14.8967
 20
10.8842
 30
0.0
 10
14.8967
 20
10.8842
 30
0.0
 10
14.8967
 20
10.8842
 30
0.0
 10
14.8967
 20
10.8842
 30
0.0
 10
14.8967
 20
10.8842
 30
0.0
 10
14.8967
 20
10.8842
 30
0.0
 10
14.8967
 20
10.8842
 30
0.0
 10
15.7835
 20
10.8842
 30
0.0
 10
15.7835
 20
10.8842
 30
0.0
  0
SPLINE
  5
1C5
330
1F
100
AcDbEntity
  8
Ilustrace
 62
   250
370
     9
100
AcDbSpline
210
0.0
220
0.0
230
1.0
 70
    11
 71
     3
 72
    32
 73
    28
 74
     0
 42
0.0000000001
 43
0.0000000001
 40
0.0
 40
0.0
 40
0.0
 40
0.0
 40
0.125
 40
0.125
 40
0.125
 40
0.125
 40
0.25
 40
0.25
 40
0.25
 40
0.25
 40
0.375
 40
0.375
 40
0.375
 40
0.375
 40
0.5
 40
0.5
 40
0.5
 40
0.5
 40
0.625
 40
0.625
 40
0.625
 40
0.625
 40
0.75
 40
0.75
 40
0.75
 40
0.75
 40
1.0
 40
1.0
 40
1.0
 40
1.0
 10
-14.6623
 20
14.9789
 30
0.0
 10
-14.6623
 20
14.9789
 30
0.0
 10
-14.6623
 20
14.9789
 30
0.0
 10
-14.6623
 20
14.9789
 30
0.0
 10
-14.6623
 20
14.9789
 30
0.0
 10
-14.6623
 20
14.9789
 30
0.0
 10
-14.6623
 20
14.9789
 30
0.0
 10
-14.6623
 20
14.9789
 30
0.0
 10
-14.6623
 20
14.9789
 30
0.0
 10
-14.6623
 20
14.9789
 30
0.0
 10
-15.9351
 20
15.4223
 30
0.0
 10
-15.9351
 20
15.4223
 30
0.0
 10
-15.9351
 20
15.4223
 30
0.0
 10
-15.9351
 20
15.4223
 30
0.0
 10
-14.6623
 20
15.8657
 30
0.0
 10
-14.6623
 20
15.8657
 30
0.0
 10
-14.6623
 20
15.8657
 30
0.0
 10
-14.6623
 20
15.8657
 30
0.0
 10
-14.6623
 20
15.8657
 30
0.0
 10
-14.6623
 20
15.8657
 30
0.0
 10
-14.6623
 20
15.8657
 30
0.0
 10
-14.6623
 20
15.8657
 30
0.0
 10
-14.6623
 20
15.8657
 30
0.0
 10
-14.6623
 20
15.8657
 30
0.0
 10
-14.6623
 20
15.8657
 30
0.0
 10
-14.6623
 20
15.8657
 30
0.0
 10
-14.6623
 20
14.9789
 30
0.0
 10
-14.6623
 20
14.9789
 30
0.0
  0
SPLINE
  5
1C6
330
1F
100
AcDbEntity
  8
Ilustrace
 62
   250
370
     9
100
AcDbSpline
210
0.0
220
0.0
230
1.0
 70
    11
 71
     3
 72
    32
 73
    28
 74
     0
 42
0.0000000001
 43
0.0000000001
 40
0.0
 40
0.0
 40
0.0
 40
0.0
 40
0.125
 40
0.125
 40
0.125
 40
0.125
 40
0.25
 40
0.25
 40
0.25
 40
0.25
 40
0.375
 40
0.375
 40
0.375
 40
0.375
 40
0.5
 40
0.5
 40
0.5
 40
0.5
 40
0.625
 40
0.625
 40
0.625
 40
0.625
 40
0.75
 40
0.75
 40
0.75
 40
0.75
 40
1.0
 40
1.0
 40
1.0
 40
1.0
 10
-10.7376
 20
-7.2462
 30
0.0
 10
-10.7376
 20
-7.2462
 30
0.0
 10
-10.7376
 20
-7.2462
 30
0.0
 10
-10.7376
 20
-7.2462
 30
0.0
 10
-10.7376
 20
-7.2462
 30
0.0
 10
-10.7376
 20
-7.2462
 30
0.0
 10
-10.7376
 20
-7.2462
 30
0.0
 10
-10.7376
 20
-7.2462
 30
0.0
 10
-10.7376
 20
-7.2462
 30
0.0
 10
-10.7376
 20
-7.2462
 30
0.0
 10
-12.0104
 20
-6.8028
 30
0.0
 10
-12.0104
 20
-6.8028
 30
0.0
 10
-12.0104
 20
-6.8028
 30
0.0
 10
-12.0104
 20
-6.8028
 30
0.0
 10
-10.7376
 20
-6.3594
 30
0.0
 10
-10.7376
 20
-6.3594
 30
0.0
 10
-10.7376
 20
-6.3594
 30
0.0
 10
-10.7376
 20
-6.3594
 30
0.0
 10
-10.7376
 20
-6.3594
 30
0.0
 10
-10.7376
 20
-6.3594
 30
0.0
 10
-10.7376
 20
-6.3594
 30
0.0
 10
-10.7376
 20
-6.3594
 30
0.0
 10
-10.7376
 20
-6.3594
 30
0.0
 10
-10.7376
 20
-6.3594
 30
0.0
 10
-10.7376
 20
-6.3594
 30
0.0
 10
-10.7376
 20
-6.3594
 30
0.0
 10
-10.7376
 20
-7.2462
 30
0.0
 10
-10.7376
 20
-7.2462
 30
0.0
  0
SPLINE
  5
1C7
330
1F
100
AcDbEntity
  8
Ilustrace
 62
   250
370
     9
100
AcDbSpline
210
0.0
220
0.0
230
1.0
 70
    11
 71
     3
 72
    32
 73
    28
 74
     0
 42
0.0000000001
 43
0.0000000001
 40
0.0
 40
0.0
 40
0.0
 40
0.0
 40
0.125
 40
0.125
 40
0.125
 40
0.125
 40
0.25
 40
0.25
 40
0.25
 40
0.25
 40
0.375
 40
0.375
 40
0.375
 40
0.375
 40
0.5
 40
0.5
 40
0.5
 40
0.5
 40
0.625
 40
0.625
 40
0.625
 40
0.625
 40
0.75
 40
0.75
 40
0.75
 40
0.75
 40
1.0
 40
1.0
 40
1.0
 40
1.0
 10
15.8034
 20
-1.4603
 30
0.0
 10
15.8034
 20
-1.4603
 30
0.0
 10
15.8034
 20
-1.4603
 30
0.0
 10
15.8034
 20
-1.4603
 30
0.0
 10
15.8034
 20
-1.4603
 30
0.0
 10
15.8034
 20
-1.4603
 30
0.0
 10
15.8034
 20
-1.4603
 30
0.0
 10
15.8034
 20
-1.4603
 30
0.0
 10
15.8034
 20
-1.4603
 30
0.0
 10
15.8034
 20
-1.4603
 30
0.0
 10
15.36
 20
-2.7331
 30
0.0
 10
15.36
 20
-2.7331
 30
0.0
 10
15.36
 20
-2.7331
 30
0.0
 10
15.36
 20
-2.7331
 30
0.0
 10
14.9166
 20
-1.4603
 30
0.0
 10
14.9166
 20
-1.4603
 30
0.0
 10
14.9166
 20
-1.4603
 30
0.0
 10
14.9166
 20
-1.4603
 30
0.0
 10
14.9166
 20
-1.4603
 30
0.0
 10
14.9166
 20
-1.4603
 30
0.0
 10
14.9166
 20
-1.4603
 30
0.0
 10
14.9166
 20
-1.4603
 30
0.0
 10
14.9166
 20
-1.4603
 30
0.0
 10
14.9166
 20
-1.4603
 30
0.0
 10
14.9166
 20
-1.4603
 30
0.0
 10
14.9166
 20
-1.4603
 30
0.0
 10
15.8034
 20
-1.4603
 30
0.0
 10
15.8034
 20
-1.4603
 30
0.0
  0
SPLINE
  5
1C8
330
1F
100
AcDbEntity
  8
Ilustrace
 62
   250
370
    15
100
AcDbSpline
210
0.0
220
0.0
230
1.0
 70
    24
 71
     3
 72
     8
 73
     4
 74
     0
 42
0.0000000001
 43
0.0000000001
 40
0.0
 40
0.0
 40
0.0
 40
0.0
 40
1.0
 40
1.0
 40
1.0
 40
1.0
 10
11.6592
 20
12.2067
 30
0.0
 10
11.6592
 20
12.2067
 30
0.0
 10
15.9351
 20
12.2067
 30
0.0
 10
15.9351
 20
12.2067
 30
0.0
  0
SPLINE
  5
1C9
330
1F
100
AcDbEntity
  8
Ilustrace
 62
   250
100
AcDbSpline
210
0.0
220
0.0
230
1.0
 70
    11
 71
     3
 72
   132
 73
   128
 74
     0
 42
0.0000000001
 43
0.0000000001
 40
0.0
 40
0.0
 40
0.0
 40
0.0
 40
0.0303030303030303
 40
0.0303030303030303
 40
0.0303030303030303
 40
0.0303030303030303
 40
0.0606060606060606
 40
0.0606060606060606
 40
0.0606060606060606
 40
0.0606060606060606
 40
0.0909090909090909
 40
0.0909090909090909
 40
0.0909090909090909
 40
0.0909090909090909
 40
0.1212121212121212
 40
0.1212121212121212
 40
0.1212121212121212
 40
0.1212121212121212
 40
0.1515151515151515
 40
0.1515151515151515
 40
0.1515151515151515
 40
0.1515151515151515
 40
0.1818181818181818
 40
0.1818181818181818
 40
0.1818181818181818
 40
0.1818181818181818
 40
0.2121212121212121
 40
0.2121212121212121
 40
0.2121212121212121
 40
0.2121212121212121
 40
0.2424242424242424
 40
0.2424242424242424
 40
0.2424242424242424
 40
0.2424242424242424
 40
0.2727272727272727
 40
0.2727272727272727
 40
0.2727272727272727
 40
0.2727272727272727
 40
0.303030303030303
 40
0.303030303030303
 40
0.303030303030303
 40
0.303030303030303
 40
0.3333333333333333
 40
0.3333333333333333
 40
0.3333333333333333
 40
0.3333333333333333
 40
0.3636363636363636
 40
0.3636363636363636
 40
0.3636363636363636
 40
0.3636363636363636
 40
0.3939393939393939
 40
0.3939393939393939
 40
0.3939393939393939
 40
0.3939393939393939
 40
0.4242424242424243
 40
0.4242424242424243
 40
0.4242424242424243
 40
0.4242424242424243
 40
0.4545454545454545
 40
0.4545454545454545
 40
0.4545454545454545
 40
0.4545454545454545
 40
0.4848484848484849
 40
0.4848484848484849
 40
0.4848484848484849
 40
0.4848484848484849
 40
0.5151515151515151
 40
0.5151515151515151
 40
0.5151515151515151
 40
0.5151515151515151
 40
0.5454545454545454
 40
0.5454545454545454
 40
0.5454545454545454
 40
0.5454545454545454
 40
0.5757575757575758
 40
0.5757575757575758
 40
0.5757575757575758
 40
0.5757575757575758
 40
0.6060606060606061
 40
0.6060606060606061
 40
0.6060606060606061
 40
0.6060606060606061
 40
0.6363636363636364
 40
0.6363636363636364
 40
0.6363636363636364
 40
0.6363636363636364
 40
0.6666666666666666
 40
0.6666666666666666
 40
0.6666666666666666
 40
0.6666666666666666
 40
0.696969696969697
 40
0.696969696969697
 40
0.696969696969697
 40
0.696969696969697
 40
0.7272727272727273
 40
0.7272727272727273
 40
0.7272727272727273
 40
0.7272727272727273
 40
0.7575757575757576
 40
0.7575757575757576
 40
0.7575757575757576
 40
0.7575757575757576
 40
0.7878787878787878
 40
0.7878787878787878
 40
0.7878787878787878
 40
0.7878787878787878
 40
0.8181818181818182
 40
0.8181818181818182
 40
0.8181818181818182
 40
0.8181818181818182
 40
0.8484848484848485
 40
0.8484848484848485
 40
0.8484848484848485
 40
0.8484848484848485
 40
0.8787878787878788
 40
0.8787878787878788
 40
0.8787878787878788
 40
0.8787878787878788
 40
0.9090909090909091
 40
0.9090909090909091
 40
0.9090909090909091
 40
0.9090909090909091
 40
0.9393939393939394
 40
0.9393939393939394
 40
0.9393939393939394
 40
0.9393939393939394
 40
1.0
 40
1.0
 40
1.0
 40
1.0
 10
12.5111
 20
2.1482
 30
0.0
 10
12.5111
 20
2.1482
 30
0.0
 10
12.5111
 20
1.1829
 30
0.0
 10
12.5111
 20
1.1829
 30
0.0
 10
12.5111
 20
1.1829
 30
0.0
 10
12.5111
 20
1.1829
 30
0.0
 10
13.7217
 20
1.0525
 30
0.0
 10
13.7217
 20
1.0525
 30
0.0
 10
13.7217
 20
1.0525
 30
0.0
 10
13.7153
 20
1.0897
 30
0.0
 10
13.7101
 20
1.1311
 30
0.0
 10
13.7056
 20
1.1776
 30
0.0
 10
13.7056
 20
1.1776
 30
0.0
 10
13.701
 20
1.2238
 30
0.0
 10
13.6984
 20
1.2764
 30
0.0
 10
13.6984
 20
1.3349
 30
0.0
 10
13.6984
 20
1.3349
 30
0.0
 10
13.6992
 20
1.4684
 30
0.0
 10
13.723
 20
1.5776
 30
0.0
 10
13.7696
 20
1.6624
 30
0.0
 10
13.7696
 20
1.6624
 30
0.0
 10
13.8168
 20
1.7478
 30
0.0
 10
13.8815
 20
1.8109
 30
0.0
 10
13.9642
 20
1.8518
 30
0.0
 10
13.9642
 20
1.8518
 30
0.0
 10
14.0477
 20
1.8927
 30
0.0
 10
14.1441
 20
1.9129
 30
0.0
 10
14.2533
 20
1.9123
 30
0.0
 10
14.2533
 20
1.9123
 30
0.0
 10
14.338
 20
1.9129
 30
0.0
 10
14.4138
 20
1.9004
 30
0.0
 10
14.4811
 20
1.8751
 30
0.0
 10
14.4811
 20
1.8751
 30
0.0
 10
14.5489
 20
1.8502
 30
0.0
 10
14.6059
 20
1.8156
 30
0.0
 10
14.6536
 20
1.7716
 30
0.0
 10
14.6536
 20
1.7716
 30
0.0
 10
14.7008
 20
1.7276
 30
0.0
 10
14.7371
 20
1.677
 30
0.0
 10
14.7623
 20
1.6195
 30
0.0
 10
14.7623
 20
1.6195
 30
0.0
 10
14.7875
 20
1.5621
 30
0.0
 10
14.8004
 20
1.5015
 30
0.0
 10
14.8004
 20
1.4374
 30
0.0
 10
14.8004
 20
1.4374
 30
0.0
 10
14.7999
 20
1.3747
 30
0.0
 10
14.7927
 20
1.3158
 30
0.0
 10
14.7779
 20
1.2605
 30
0.0
 10
14.7779
 20
1.2605
 30
0.0
 10
14.7636
 20
1.2051
 30
0.0
 10
14.7461
 20
1.1554
 30
0.0
 10
14.7248
 20
1.1114
 30
0.0
 10
14.7248
 20
1.1114
 30
0.0
 10
14.7034
 20
1.0674
 30
0.0
 10
14.6822
 20
1.0313
 30
0.0
 10
14.6608
 20
1.0027
 30
0.0
 10
14.6608
 20
1.0027
 30
0.0
 10
14.6608
 20
1.0027
 30
0.0
 10
14.9207
 20
0.9345
 30
0.0
 10
14.9207
 20
0.9345
 30
0.0
 10
14.9207
 20
0.9345
 30
0.0
 10
14.9472
 20
0.9681
 30
0.0
 10
14.9718
 20
1.01
 30
0.0
 10
14.9957
 20
1.0602
 30
0.0
 10
14.9957
 20
1.0602
 30
0.0
 10
15.019
 20
1.1104
 30
0.0
 10
15.0378
 20
1.1673
 30
0.0
 10
15.0527
 20
1.231
 30
0.0
 10
15.0527
 20
1.231
 30
0.0
 10
15.0675
 20
1.2951
 30
0.0
 10
15.0754
 20
1.3639
 30
0.0
 10
15.076
 20
1.4374
 30
0.0
 10
15.076
 20
1.4374
 30
0.0
 10
15.0754
 20
1.5475
 30
0.0
 10
15.0534
 20
1.648
 30
0.0
 10
15.0107
 20
1.7395
 30
0.0
 10
15.0107
 20
1.7395
 30
0.0
 10
14.9679
 20
1.8311
 30
0.0
 10
14.9078
 20
1.9103
 30
0.0
 10
14.8303
 20
1.977
 30
0.0
 10
14.8303
 20
1.977
 30
0.0
 10
14.7527
 20
2.0443
 30
0.0
 10
14.6615
 20
2.096
 30
0.0
 10
14.5574
 20
2.1327
 30
0.0
 10
14.5574
 20
2.1327
 30
0.0
 10
14.4525
 20
2.1694
 30
0.0
 10
14.338
 20
2.1881
 30
0.0
 10
14.2146
 20
2.1887
 30
0.0
 10
14.2146
 20
2.1887
 30
0.0
 10
14.1097
 20
2.1881
 30
0.0
 10
14.0153
 20
2.1747
 30
0.0
 10
13.9319
 20
2.1488
 30
0.0
 10
13.9319
 20
2.1488
 30
0.0
 10
13.8484
 20
2.123
 30
0.0
 10
13.7766
 20
2.0888
 30
0.0
 10
13.7159
 20
2.0454
 30
0.0
 10
13.7159
 20
2.0454
 30
0.0
 10
13.6552
 20
2.0019
 30
0.0
 10
13.6067
 20
1.9532
 30
0.0
 10
13.5704
 20
1.9
 30
0.0
 10
13.5704
 20
1.9
 30
0.0
 10
13.5225
 20
1.8373
 30
0.0
 10
13.4875
 20
1.7696
 30
0.0
 10
13.4663
 20
1.6956
 30
0.0
 10
13.4663
 20
1.6956
 30
0.0
 10
13.4449
 20
1.6216
 30
0.0
 10
13.434
 20
1.545
 30
0.0
 10
13.4345
 20
1.4653
 30
0.0
 10
13.4345
 20
1.4653
 30
0.0
 10
13.4345
 20
1.4292
 30
0.0
 10
13.4353
 20
1.3981
 30
0.0
 10
13.4372
 20
1.3727
 30
0.0
 10
13.4372
 20
1.3727
 30
0.0
 10
13.4391
 20
1.3474
 30
0.0
 10
13.4424
 20
1.3236
 30
0.0
 10
13.4462
 20
1.3008
 30
0.0
 10
13.4462
 20
1.3008
 30
0.0
 10
13.4462
 20
1.3008
 30
0.0
 10
12.7981
 20
1.3784
 30
0.0
 10
12.7981
 20
1.3784
 30
0.0
 10
12.7981
 20
1.3784
 30
0.0
 10
12.7981
 20
1.3784
 30
0.0
 10
12.7981
 20
2.1482
 30
0.0
 10
12.7981
 20
2.1482
 30
0.0
 10
12.7981
 20
2.1482
 30
0.0
 10
12.7981
 20
2.1482
 30
0.0
 10
12.5111
 20
2.1482
 30
0.0
 10
12.5111
 20
2.1482
 30
0.0
  0
SPLINE
  5
1CA
330
1F
100
AcDbEntity
  8
Ilustrace
 62
   250
100
AcDbSpline
210
0.0
220
0.0
230
1.0
 70
    11
 71
     3
 72
   124
 73
   120
 74
     0
 42
0.0000000001
 43
0.0000000001
 40
0.0
 40
0.0
 40
0.0
 40
0.0
 40
0.032258064516129
 40
0.032258064516129
 40
0.032258064516129
 40
0.032258064516129
 40
0.0645161290322581
 40
0.0645161290322581
 40
0.0645161290322581
 40
0.0645161290322581
 40
0.0967741935483871
 40
0.0967741935483871
 40
0.0967741935483871
 40
0.0967741935483871
 40
0.1290322580645161
 40
0.1290322580645161
 40
0.1290322580645161
 40
0.1290322580645161
 40
0.1612903225806452
 40
0.1612903225806452
 40
0.1612903225806452
 40
0.1612903225806452
 40
0.1935483870967742
 40
0.1935483870967742
 40
0.1935483870967742
 40
0.1935483870967742
 40
0.2258064516129032
 40
0.2258064516129032
 40
0.2258064516129032
 40
0.2258064516129032
 40
0.2580645161290323
 40
0.2580645161290323
 40
0.2580645161290323
 40
0.2580645161290323
 40
0.2903225806451613
 40
0.2903225806451613
 40
0.2903225806451613
 40
0.2903225806451613
 40
0.3225806451612903
 40
0.3225806451612903
 40
0.3225806451612903
 40
0.3225806451612903
 40
0.3548387096774194
 40
0.3548387096774194
 40
0.3548387096774194
 40
0.3548387096774194
 40
0.3870967741935484
 40
0.3870967741935484
 40
0.3870967741935484
 40
0.3870967741935484
 40
0.4193548387096774
 40
0.4193548387096774
 40
0.4193548387096774
 40
0.4193548387096774
 40
0.4516129032258064
 40
0.4516129032258064
 40
0.4516129032258064
 40
0.4516129032258064
 40
0.4838709677419355
 40
0.4838709677419355
 40
0.4838709677419355
 40
0.4838709677419355
 40
0.5161290322580645
 40
0.5161290322580645
 40
0.5161290322580645
 40
0.5161290322580645
 40
0.5483870967741935
 40
0.5483870967741935
 40
0.5483870967741935
 40
0.5483870967741935
 40
0.5806451612903226
 40
0.5806451612903226
 40
0.5806451612903226
 40
0.5806451612903226
 40
0.6129032258064516
 40
0.6129032258064516
 40
0.6129032258064516
 40
0.6129032258064516
 40
0.6451612903225806
 40
0.6451612903225806
 40
0.6451612903225806
 40
0.6451612903225806
 40
0.6774193548387096
 40
0.6774193548387096
 40
0.6774193548387096
 40
0.6774193548387096
 40
0.7096774193548387
 40
0.7096774193548387
 40
0.7096774193548387
 40
0.7096774193548387
 40
0.7419354838709677
 40
0.7419354838709677
 40
0.7419354838709677
 40
0.7419354838709677
 40
0.7741935483870968
 40
0.7741935483870968
 40
0.7741935483870968
 40
0.7741935483870968
 40
0.8064516129032258
 40
0.8064516129032258
 40
0.8064516129032258
 40
0.8064516129032258
 40
0.8387096774193549
 40
0.8387096774193549
 40
0.8387096774193549
 40
0.8387096774193549
 40
0.8709677419354839
 40
0.8709677419354839
 40
0.8709677419354839
 40
0.8709677419354839
 40
0.9032258064516129
 40
0.9032258064516129
 40
0.9032258064516129
 40
0.9032258064516129
 40
0.9354838709677419
 40
0.9354838709677419
 40
0.9354838709677419
 40
0.9354838709677419
 40
1.0
 40
1.0
 40
1.0
 40
1.0
 10
15.072
 20
2.6947
 30
0.0
 10
15.0741
 20
2.7273
 30
0.0
 10
15.0741
 20
2.765
 30
0.0
 10
15.0709
 20
2.8074
 30
0.0
 10
15.0709
 20
2.8074
 30
0.0
 10
15.0683
 20
2.8498
 30
0.0
 10
15.0624
 20
2.8964
 30
0.0
 10
15.0527
 20
2.9461
 30
0.0
 10
15.0527
 20
2.9461
 30
0.0
 10
15.0423
 20
3.019
 30
0.0
 10
15.0224
 20
3.0904
 30
0.0
 10
14.9938
 20
3.1603
 30
0.0
 10
14.9938
 20
3.1603
 30
0.0
 10
14.9647
 20
3.2301
 30
0.0
 10
14.9266
 20
3.2969
 30
0.0
 10
14.8801
 20
3.36
 30
0.0
 10
14.8801
 20
3.36
 30
0.0
 10
14.8335
 20
3.4232
 30
0.0
 10
14.7784
 20
3.4806
 30
0.0
 10
14.7151
 20
3.5328
 30
0.0
 10
14.7151
 20
3.5328
 30
0.0
 10
14.6348
 20
3.5996
 30
0.0
 10
14.5386
 20
3.6591
 30
0.0
 10
14.4247
 20
3.7113
 30
0.0
 10
14.4247
 20
3.7113
 30
0.0
 10
14.3115
 20
3.7636
 30
0.0
 10
14.1809
 20
3.8045
 30
0.0
 10
14.0328
 20
3.8344
 30
0.0
 10
14.0328
 20
3.8344
 30
0.0
 10
13.8847
 20
3.8645
 30
0.0
 10
13.7191
 20
3.88
 30
0.0
 10
13.5355
 20
3.8805
 30
0.0
 10
13.5355
 20
3.8805
 30
0.0
 10
13.3718
 20
3.8805
 30
0.0
 10
13.225
 20
3.865
 30
0.0
 10
13.0938
 20
3.8344
 30
0.0
 10
13.0938
 20
3.8344
 30
0.0
 10
12.9624
 20
3.8039
 30
0.0
 10
12.8505
 20
3.7594
 30
0.0
 10
12.7575
 20
3.7015
 30
0.0
 10
12.7575
 20
3.7015
 30
0.0
 10
12.6643
 20
3.6435
 30
0.0
 10
12.5932
 20
3.5737
 30
0.0
 10
12.5434
 20
3.4914
 30
0.0
 10
12.5434
 20
3.4914
 30
0.0
 10
12.4936
 20
3.4092
 30
0.0
 10
12.469
 20
3.3166
 30
0.0
 10
12.4684
 20
3.2131
 30
0.0
 10
12.4684
 20
3.2131
 30
0.0
 10
12.469
 20
3.1095
 30
0.0
 10
12.4936
 20
3.0154
 30
0.0
 10
12.5414
 20
2.931
 30
0.0
 10
12.5414
 20
2.931
 30
0.0
 10
12.5887
 20
2.8468
 30
0.0
 10
12.6547
 20
2.7743
 30
0.0
 10
12.7374
 20
2.7138
 30
0.0
 10
12.7374
 20
2.7138
 30
0.0
 10
12.8208
 20
2.6527
 30
0.0
 10
12.9159
 20
2.6062
 30
0.0
 10
13.0233
 20
2.5736
 30
0.0
 10
13.0233
 20
2.5736
 30
0.0
 10
13.1306
 20
2.541
 30
0.0
 10
13.2445
 20
2.5244
 30
0.0
 10
13.3648
 20
2.5239
 30
0.0
 10
13.3648
 20
2.5239
 30
0.0
 10
13.4727
 20
2.5244
 30
0.0
 10
13.5736
 20
2.5384
 30
0.0
 10
13.6668
 20
2.5658
 30
0.0
 10
13.6668
 20
2.5658
 30
0.0
 10
13.7605
 20
2.5938
 30
0.0
 10
13.842
 20
2.6336
 30
0.0
 10
13.9125
 20
2.6853
 30
0.0
 10
13.9125
 20
2.6853
 30
0.0
 10
13.9824
 20
2.7371
 30
0.0
 10
14.0373
 20
2.7996
 30
0.0
 10
14.0768
 20
2.8721
 30
0.0
 10
14.0768
 20
2.8721
 30
0.0
 10
14.1162
 20
2.945
 30
0.0
 10
14.1363
 20
3.0262
 30
0.0
 10
14.1369
 20
3.1169
 30
0.0
 10
14.1369
 20
3.1169
 30
0.0
 10
14.1363
 20
3.2193
 30
0.0
 10
14.113
 20
3.3109
 30
0.0
 10
14.067
 20
3.391
 30
0.0
 10
14.067
 20
3.391
 30
0.0
 10
14.0211
 20
3.4707
 30
0.0
 10
13.9552
 20
3.539
 30
0.0
 10
13.8693
 20
3.5949
 30
0.0
 10
13.8693
 20
3.5949
 30
0.0
 10
13.8693
 20
3.5949
 30
0.0
 10
13.8693
 20
3.6042
 30
0.0
 10
13.8693
 20
3.6042
 30
0.0
 10
13.8693
 20
3.6042
 30
0.0
 10
14.0166
 20
3.5851
 30
0.0
 10
14.146
 20
3.5525
 30
0.0
 10
14.2566
 20
3.5069
 30
0.0
 10
14.2566
 20
3.5069
 30
0.0
 10
14.3678
 20
3.4609
 30
0.0
 10
14.461
 20
3.4045
 30
0.0
 10
14.5365
 20
3.3372
 30
0.0
 10
14.5365
 20
3.3372
 30
0.0
 10
14.6064
 20
3.2793
 30
0.0
 10
14.6608
 20
3.2146
 30
0.0
 10
14.7008
 20
3.1427
 30
0.0
 10
14.7008
 20
3.1427
 30
0.0
 10
14.741
 20
3.0707
 30
0.0
 10
14.7675
 20
2.9948
 30
0.0
 10
14.7811
 20
2.9151
 30
0.0
 10
14.7811
 20
2.9151
 30
0.0
 10
14.7869
 20
2.8689
 30
0.0
 10
14.7914
 20
2.8276
 30
0.0
 10
14.794
 20
2.7919
 30
0.0
 10
14.794
 20
2.7919
 30
0.0
 10
14.7966
 20
2.7562
 30
0.0
 10
14.7966
 20
2.7237
 30
0.0
 10
14.7927
 20
2.6947
 30
0.0
 10
14.7927
 20
2.6947
 30
0.0
 10
14.7927
 20
2.6947
 30
0.0
 10
15.072
 20
2.6947
 30
0.0
 10
15.072
 20
2.6947
 30
0.0
  0
SPLINE
  5
1CB
330
1F
100
AcDbEntity
  8
Ilustrace
 62
   250
100
AcDbSpline
210
0.0
220
0.0
230
1.0
 70
    11
 71
     3
 72
    64
 73
    60
 74
     0
 42
0.0000000001
 43
0.0000000001
 40
0.0
 40
0.0
 40
0.0
 40
0.0
 40
0.0625
 40
0.0625
 40
0.0625
 40
0.0625
 40
0.125
 40
0.125
 40
0.125
 40
0.125
 40
0.1875
 40
0.1875
 40
0.1875
 40
0.1875
 40
0.25
 40
0.25
 40
0.25
 40
0.25
 40
0.3125
 40
0.3125
 40
0.3125
 40
0.3125
 40
0.375
 40
0.375
 40
0.375
 40
0.375
 40
0.4375
 40
0.4375
 40
0.4375
 40
0.4375
 40
0.5
 40
0.5
 40
0.5
 40
0.5
 40
0.5625
 40
0.5625
 40
0.5625
 40
0.5625
 40
0.625
 40
0.625
 40
0.625
 40
0.625
 40
0.6875
 40
0.6875
 40
0.6875
 40
0.6875
 40
0.75
 40
0.75
 40
0.75
 40
0.75
 40
0.8125
 40
0.8125
 40
0.8125
 40
0.8125
 40
0.875
 40
0.875
 40
0.875
 40
0.875
 40
1.0
 40
1.0
 40
1.0
 40
1.0
 10
12.7284
 20
3.1882
 30
0.0
 10
12.7289
 20
3.2602
 30
0.0
 10
12.7485
 20
3.3227
 30
0.0
 10
12.7866
 20
3.375
 30
0.0
 10
12.7866
 20
3.375
 30
0.0
 10
12.8248
 20
3.4272
 30
0.0
 10
12.8784
 20
3.4707
 30
0.0
 10
12.947
 20
3.5044
 30
0.0
 10
12.947
 20
3.5044
 30
0.0
 10
13.0156
 20
3.5385
 30
0.0
 10
13.0964
 20
3.5633
 30
0.0
 10
13.1881
 20
3.5799
 30
0.0
 10
13.1881
 20
3.5799
 30
0.0
 10
13.2806
 20
3.5964
 30
0.0
 10
13.3809
 20
3.6042
 30
0.0
 10
13.4889
 20
3.6042
 30
0.0
 10
13.4889
 20
3.6042
 30
0.0
 10
13.5174
 20
3.6042
 30
0.0
 10
13.5419
 20
3.6021
 30
0.0
 10
13.5614
 20
3.5975
 30
0.0
 10
13.5614
 20
3.5975
 30
0.0
 10
13.5813
 20
3.5934
 30
0.0
 10
13.6001
 20
3.5871
 30
0.0
 10
13.617
 20
3.5794
 30
0.0
 10
13.617
 20
3.5794
 30
0.0
 10
13.668
 20
3.5555
 30
0.0
 10
13.7133
 20
3.5241
 30
0.0
 10
13.7527
 20
3.4853
 30
0.0
 10
13.7527
 20
3.4853
 30
0.0
 10
13.7922
 20
3.4469
 30
0.0
 10
13.8232
 20
3.402
 30
0.0
 10
13.846
 20
3.3507
 30
0.0
 10
13.846
 20
3.3507
 30
0.0
 10
13.8685
 20
3.2994
 30
0.0
 10
13.8802
 20
3.243
 30
0.0
 10
13.8808
 20
3.182
 30
0.0
 10
13.8808
 20
3.182
 30
0.0
 10
13.8802
 20
3.1029
 30
0.0
 10
13.8569
 20
3.0346
 30
0.0
 10
13.8116
 20
2.9766
 30
0.0
 10
13.8116
 20
2.9766
 30
0.0
 10
13.7663
 20
2.9187
 30
0.0
 10
13.7043
 20
2.8736
 30
0.0
 10
13.624
 20
2.8421
 30
0.0
 10
13.624
 20
2.8421
 30
0.0
 10
13.5439
 20
2.8106
 30
0.0
 10
13.4507
 20
2.7945
 30
0.0
 10
13.3453
 20
2.794
 30
0.0
 10
13.3453
 20
2.794
 30
0.0
 10
13.2238
 20
2.7945
 30
0.0
 10
13.1171
 20
2.8116
 30
0.0
 10
13.0252
 20
2.8452
 30
0.0
 10
13.0252
 20
2.8452
 30
0.0
 10
12.9327
 20
2.8788
 30
0.0
 10
12.8603
 20
2.9249
 30
0.0
 10
12.8079
 20
2.9838
 30
0.0
 10
12.8079
 20
2.9838
 30
0.0
 10
12.7555
 20
3.0429
 30
0.0
 10
12.7289
 20
3.1112
 30
0.0
 10
12.7284
 20
3.1882
 30
0.0
  0
SPLINE
  5
1CC
330
1F
100
AcDbEntity
  8
Ilustrace
 62
   250
100
AcDbSpline
210
0.0
220
0.0
230
1.0
 70
    11
 71
     3
 72
    20
 73
    16
 74
     0
 42
0.0000000001
 43
0.0000000001
 40
0.0
 40
0.0
 40
0.0
 40
0.0
 40
0.2
 40
0.2
 40
0.2
 40
0.2
 40
0.4
 40
0.4
 40
0.4
 40
0.4
 40
0.6
 40
0.6
 40
0.6
 40
0.6
 40
1.0
 40
1.0
 40
1.0
 40
1.0
 10
13.9313
 20
4.0822
 30
0.0
 10
13.9313
 20
4.0822
 30
0.0
 10
14.1642
 20
4.0822
 30
0.0
 10
14.1642
 20
4.0822
 30
0.0
 10
14.1642
 20
4.0822
 30
0.0
 10
14.1642
 20
4.0822
 30
0.0
 10
14.1642
 20
5.4482
 30
0.0
 10
14.1642
 20
5.4482
 30
0.0
 10
14.1642
 20
5.4482
 30
0.0
 10
14.1642
 20
5.4482
 30
0.0
 10
13.9313
 20
5.4482
 30
0.0
 10
13.9313
 20
5.4482
 30
0.0
 10
13.9313
 20
5.4482
 30
0.0
 10
13.9313
 20
5.4482
 30
0.0
 10
13.9313
 20
4.0822
 30
0.0
 10
13.9313
 20
4.0822
 30
0.0
  0
SPLINE
  5
1CD
330
1F
100
AcDbEntity
  8
Ilustrace
 62
   250
100
AcDbSpline
210
0.0
220
0.0
230
1.0
 70
    11
 71
     3
 72
    36
 73
    32
 74
     0
 42
0.0000000001
 43
0.0000000001
 40
0.0
 40
0.0
 40
0.0
 40
0.0
 40
0.1111111111111111
 40
0.1111111111111111
 40
0.1111111111111111
 40
0.1111111111111111
 40
0.2222222222222222
 40
0.2222222222222222
 40
0.2222222222222222
 40
0.2222222222222222
 40
0.3333333333333333
 40
0.3333333333333333
 40
0.3333333333333333
 40
0.3333333333333333
 40
0.4444444444444444
 40
0.4444444444444444
 40
0.4444444444444444
 40
0.4444444444444444
 40
0.5555555555555556
 40
0.5555555555555556
 40
0.5555555555555556
 40
0.5555555555555556
 40
0.6666666666666666
 40
0.6666666666666666
 40
0.6666666666666666
 40
0.6666666666666666
 40
0.7777777777777778
 40
0.7777777777777778
 40
0.7777777777777778
 40
0.7777777777777778
 40
1.0
 40
1.0
 40
1.0
 40
1.0
 10
12.5111
 20
5.7182
 30
0.0
 10
12.5111
 20
5.7182
 30
0.0
 10
12.7943
 20
5.7182
 30
0.0
 10
12.7943
 20
5.7182
 30
0.0
 10
12.7943
 20
5.7182
 30
0.0
 10
12.7943
 20
5.7182
 30
0.0
 10
12.7943
 20
6.7054
 30
0.0
 10
12.7943
 20
6.7054
 30
0.0
 10
12.7943
 20
6.7054
 30
0.0
 10
12.7943
 20
6.7054
 30
0.0
 10
12.8021
 20
6.7054
 30
0.0
 10
12.8021
 20
6.7054
 30
0.0
 10
12.8021
 20
6.7054
 30
0.0
 10
12.8021
 20
6.7054
 30
0.0
 10
15.0333
 20
5.83
 30
0.0
 10
15.0333
 20
5.83
 30
0.0
 10
15.0333
 20
5.83
 30
0.0
 10
15.0333
 20
5.83
 30
0.0
 10
15.0333
 20
6.1125
 30
0.0
 10
15.0333
 20
6.1125
 30
0.0
 10
15.0333
 20
6.1125
 30
0.0
 10
15.0333
 20
6.1125
 30
0.0
 10
12.7361
 20
6.9909
 30
0.0
 10
12.7361
 20
6.9909
 30
0.0
 10
12.7361
 20
6.9909
 30
0.0
 10
12.7361
 20
6.9909
 30
0.0
 10
12.5111
 20
6.9909
 30
0.0
 10
12.5111
 20
6.9909
 30
0.0
 10
12.5111
 20
6.9909
 30
0.0
 10
12.5111
 20
6.9909
 30
0.0
 10
12.5111
 20
5.7182
 30
0.0
 10
12.5111
 20
5.7182
 30
0.0
  0
SPLINE
  5
1CE
330
1F
100
AcDbEntity
  8
Ilustrace
 62
   250
100
AcDbSpline
210
0.0
220
0.0
230
1.0
 70
    11
 71
     3
 72
   124
 73
   120
 74
     0
 42
0.0000000001
 43
0.0000000001
 40
0.0
 40
0.0
 40
0.0
 40
0.0
 40
0.032258064516129
 40
0.032258064516129
 40
0.032258064516129
 40
0.032258064516129
 40
0.0645161290322581
 40
0.0645161290322581
 40
0.0645161290322581
 40
0.0645161290322581
 40
0.0967741935483871
 40
0.0967741935483871
 40
0.0967741935483871
 40
0.0967741935483871
 40
0.1290322580645161
 40
0.1290322580645161
 40
0.1290322580645161
 40
0.1290322580645161
 40
0.1612903225806452
 40
0.1612903225806452
 40
0.1612903225806452
 40
0.1612903225806452
 40
0.1935483870967742
 40
0.1935483870967742
 40
0.1935483870967742
 40
0.1935483870967742
 40
0.2258064516129032
 40
0.2258064516129032
 40
0.2258064516129032
 40
0.2258064516129032
 40
0.2580645161290323
 40
0.2580645161290323
 40
0.2580645161290323
 40
0.2580645161290323
 40
0.2903225806451613
 40
0.2903225806451613
 40
0.2903225806451613
 40
0.2903225806451613
 40
0.3225806451612903
 40
0.3225806451612903
 40
0.3225806451612903
 40
0.3225806451612903
 40
0.3548387096774194
 40
0.3548387096774194
 40
0.3548387096774194
 40
0.3548387096774194
 40
0.3870967741935484
 40
0.3870967741935484
 40
0.3870967741935484
 40
0.3870967741935484
 40
0.4193548387096774
 40
0.4193548387096774
 40
0.4193548387096774
 40
0.4193548387096774
 40
0.4516129032258064
 40
0.4516129032258064
 40
0.4516129032258064
 40
0.4516129032258064
 40
0.4838709677419355
 40
0.4838709677419355
 40
0.4838709677419355
 40
0.4838709677419355
 40
0.5161290322580645
 40
0.5161290322580645
 40
0.5161290322580645
 40
0.5161290322580645
 40
0.5483870967741935
 40
0.5483870967741935
 40
0.5483870967741935
 40
0.5483870967741935
 40
0.5806451612903226
 40
0.5806451612903226
 40
0.5806451612903226
 40
0.5806451612903226
 40
0.6129032258064516
 40
0.6129032258064516
 40
0.6129032258064516
 40
0.6129032258064516
 40
0.6451612903225806
 40
0.6451612903225806
 40
0.6451612903225806
 40
0.6451612903225806
 40
0.6774193548387096
 40
0.6774193548387096
 40
0.6774193548387096
 40
0.6774193548387096
 40
0.7096774193548387
 40
0.7096774193548387
 40
0.7096774193548387
 40
0.7096774193548387
 40
0.7419354838709677
 40
0.7419354838709677
 40
0.7419354838709677
 40
0.7419354838709677
 40
0.7741935483870968
 40
0.7741935483870968
 40
0.7741935483870968
 40
0.7741935483870968
 40
0.8064516129032258
 40
0.8064516129032258
 40
0.8064516129032258
 40
0.8064516129032258
 40
0.8387096774193549
 40
0.8387096774193549
 40
0.8387096774193549
 40
0.8387096774193549
 40
0.8709677419354839
 40
0.8709677419354839
 40
0.8709677419354839
 40
0.8709677419354839
 40
0.9032258064516129
 40
0.9032258064516129
 40
0.9032258064516129
 40
0.9032258064516129
 40
0.9354838709677419
 40
0.9354838709677419
 40
0.9354838709677419
 40
0.9354838709677419
 40
1.0
 40
1.0
 40
1.0
 40
1.0
 10
15.072
 20
7.4318
 30
0.0
 10
15.0741
 20
7.4644
 30
0.0
 10
15.0741
 20
7.5022
 30
0.0
 10
15.0709
 20
7.5446
 30
0.0
 10
15.0709
 20
7.5446
 30
0.0
 10
15.0683
 20
7.587
 30
0.0
 10
15.0624
 20
7.6336
 30
0.0
 10
15.0527
 20
7.6832
 30
0.0
 10
15.0527
 20
7.6832
 30
0.0
 10
15.0423
 20
7.7562
 30
0.0
 10
15.0224
 20
7.8276
 30
0.0
 10
14.9938
 20
7.8975
 30
0.0
 10
14.9938
 20
7.8975
 30
0.0
 10
14.9647
 20
7.9673
 30
0.0
 10
14.9266
 20
8.034
 30
0.0
 10
14.8801
 20
8.0972
 30
0.0
 10
14.8801
 20
8.0972
 30
0.0
 10
14.8335
 20
8.1603
 30
0.0
 10
14.7784
 20
8.2178
 30
0.0
 10
14.7151
 20
8.27
 30
0.0
 10
14.7151
 20
8.27
 30
0.0
 10
14.6348
 20
8.3367
 30
0.0
 10
14.5386
 20
8.3962
 30
0.0
 10
14.4247
 20
8.4484
 30
0.0
 10
14.4247
 20
8.4484
 30
0.0
 10
14.3115
 20
8.5008
 30
0.0
 10
14.1809
 20
8.5416
 30
0.0
 10
14.0328
 20
8.5716
 30
0.0
 10
14.0328
 20
8.5716
 30
0.0
 10
13.8847
 20
8.6017
 30
0.0
 10
13.7191
 20
8.6171
 30
0.0
 10
13.5355
 20
8.6176
 30
0.0
 10
13.5355
 20
8.6176
 30
0.0
 10
13.3718
 20
8.6176
 30
0.0
 10
13.225
 20
8.6021
 30
0.0
 10
13.0938
 20
8.5716
 30
0.0
 10
13.0938
 20
8.5716
 30
0.0
 10
12.9624
 20
8.5411
 30
0.0
 10
12.8505
 20
8.4966
 30
0.0
 10
12.7575
 20
8.4387
 30
0.0
 10
12.7575
 20
8.4387
 30
0.0
 10
12.6643
 20
8.3806
 30
0.0
 10
12.5932
 20
8.3108
 30
0.0
 10
12.5434
 20
8.2286
 30
0.0
 10
12.5434
 20
8.2286
 30
0.0
 10
12.4936
 20
8.1463
 30
0.0
 10
12.469
 20
8.0537
 30
0.0
 10
12.4684
 20
7.9503
 30
0.0
 10
12.4684
 20
7.9503
 30
0.0
 10
12.469
 20
7.8467
 30
0.0
 10
12.4936
 20
7.7526
 30
0.0
 10
12.5414
 20
7.6682
 30
0.0
 10
12.5414
 20
7.6682
 30
0.0
 10
12.5887
 20
7.584
 30
0.0
 10
12.6547
 20
7.5115
 30
0.0
 10
12.7374
 20
7.4509
 30
0.0
 10
12.7374
 20
7.4509
 30
0.0
 10
12.8208
 20
7.3899
 30
0.0
 10
12.9159
 20
7.3434
 30
0.0
 10
13.0233
 20
7.3108
 30
0.0
 10
13.0233
 20
7.3108
 30
0.0
 10
13.1306
 20
7.2781
 30
0.0
 10
13.2445
 20
7.2616
 30
0.0
 10
13.3648
 20
7.261
 30
0.0
 10
13.3648
 20
7.261
 30
0.0
 10
13.4727
 20
7.2616
 30
0.0
 10
13.5736
 20
7.2756
 30
0.0
 10
13.6668
 20
7.303
 30
0.0
 10
13.6668
 20
7.303
 30
0.0
 10
13.7605
 20
7.3309
 30
0.0
 10
13.842
 20
7.3708
 30
0.0
 10
13.9125
 20
7.4225
 30
0.0
 10
13.9125
 20
7.4225
 30
0.0
 10
13.9824
 20
7.4742
 30
0.0
 10
14.0373
 20
7.5368
 30
0.0
 10
14.0768
 20
7.6092
 30
0.0
 10
14.0768
 20
7.6092
 30
0.0
 10
14.1162
 20
7.6822
 30
0.0
 10
14.1363
 20
7.7634
 30
0.0
 10
14.1369
 20
7.854
 30
0.0
 10
14.1369
 20
7.854
 30
0.0
 10
14.1363
 20
7.9564
 30
0.0
 10
14.113
 20
8.048
 30
0.0
 10
14.067
 20
8.1282
 30
0.0
 10
14.067
 20
8.1282
 30
0.0
 10
14.0211
 20
8.2079
 30
0.0
 10
13.9552
 20
8.2761
 30
0.0
 10
13.8693
 20
8.3321
 30
0.0
 10
13.8693
 20
8.3321
 30
0.0
 10
13.8693
 20
8.3321
 30
0.0
 10
13.8693
 20
8.3414
 30
0.0
 10
13.8693
 20
8.3414
 30
0.0
 10
13.8693
 20
8.3414
 30
0.0
 10
14.0166
 20
8.3223
 30
0.0
 10
14.146
 20
8.2896
 30
0.0
 10
14.2566
 20
8.2441
 30
0.0
 10
14.2566
 20
8.2441
 30
0.0
 10
14.3678
 20
8.1981
 30
0.0
 10
14.461
 20
8.1417
 30
0.0
 10
14.5365
 20
8.0743
 30
0.0
 10
14.5365
 20
8.0743
 30
0.0
 10
14.6064
 20
8.0164
 30
0.0
 10
14.6608
 20
7.9518
 30
0.0
 10
14.7008
 20
7.8799
 30
0.0
 10
14.7008
 20
7.8799
 30
0.0
 10
14.741
 20
7.8079
 30
0.0
 10
14.7675
 20
7.7319
 30
0.0
 10
14.7811
 20
7.6522
 30
0.0
 10
14.7811
 20
7.6522
 30
0.0
 10
14.7869
 20
7.6061
 30
0.0
 10
14.7914
 20
7.5647
 30
0.0
 10
14.794
 20
7.5291
 30
0.0
 10
14.794
 20
7.5291
 30
0.0
 10
14.7966
 20
7.4933
 30
0.0
 10
14.7966
 20
7.4608
 30
0.0
 10
14.7927
 20
7.4318
 30
0.0
 10
14.7927
 20
7.4318
 30
0.0
 10
14.7927
 20
7.4318
 30
0.0
 10
15.072
 20
7.4318
 30
0.0
 10
15.072
 20
7.4318
 30
0.0
  0
SPLINE
  5
1CF
330
1F
100
AcDbEntity
  8
Ilustrace
 62
   250
100
AcDbSpline
210
0.0
220
0.0
230
1.0
 70
    11
 71
     3
 72
    64
 73
    60
 74
     0
 42
0.0000000001
 43
0.0000000001
 40
0.0
 40
0.0
 40
0.0
 40
0.0
 40
0.0625
 40
0.0625
 40
0.0625
 40
0.0625
 40
0.125
 40
0.125
 40
0.125
 40
0.125
 40
0.1875
 40
0.1875
 40
0.1875
 40
0.1875
 40
0.25
 40
0.25
 40
0.25
 40
0.25
 40
0.3125
 40
0.3125
 40
0.3125
 40
0.3125
 40
0.375
 40
0.375
 40
0.375
 40
0.375
 40
0.4375
 40
0.4375
 40
0.4375
 40
0.4375
 40
0.5
 40
0.5
 40
0.5
 40
0.5
 40
0.5625
 40
0.5625
 40
0.5625
 40
0.5625
 40
0.625
 40
0.625
 40
0.625
 40
0.625
 40
0.6875
 40
0.6875
 40
0.6875
 40
0.6875
 40
0.75
 40
0.75
 40
0.75
 40
0.75
 40
0.8125
 40
0.8125
 40
0.8125
 40
0.8125
 40
0.875
 40
0.875
 40
0.875
 40
0.875
 40
1.0
 40
1.0
 40
1.0
 40
1.0
 10
12.7284
 20
7.9253
 30
0.0
 10
12.7289
 20
7.9973
 30
0.0
 10
12.7485
 20
8.0599
 30
0.0
 10
12.7866
 20
8.1122
 30
0.0
 10
12.7866
 20
8.1122
 30
0.0
 10
12.8248
 20
8.1644
 30
0.0
 10
12.8784
 20
8.2079
 30
0.0
 10
12.947
 20
8.2415
 30
0.0
 10
12.947
 20
8.2415
 30
0.0
 10
13.0156
 20
8.2757
 30
0.0
 10
13.0964
 20
8.3005
 30
0.0
 10
13.1881
 20
8.317
 30
0.0
 10
13.1881
 20
8.317
 30
0.0
 10
13.2806
 20
8.3336
 30
0.0
 10
13.3809
 20
8.3414
 30
0.0
 10
13.4889
 20
8.3414
 30
0.0
 10
13.4889
 20
8.3414
 30
0.0
 10
13.5174
 20
8.3414
 30
0.0
 10
13.5419
 20
8.3393
 30
0.0
 10
13.5614
 20
8.3346
 30
0.0
 10
13.5614
 20
8.3346
 30
0.0
 10
13.5813
 20
8.3305
 30
0.0
 10
13.6001
 20
8.3242
 30
0.0
 10
13.617
 20
8.3166
 30
0.0
 10
13.617
 20
8.3166
 30
0.0
 10
13.668
 20
8.2927
 30
0.0
 10
13.7133
 20
8.2612
 30
0.0
 10
13.7527
 20
8.2224
 30
0.0
 10
13.7527
 20
8.2224
 30
0.0
 10
13.7922
 20
8.1841
 30
0.0
 10
13.8232
 20
8.1391
 30
0.0
 10
13.846
 20
8.0879
 30
0.0
 10
13.846
 20
8.0879
 30
0.0
 10
13.8685
 20
8.0366
 30
0.0
 10
13.8802
 20
7.9802
 30
0.0
 10
13.8808
 20
7.9192
 30
0.0
 10
13.8808
 20
7.9192
 30
0.0
 10
13.8802
 20
7.84
 30
0.0
 10
13.8569
 20
7.7718
 30
0.0
 10
13.8116
 20
7.7138
 30
0.0
 10
13.8116
 20
7.7138
 30
0.0
 10
13.7663
 20
7.6558
 30
0.0
 10
13.7043
 20
7.6108
 30
0.0
 10
13.624
 20
7.5793
 30
0.0
 10
13.624
 20
7.5793
 30
0.0
 10
13.5439
 20
7.5477
 30
0.0
 10
13.4507
 20
7.5317
 30
0.0
 10
13.3453
 20
7.5312
 30
0.0
 10
13.3453
 20
7.5312
 30
0.0
 10
13.2238
 20
7.5317
 30
0.0
 10
13.1171
 20
7.5488
 30
0.0
 10
13.0252
 20
7.5823
 30
0.0
 10
13.0252
 20
7.5823
 30
0.0
 10
12.9327
 20
7.616
 30
0.0
 10
12.8603
 20
7.662
 30
0.0
 10
12.8079
 20
7.721
 30
0.0
 10
12.8079
 20
7.721
 30
0.0
 10
12.7555
 20
7.78
 30
0.0
 10
12.7289
 20
7.8483
 30
0.0
 10
12.7284
 20
7.9253
 30
0.0
  0
SPLINE
  5
1D0
330
1F
100
AcDbEntity
  8
Ilustrace
 62
   250
370
    15
100
AcDbSpline
210
0.0
220
0.0
230
1.0
 70
    24
 71
     3
 72
     8
 73
     4
 74
     0
 42
0.0000000001
 43
0.0000000001
 40
0.0
 40
0.0
 40
0.0
 40
0.0
 40
1.0
 40
1.0
 40
1.0
 40
1.0
 10
16.1735
 20
-18.5163
 30
0.0
 10
16.1735
 20
-18.5163
 30
0.0
 10
7.5248
 20
-18.5163
 30
0.0
 10
7.5248
 20
-18.5163
 30
0.0
  0
SPLINE
  5
1D1
330
1F
100
AcDbEntity
  8
Ilustrace
 62
   250
370
    15
100
AcDbSpline
210
0.0
220
0.0
230
1.0
 70
    24
 71
     3
 72
     8
 73
     4
 74
     0
 42
0.0000000001
 43
0.0000000001
 40
0.0
 40
0.0
 40
0.0
 40
0.0
 40
1.0
 40
1.0
 40
1.0
 40
1.0
 10
15.6036
 20
-8.8652
 30
0.0
 10
15.6036
 20
-8.8652
 30
0.0
 10
15.6036
 20
-18.2992
 30
0.0
 10
15.6036
 20
-18.2992
 30
0.0
  0
SPLINE
  5
1D2
330
1F
100
AcDbEntity
  8
Ilustrace
 62
   250
370
     9
100
AcDbSpline
210
0.0
220
0.0
230
1.0
 70
    11
 71
     3
 72
    32
 73
    28
 74
     0
 42
0.0000000001
 43
0.0000000001
 40
0.0
 40
0.0
 40
0.0
 40
0.0
 40
0.125
 40
0.125
 40
0.125
 40
0.125
 40
0.25
 40
0.25
 40
0.25
 40
0.25
 40
0.375
 40
0.375
 40
0.375
 40
0.375
 40
0.5
 40
0.5
 40
0.5
 40
0.5
 40
0.625
 40
0.625
 40
0.625
 40
0.625
 40
0.75
 40
0.75
 40
0.75
 40
0.75
 40
1.0
 40
1.0
 40
1.0
 40
1.0
 10
16.0454
 20
-9.649
 30
0.0
 10
16.0454
 20
-9.649
 30
0.0
 10
16.0454
 20
-9.649
 30
0.0
 10
16.0454
 20
-9.649
 30
0.0
 10
16.0454
 20
-9.649
 30
0.0
 10
16.0454
 20
-9.649
 30
0.0
 10
16.0454
 20
-9.649
 30
0.0
 10
16.0454
 20
-9.649
 30
0.0
 10
16.0454
 20
-9.649
 30
0.0
 10
16.0454
 20
-9.649
 30
0.0
 10
15.602
 20
-8.3762
 30
0.0
 10
15.602
 20
-8.3762
 30
0.0
 10
15.602
 20
-8.3762
 30
0.0
 10
15.602
 20
-8.3762
 30
0.0
 10
15.1586
 20
-9.649
 30
0.0
 10
15.1586
 20
-9.649
 30
0.0
 10
15.1586
 20
-9.649
 30
0.0
 10
15.1586
 20
-9.649
 30
0.0
 10
15.1586
 20
-9.649
 30
0.0
 10
15.1586
 20
-9.649
 30
0.0
 10
15.1586
 20
-9.649
 30
0.0
 10
15.1586
 20
-9.649
 30
0.0
 10
15.1586
 20
-9.649
 30
0.0
 10
15.1586
 20
-9.649
 30
0.0
 10
15.1586
 20
-9.649
 30
0.0
 10
15.1586
 20
-9.649
 30
0.0
 10
16.0454
 20
-9.649
 30
0.0
 10
16.0454
 20
-9.649
 30
0.0
  0
SPLINE
  5
1D3
330
1F
100
AcDbEntity
  8
Ilustrace
 62
   250
370
     9
100
AcDbSpline
210
0.0
220
0.0
230
1.0
 70
    11
 71
     3
 72
    32
 73
    28
 74
     0
 42
0.0000000001
 43
0.0000000001
 40
0.0
 40
0.0
 40
0.0
 40
0.0
 40
0.125
 40
0.125
 40
0.125
 40
0.125
 40
0.25
 40
0.25
 40
0.25
 40
0.25
 40
0.375
 40
0.375
 40
0.375
 40
0.375
 40
0.5
 40
0.5
 40
0.5
 40
0.5
 40
0.625
 40
0.625
 40
0.625
 40
0.625
 40
0.75
 40
0.75
 40
0.75
 40
0.75
 40
1.0
 40
1.0
 40
1.0
 40
1.0
 10
16.0433
 20
-17.1754
 30
0.0
 10
16.0433
 20
-17.1754
 30
0.0
 10
16.0433
 20
-17.1754
 30
0.0
 10
16.0433
 20
-17.1754
 30
0.0
 10
16.0433
 20
-17.1754
 30
0.0
 10
16.0433
 20
-17.1754
 30
0.0
 10
16.0433
 20
-17.1754
 30
0.0
 10
16.0433
 20
-17.1754
 30
0.0
 10
16.0433
 20
-17.1754
 30
0.0
 10
16.0433
 20
-17.1754
 30
0.0
 10
15.5999
 20
-18.4482
 30
0.0
 10
15.5999
 20
-18.4482
 30
0.0
 10
15.5999
 20
-18.4482
 30
0.0
 10
15.5999
 20
-18.4482
 30
0.0
 10
15.1565
 20
-17.1754
 30
0.0
 10
15.1565
 20
-17.1754
 30
0.0
 10
15.1565
 20
-17.1754
 30
0.0
 10
15.1565
 20
-17.1754
 30
0.0
 10
15.1565
 20
-17.1754
 30
0.0
 10
15.1565
 20
-17.1754
 30
0.0
 10
15.1565
 20
-17.1754
 30
0.0
 10
15.1565
 20
-17.1754
 30
0.0
 10
15.1565
 20
-17.1754
 30
0.0
 10
15.1565
 20
-17.1754
 30
0.0
 10
15.1565
 20
-17.1754
 30
0.0
 10
15.1565
 20
-17.1754
 30
0.0
 10
16.0433
 20
-17.1754
 30
0.0
 10
16.0433
 20
-17.1754
 30
0.0
  0
SPLINE
  5
1D4
330
1F
100
AcDbEntity
  8
Ilustrace
 62
   250
370
    15
100
AcDbSpline
210
0.0
220
0.0
230
1.0
 70
    24
 71
     3
 72
     8
 73
     4
 74
     0
 42
0.0000000001
 43
0.0000000001
 40
0.0
 40
0.0
 40
0.0
 40
0.0
 40
1.0
 40
1.0
 40
1.0
 40
1.0
 10
2.5913
 20
-8.3816
 30
0.0
 10
2.5913
 20
-8.3816
 30
0.0
 10
16.2246
 20
-8.3816
 30
0.0
 10
16.2246
 20
-8.3816
 30
0.0
  0
SPLINE
  5
1D5
330
1F
100
AcDbEntity
  8
Ilustrace
 62
   250
100
AcDbSpline
210
0.0
220
0.0
230
1.0
 70
    11
 71
     3
 72
   196
 73
   192
 74
     0
 42
0.0000000001
 43
0.0000000001
 40
0.0
 40
0.0
 40
0.0
 40
0.0
 40
0.0204081632653061
 40
0.0204081632653061
 40
0.0204081632653061
 40
0.0204081632653061
 40
0.0408163265306122
 40
0.0408163265306122
 40
0.0408163265306122
 40
0.0408163265306122
 40
0.0612244897959184
 40
0.0612244897959184
 40
0.0612244897959184
 40
0.0612244897959184
 40
0.0816326530612245
 40
0.0816326530612245
 40
0.0816326530612245
 40
0.0816326530612245
 40
0.1020408163265306
 40
0.1020408163265306
 40
0.1020408163265306
 40
0.1020408163265306
 40
0.1224489795918367
 40
0.1224489795918367
 40
0.1224489795918367
 40
0.1224489795918367
 40
0.1428571428571428
 40
0.1428571428571428
 40
0.1428571428571428
 40
0.1428571428571428
 40
0.163265306122449
 40
0.163265306122449
 40
0.163265306122449
 40
0.163265306122449
 40
0.1836734693877551
 40
0.1836734693877551
 40
0.1836734693877551
 40
0.1836734693877551
 40
0.2040816326530612
 40
0.2040816326530612
 40
0.2040816326530612
 40
0.2040816326530612
 40
0.2244897959183673
 40
0.2244897959183673
 40
0.2244897959183673
 40
0.2244897959183673
 40
0.2448979591836735
 40
0.2448979591836735
 40
0.2448979591836735
 40
0.2448979591836735
 40
0.2653061224489796
 40
0.2653061224489796
 40
0.2653061224489796
 40
0.2653061224489796
 40
0.2857142857142857
 40
0.2857142857142857
 40
0.2857142857142857
 40
0.2857142857142857
 40
0.3061224489795918
 40
0.3061224489795918
 40
0.3061224489795918
 40
0.3061224489795918
 40
0.3265306122448979
 40
0.3265306122448979
 40
0.3265306122448979
 40
0.3265306122448979
 40
0.3469387755102041
 40
0.3469387755102041
 40
0.3469387755102041
 40
0.3469387755102041
 40
0.3673469387755102
 40
0.3673469387755102
 40
0.3673469387755102
 40
0.3673469387755102
 40
0.3877551020408163
 40
0.3877551020408163
 40
0.3877551020408163
 40
0.3877551020408163
 40
0.4081632653061225
 40
0.4081632653061225
 40
0.4081632653061225
 40
0.4081632653061225
 40
0.4285714285714285
 40
0.4285714285714285
 40
0.4285714285714285
 40
0.4285714285714285
 40
0.4489795918367347
 40
0.4489795918367347
 40
0.4489795918367347
 40
0.4489795918367347
 40
0.4693877551020408
 40
0.4693877551020408
 40
0.4693877551020408
 40
0.4693877551020408
 40
0.4897959183673469
 40
0.4897959183673469
 40
0.4897959183673469
 40
0.4897959183673469
 40
0.5102040816326531
 40
0.5102040816326531
 40
0.5102040816326531
 40
0.5102040816326531
 40
0.5306122448979592
 40
0.5306122448979592
 40
0.5306122448979592
 40
0.5306122448979592
 40
0.5510204081632653
 40
0.5510204081632653
 40
0.5510204081632653
 40
0.5510204081632653
 40
0.5714285714285714
 40
0.5714285714285714
 40
0.5714285714285714
 40
0.5714285714285714
 40
0.5918367346938775
 40
0.5918367346938775
 40
0.5918367346938775
 40
0.5918367346938775
 40
0.6122448979591837
 40
0.6122448979591837
 40
0.6122448979591837
 40
0.6122448979591837
 40
0.6326530612244898
 40
0.6326530612244898
 40
0.6326530612244898
 40
0.6326530612244898
 40
0.6530612244897959
 40
0.6530612244897959
 40
0.6530612244897959
 40
0.6530612244897959
 40
0.673469387755102
 40
0.673469387755102
 40
0.673469387755102
 40
0.673469387755102
 40
0.6938775510204082
 40
0.6938775510204082
 40
0.6938775510204082
 40
0.6938775510204082
 40
0.7142857142857143
 40
0.7142857142857143
 40
0.7142857142857143
 40
0.7142857142857143
 40
0.7346938775510204
 40
0.7346938775510204
 40
0.7346938775510204
 40
0.7346938775510204
 40
0.7551020408163265
 40
0.7551020408163265
 40
0.7551020408163265
 40
0.7551020408163265
 40
0.7755102040816326
 40
0.7755102040816326
 40
0.7755102040816326
 40
0.7755102040816326
 40
0.7959183673469388
 40
0.7959183673469388
 40
0.7959183673469388
 40
0.7959183673469388
 40
0.8163265306122449
 40
0.8163265306122449
 40
0.8163265306122449
 40
0.8163265306122449
 40
0.8367346938775511
 40
0.8367346938775511
 40
0.8367346938775511
 40
0.8367346938775511
 40
0.8571428571428571
 40
0.8571428571428571
 40
0.8571428571428571
 40
0.8571428571428571
 40
0.8775510204081632
 40
0.8775510204081632
 40
0.8775510204081632
 40
0.8775510204081632
 40
0.8979591836734694
 40
0.8979591836734694
 40
0.8979591836734694
 40
0.8979591836734694
 40
0.9183673469387755
 40
0.9183673469387755
 40
0.9183673469387755
 40
0.9183673469387755
 40
0.9387755102040817
 40
0.9387755102040817
 40
0.9387755102040817
 40
0.9387755102040817
 40
0.9591836734693877
 40
0.9591836734693877
 40
0.9591836734693877
 40
0.9591836734693877
 40
1.0
 40
1.0
 40
1.0
 40
1.0
 10
15.0184
 20
-14.8912
 30
0.0
 10
15.0462
 20
-14.8576
 30
0.0
 10
15.0727
 20
-14.8141
 30
0.0
 10
15.0985
 20
-14.7613
 30
0.0
 10
15.0985
 20
-14.7613
 30
0.0
 10
15.1244
 20
-14.7085
 30
0.0
 10
15.1458
 20
-14.6485
 30
0.0
 10
15.1631
 20
-14.5813
 30
0.0
 10
15.1631
 20
-14.5813
 30
0.0
 10
15.18
 20
-14.5141
 30
0.0
 10
15.1885
 20
-14.4427
 30
0.0
 10
15.1891
 20
-14.3666
 30
0.0
 10
15.1891
 20
-14.3666
 30
0.0
 10
15.1885
 20
-14.246
 30
0.0
 10
15.1678
 20
-14.14
 30
0.0
 10
15.1276
 20
-14.0484
 30
0.0
 10
15.1276
 20
-14.0484
 30
0.0
 10
15.0876
 20
-13.9568
 30
0.0
 10
15.0319
 20
-13.8803
 30
0.0
 10
14.962
 20
-13.8182
 30
0.0
 10
14.962
 20
-13.8182
 30
0.0
 10
14.8923
 20
-13.7561
 30
0.0
 10
14.8114
 20
-13.7095
 30
0.0
 10
14.7209
 20
-13.6779
 30
0.0
 10
14.7209
 20
-13.6779
 30
0.0
 10
14.6303
 20
-13.6469
 30
0.0
 10
14.534
 20
-13.6309
 30
0.0
 10
14.4324
 20
-13.6309
 30
0.0
 10
14.4324
 20
-13.6309
 30
0.0
 10
14.3438
 20
-13.6319
 30
0.0
 10
14.2636
 20
-13.6444
 30
0.0
 10
14.1912
 20
-13.6676
 30
0.0
 10
14.1912
 20
-13.6676
 30
0.0
 10
14.1181
 20
-13.6909
 30
0.0
 10
14.0547
 20
-13.723
 30
0.0
 10
13.9997
 20
-13.7638
 30
0.0
 10
13.9997
 20
-13.7638
 30
0.0
 10
13.9448
 20
-13.8047
 30
0.0
 10
13.8995
 20
-13.8523
 30
0.0
 10
13.864
 20
-13.9062
 30
0.0
 10
13.864
 20
-13.9062
 30
0.0
 10
13.8284
 20
-13.9605
 30
0.0
 10
13.8031
 20
-14.0184
 30
0.0
 10
13.7882
 20
-14.081
 30
0.0
 10
13.7882
 20
-14.081
 30
0.0
 10
13.7882
 20
-14.081
 30
0.0
 10
13.7805
 20
-14.081
 30
0.0
 10
13.7805
 20
-14.081
 30
0.0
 10
13.7805
 20
-14.081
 30
0.0
 10
13.7424
 20
-13.9993
 30
0.0
 10
13.6939
 20
-13.9304
 30
0.0
 10
13.6343
 20
-13.8756
 30
0.0
 10
13.6343
 20
-13.8756
 30
0.0
 10
13.5749
 20
-13.8202
 30
0.0
 10
13.5063
 20
-13.7784
 30
0.0
 10
13.43
 20
-13.7504
 30
0.0
 10
13.43
 20
-13.7504
 30
0.0
 10
13.3537
 20
-13.7224
 30
0.0
 10
13.2715
 20
-13.7085
 30
0.0
 10
13.183
 20
-13.7085
 30
0.0
 10
13.183
 20
-13.7085
 30
0.0
 10
13.1054
 20
-13.7085
 30
0.0
 10
13.0309
 20
-13.7199
 30
0.0
 10
12.9599
 20
-13.7426
 30
0.0
 10
12.9599
 20
-13.7426
 30
0.0
 10
12.8881
 20
-13.7659
 30
0.0
 10
12.824
 20
-13.8011
 30
0.0
 10
12.767
 20
-13.8481
 30
0.0
 10
12.767
 20
-13.8481
 30
0.0
 10
12.7101
 20
-13.8952
 30
0.0
 10
12.6655
 20
-13.9552
 30
0.0
 10
12.6325
 20
-14.0283
 30
0.0
 10
12.6325
 20
-14.0283
 30
0.0
 10
12.599
 20
-14.1006
 30
0.0
 10
12.5821
 20
-14.1865
 30
0.0
 10
12.5815
 20
-14.2859
 30
0.0
 10
12.5815
 20
-14.2859
 30
0.0
 10
12.5821
 20
-14.3588
 30
0.0
 10
12.5918
 20
-14.4287
 30
0.0
 10
12.6099
 20
-14.4959
 30
0.0
 10
12.6099
 20
-14.4959
 30
0.0
 10
12.6287
 20
-14.5631
 30
0.0
 10
12.6526
 20
-14.6242
 30
0.0
 10
12.6817
 20
-14.6791
 30
0.0
 10
12.6817
 20
-14.6791
 30
0.0
 10
12.7114
 20
-14.7339
 30
0.0
 10
12.7424
 20
-14.78
 30
0.0
 10
12.7755
 20
-14.8167
 30
0.0
 10
12.7755
 20
-14.8167
 30
0.0
 10
12.7755
 20
-14.8167
 30
0.0
 10
13.0238
 20
-14.7422
 30
0.0
 10
13.0238
 20
-14.7422
 30
0.0
 10
13.0238
 20
-14.7422
 30
0.0
 10
12.9973
 20
-14.7127
 30
0.0
 10
12.9714
 20
-14.677
 30
0.0
 10
12.9462
 20
-14.6346
 30
0.0
 10
12.9462
 20
-14.6346
 30
0.0
 10
12.9204
 20
-14.5927
 30
0.0
 10
12.8997
 20
-14.5461
 30
0.0
 10
12.8828
 20
-14.4955
 30
0.0
 10
12.8828
 20
-14.4955
 30
0.0
 10
12.8661
 20
-14.4452
 30
0.0
 10
12.8576
 20
-14.3929
 30
0.0
 10
12.8569
 20
-14.3386
 30
0.0
 10
12.8569
 20
-14.3386
 30
0.0
 10
12.8576
 20
-14.2549
 30
0.0
 10
12.8757
 20
-14.1871
 30
0.0
 10
12.9106
 20
-14.1353
 30
0.0
 10
12.9106
 20
-14.1353
 30
0.0
 10
12.9456
 20
-14.083
 30
0.0
 10
12.9915
 20
-14.0448
 30
0.0
 10
13.049
 20
-14.0205
 30
0.0
 10
13.049
 20
-14.0205
 30
0.0
 10
13.1059
 20
-13.9961
 30
0.0
 10
13.1687
 20
-13.9842
 30
0.0
 10
13.2373
 20
-13.9848
 30
0.0
 10
13.2373
 20
-13.9848
 30
0.0
 10
13.3116
 20
-13.9853
 30
0.0
 10
13.3762
 20
-13.9997
 30
0.0
 10
13.43
 20
-14.0272
 30
0.0
 10
13.43
 20
-14.0272
 30
0.0
 10
13.4837
 20
-14.0546
 30
0.0
 10
13.5283
 20
-14.0908
 30
0.0
 10
13.5625
 20
-14.1353
 30
0.0
 10
13.5625
 20
-14.1353
 30
0.0
 10
13.5974
 20
-14.1798
 30
0.0
 10
13.6226
 20
-14.2284
 30
0.0
 10
13.6395
 20
-14.2807
 30
0.0
 10
13.6395
 20
-14.2807
 30
0.0
 10
13.6557
 20
-14.3329
 30
0.0
 10
13.6641
 20
-14.3842
 30
0.0
 10
13.6641
 20
-14.4349
 30
0.0
 10
13.6641
 20
-14.4349
 30
0.0
 10
13.6641
 20
-14.4349
 30
0.0
 10
13.6641
 20
-14.587
 30
0.0
 10
13.6641
 20
-14.587
 30
0.0
 10
13.6641
 20
-14.587
 30
0.0
 10
13.6641
 20
-14.587
 30
0.0
 10
13.9202
 20
-14.587
 30
0.0
 10
13.9202
 20
-14.587
 30
0.0
 10
13.9202
 20
-14.587
 30
0.0
 10
13.9202
 20
-14.587
 30
0.0
 10
13.9202
 20
-14.4349
 30
0.0
 10
13.9202
 20
-14.4349
 30
0.0
 10
13.9202
 20
-14.4349
 30
0.0
 10
13.9202
 20
-14.3681
 30
0.0
 10
13.9299
 20
-14.304
 30
0.0
 10
13.9493
 20
-14.2424
 30
0.0
 10
13.9493
 20
-14.2424
 30
0.0
 10
13.9687
 20
-14.1809
 30
0.0
 10
13.9991
 20
-14.1254
 30
0.0
 10
14.0399
 20
-14.0764
 30
0.0
 10
14.0399
 20
-14.0764
 30
0.0
 10
14.0807
 20
-14.0272
 30
0.0
 10
14.1329
 20
-13.9878
 30
0.0
 10
14.197
 20
-13.9589
 30
0.0
 10
14.197
 20
-13.9589
 30
0.0
 10
14.2604
 20
-13.9299
 30
0.0
 10
14.3367
 20
-13.9149
 30
0.0
 10
14.4246
 20
-13.9134
 30
0.0
 10
14.4246
 20
-13.9134
 30
0.0
 10
14.479
 20
-13.9123
 30
0.0
 10
14.5346
 20
-13.9191
 30
0.0
 10
14.5908
 20
-13.9346
 30
0.0
 10
14.5908
 20
-13.9346
 30
0.0
 10
14.6478
 20
-13.9496
 30
0.0
 10
14.7008
 20
-13.9749
 30
0.0
 10
14.7493
 20
-14.0101
 30
0.0
 10
14.7493
 20
-14.0101
 30
0.0
 10
14.7978
 20
-14.0453
 30
0.0
 10
14.8372
 20
-14.0923
 30
0.0
 10
14.8671
 20
-14.1514
 30
0.0
 10
14.8671
 20
-14.1514
 30
0.0
 10
14.8974
 20
-14.2104
 30
0.0
 10
14.913
 20
-14.2827
 30
0.0
 10
14.9135
 20
-14.3697
 30
0.0
 10
14.9135
 20
-14.3697
 30
0.0
 10
14.913
 20
-14.4344
 30
0.0
 10
14.9039
 20
-14.4959
 30
0.0
 10
14.8864
 20
-14.5538
 30
0.0
 10
14.8864
 20
-14.5538
 30
0.0
 10
14.869
 20
-14.6118
 30
0.0
 10
14.8483
 20
-14.6636
 30
0.0
 10
14.8243
 20
-14.7091
 30
0.0
 10
14.8243
 20
-14.7091
 30
0.0
 10
14.8004
 20
-14.7547
 30
0.0
 10
14.7784
 20
-14.7903
 30
0.0
 10
14.7584
 20
-14.8167
 30
0.0
 10
14.7584
 20
-14.8167
 30
0.0
 10
14.7584
 20
-14.8167
 30
0.0
 10
15.0184
 20
-14.8912
 30
0.0
 10
15.0184
 20
-14.8912
 30
0.0
  0
SPLINE
  5
1D6
330
1F
100
AcDbEntity
  8
Ilustrace
 62
   250
100
AcDbSpline
210
0.0
220
0.0
230
1.0
 70
    11
 71
     3
 72
   124
 73
   120
 74
     0
 42
0.0000000001
 43
0.0000000001
 40
0.0
 40
0.0
 40
0.0
 40
0.0
 40
0.032258064516129
 40
0.032258064516129
 40
0.032258064516129
 40
0.032258064516129
 40
0.0645161290322581
 40
0.0645161290322581
 40
0.0645161290322581
 40
0.0645161290322581
 40
0.0967741935483871
 40
0.0967741935483871
 40
0.0967741935483871
 40
0.0967741935483871
 40
0.1290322580645161
 40
0.1290322580645161
 40
0.1290322580645161
 40
0.1290322580645161
 40
0.1612903225806452
 40
0.1612903225806452
 40
0.1612903225806452
 40
0.1612903225806452
 40
0.1935483870967742
 40
0.1935483870967742
 40
0.1935483870967742
 40
0.1935483870967742
 40
0.2258064516129032
 40
0.2258064516129032
 40
0.2258064516129032
 40
0.2258064516129032
 40
0.2580645161290323
 40
0.2580645161290323
 40
0.2580645161290323
 40
0.2580645161290323
 40
0.2903225806451613
 40
0.2903225806451613
 40
0.2903225806451613
 40
0.2903225806451613
 40
0.3225806451612903
 40
0.3225806451612903
 40
0.3225806451612903
 40
0.3225806451612903
 40
0.3548387096774194
 40
0.3548387096774194
 40
0.3548387096774194
 40
0.3548387096774194
 40
0.3870967741935484
 40
0.3870967741935484
 40
0.3870967741935484
 40
0.3870967741935484
 40
0.4193548387096774
 40
0.4193548387096774
 40
0.4193548387096774
 40
0.4193548387096774
 40
0.4516129032258064
 40
0.4516129032258064
 40
0.4516129032258064
 40
0.4516129032258064
 40
0.4838709677419355
 40
0.4838709677419355
 40
0.4838709677419355
 40
0.4838709677419355
 40
0.5161290322580645
 40
0.5161290322580645
 40
0.5161290322580645
 40
0.5161290322580645
 40
0.5483870967741935
 40
0.5483870967741935
 40
0.5483870967741935
 40
0.5483870967741935
 40
0.5806451612903226
 40
0.5806451612903226
 40
0.5806451612903226
 40
0.5806451612903226
 40
0.6129032258064516
 40
0.6129032258064516
 40
0.6129032258064516
 40
0.6129032258064516
 40
0.6451612903225806
 40
0.6451612903225806
 40
0.6451612903225806
 40
0.6451612903225806
 40
0.6774193548387096
 40
0.6774193548387096
 40
0.6774193548387096
 40
0.6774193548387096
 40
0.7096774193548387
 40
0.7096774193548387
 40
0.7096774193548387
 40
0.7096774193548387
 40
0.7419354838709677
 40
0.7419354838709677
 40
0.7419354838709677
 40
0.7419354838709677
 40
0.7741935483870968
 40
0.7741935483870968
 40
0.7741935483870968
 40
0.7741935483870968
 40
0.8064516129032258
 40
0.8064516129032258
 40
0.8064516129032258
 40
0.8064516129032258
 40
0.8387096774193549
 40
0.8387096774193549
 40
0.8387096774193549
 40
0.8387096774193549
 40
0.8709677419354839
 40
0.8709677419354839
 40
0.8709677419354839
 40
0.8709677419354839
 40
0.9032258064516129
 40
0.9032258064516129
 40
0.9032258064516129
 40
0.9032258064516129
 40
0.9354838709677419
 40
0.9354838709677419
 40
0.9354838709677419
 40
0.9354838709677419
 40
1.0
 40
1.0
 40
1.0
 40
1.0
 10
15.1851
 20
-13.131
 30
0.0
 10
15.1872
 20
-13.0984
 30
0.0
 10
15.1872
 20
-13.0607
 30
0.0
 10
15.184
 20
-13.0183
 30
0.0
 10
15.184
 20
-13.0183
 30
0.0
 10
15.1814
 20
-12.9759
 30
0.0
 10
15.1755
 20
-12.9293
 30
0.0
 10
15.1658
 20
-12.8796
 30
0.0
 10
15.1658
 20
-12.8796
 30
0.0
 10
15.1554
 20
-12.8067
 30
0.0
 10
15.1355
 20
-12.7353
 30
0.0
 10
15.1069
 20
-12.6654
 30
0.0
 10
15.1069
 20
-12.6654
 30
0.0
 10
15.0778
 20
-12.5956
 30
0.0
 10
15.0397
 20
-12.5288
 30
0.0
 10
14.9932
 20
-12.4657
 30
0.0
 10
14.9932
 20
-12.4657
 30
0.0
 10
14.9466
 20
-12.4025
 30
0.0
 10
14.8915
 20
-12.3451
 30
0.0
 10
14.8282
 20
-12.2929
 30
0.0
 10
14.8282
 20
-12.2929
 30
0.0
 10
14.7479
 20
-12.2261
 30
0.0
 10
14.6517
 20
-12.1666
 30
0.0
 10
14.5378
 20
-12.1144
 30
0.0
 10
14.5378
 20
-12.1144
 30
0.0
 10
14.4246
 20
-12.0621
 30
0.0
 10
14.294
 20
-12.0212
 30
0.0
 10
14.1459
 20
-11.9913
 30
0.0
 10
14.1459
 20
-11.9913
 30
0.0
 10
13.9978
 20
-11.9612
 30
0.0
 10
13.8322
 20
-11.9457
 30
0.0
 10
13.6486
 20
-11.9452
 30
0.0
 10
13.6486
 20
-11.9452
 30
0.0
 10
13.4849
 20
-11.9452
 30
0.0
 10
13.3381
 20
-11.9607
 30
0.0
 10
13.2069
 20
-11.9913
 30
0.0
 10
13.2069
 20
-11.9913
 30
0.0
 10
13.0755
 20
-12.0218
 30
0.0
 10
12.9636
 20
-12.0663
 30
0.0
 10
12.8706
 20
-12.1242
 30
0.0
 10
12.8706
 20
-12.1242
 30
0.0
 10
12.7774
 20
-12.1822
 30
0.0
 10
12.7063
 20
-12.252
 30
0.0
 10
12.6565
 20
-12.3343
 30
0.0
 10
12.6565
 20
-12.3343
 30
0.0
 10
12.6067
 20
-12.4165
 30
0.0
 10
12.5821
 20
-12.5091
 30
0.0
 10
12.5815
 20
-12.6126
 30
0.0
 10
12.5815
 20
-12.6126
 30
0.0
 10
12.5821
 20
-12.7162
 30
0.0
 10
12.6067
 20
-12.8103
 30
0.0
 10
12.6545
 20
-12.8947
 30
0.0
 10
12.6545
 20
-12.8947
 30
0.0
 10
12.7018
 20
-12.9789
 30
0.0
 10
12.7678
 20
-13.0514
 30
0.0
 10
12.8505
 20
-13.1119
 30
0.0
 10
12.8505
 20
-13.1119
 30
0.0
 10
12.9339
 20
-13.173
 30
0.0
 10
13.029
 20
-13.2195
 30
0.0
 10
13.1364
 20
-13.2521
 30
0.0
 10
13.1364
 20
-13.2521
 30
0.0
 10
13.2437
 20
-13.2847
 30
0.0
 10
13.3576
 20
-13.3013
 30
0.0
 10
13.4779
 20
-13.3018
 30
0.0
 10
13.4779
 20
-13.3018
 30
0.0
 10
13.5858
 20
-13.3013
 30
0.0
 10
13.6867
 20
-13.2873
 30
0.0
 10
13.7799
 20
-13.2599
 30
0.0
 10
13.7799
 20
-13.2599
 30
0.0
 10
13.8736
 20
-13.2319
 30
0.0
 10
13.9551
 20
-13.1921
 30
0.0
 10
14.0256
 20
-13.1404
 30
0.0
 10
14.0256
 20
-13.1404
 30
0.0
 10
14.0955
 20
-13.0886
 30
0.0
 10
14.1504
 20
-13.0261
 30
0.0
 10
14.1899
 20
-12.9536
 30
0.0
 10
14.1899
 20
-12.9536
 30
0.0
 10
14.2293
 20
-12.8807
 30
0.0
 10
14.2494
 20
-12.7995
 30
0.0
 10
14.25
 20
-12.7088
 30
0.0
 10
14.25
 20
-12.7088
 30
0.0
 10
14.2494
 20
-12.6064
 30
0.0
 10
14.2261
 20
-12.5148
 30
0.0
 10
14.1801
 20
-12.4347
 30
0.0
 10
14.1801
 20
-12.4347
 30
0.0
 10
14.1342
 20
-12.355
 30
0.0
 10
14.0683
 20
-12.2867
 30
0.0
 10
13.9824
 20
-12.2308
 30
0.0
 10
13.9824
 20
-12.2308
 30
0.0
 10
13.9824
 20
-12.2308
 30
0.0
 10
13.9824
 20
-12.2215
 30
0.0
 10
13.9824
 20
-12.2215
 30
0.0
 10
13.9824
 20
-12.2215
 30
0.0
 10
14.1297
 20
-12.2406
 30
0.0
 10
14.2591
 20
-12.2732
 30
0.0
 10
14.3697
 20
-12.3188
 30
0.0
 10
14.3697
 20
-12.3188
 30
0.0
 10
14.4809
 20
-12.3648
 30
0.0
 10
14.5741
 20
-12.4212
 30
0.0
 10
14.6496
 20
-12.4885
 30
0.0
 10
14.6496
 20
-12.4885
 30
0.0
 10
14.7195
 20
-12.5464
 30
0.0
 10
14.7739
 20
-12.6111
 30
0.0
 10
14.8139
 20
-12.683
 30
0.0
 10
14.8139
 20
-12.683
 30
0.0
 10
14.8541
 20
-12.755
 30
0.0
 10
14.8806
 20
-12.8309
 30
0.0
 10
14.8942
 20
-12.9106
 30
0.0
 10
14.8942
 20
-12.9106
 30
0.0
 10
14.9
 20
-12.9568
 30
0.0
 10
14.9045
 20
-12.9981
 30
0.0
 10
14.9071
 20
-13.0338
 30
0.0
 10
14.9071
 20
-13.0338
 30
0.0
 10
14.9097
 20
-13.0695
 30
0.0
 10
14.9097
 20
-13.102
 30
0.0
 10
14.9058
 20
-13.131
 30
0.0
 10
14.9058
 20
-13.131
 30
0.0
 10
14.9058
 20
-13.131
 30
0.0
 10
15.1851
 20
-13.131
 30
0.0
 10
15.1851
 20
-13.131
 30
0.0
  0
SPLINE
  5
1D7
330
1F
100
AcDbEntity
  8
Ilustrace
 62
   250
100
AcDbSpline
210
0.0
220
0.0
230
1.0
 70
    11
 71
     3
 72
    64
 73
    60
 74
     0
 42
0.0000000001
 43
0.0000000001
 40
0.0
 40
0.0
 40
0.0
 40
0.0
 40
0.0625
 40
0.0625
 40
0.0625
 40
0.0625
 40
0.125
 40
0.125
 40
0.125
 40
0.125
 40
0.1875
 40
0.1875
 40
0.1875
 40
0.1875
 40
0.25
 40
0.25
 40
0.25
 40
0.25
 40
0.3125
 40
0.3125
 40
0.3125
 40
0.3125
 40
0.375
 40
0.375
 40
0.375
 40
0.375
 40
0.4375
 40
0.4375
 40
0.4375
 40
0.4375
 40
0.5
 40
0.5
 40
0.5
 40
0.5
 40
0.5625
 40
0.5625
 40
0.5625
 40
0.5625
 40
0.625
 40
0.625
 40
0.625
 40
0.625
 40
0.6875
 40
0.6875
 40
0.6875
 40
0.6875
 40
0.75
 40
0.75
 40
0.75
 40
0.75
 40
0.8125
 40
0.8125
 40
0.8125
 40
0.8125
 40
0.875
 40
0.875
 40
0.875
 40
0.875
 40
1.0
 40
1.0
 40
1.0
 40
1.0
 10
12.8415
 20
-12.6375
 30
0.0
 10
12.842
 20
-12.5655
 30
0.0
 10
12.8616
 20
-12.503
 30
0.0
 10
12.8997
 20
-12.4507
 30
0.0
 10
12.8997
 20
-12.4507
 30
0.0
 10
12.9379
 20
-12.3985
 30
0.0
 10
12.9915
 20
-12.355
 30
0.0
 10
13.0601
 20
-12.3213
 30
0.0
 10
13.0601
 20
-12.3213
 30
0.0
 10
13.1287
 20
-12.2872
 30
0.0
 10
13.2095
 20
-12.2624
 30
0.0
 10
13.3012
 20
-12.2458
 30
0.0
 10
13.3012
 20
-12.2458
 30
0.0
 10
13.3937
 20
-12.2293
 30
0.0
 10
13.494
 20
-12.2215
 30
0.0
 10
13.602
 20
-12.2215
 30
0.0
 10
13.602
 20
-12.2215
 30
0.0
 10
13.6305
 20
-12.2215
 30
0.0
 10
13.655
 20
-12.2236
 30
0.0
 10
13.6745
 20
-12.2282
 30
0.0
 10
13.6745
 20
-12.2282
 30
0.0
 10
13.6944
 20
-12.2323
 30
0.0
 10
13.7132
 20
-12.2386
 30
0.0
 10
13.7301
 20
-12.2463
 30
0.0
 10
13.7301
 20
-12.2463
 30
0.0
 10
13.7811
 20
-12.2702
 30
0.0
 10
13.8264
 20
-12.3016
 30
0.0
 10
13.8658
 20
-12.3404
 30
0.0
 10
13.8658
 20
-12.3404
 30
0.0
 10
13.9053
 20
-12.3788
 30
0.0
 10
13.9363
 20
-12.4237
 30
0.0
 10
13.9591
 20
-12.475
 30
0.0
 10
13.9591
 20
-12.475
 30
0.0
 10
13.9816
 20
-12.5263
 30
0.0
 10
13.9933
 20
-12.5827
 30
0.0
 10
13.9939
 20
-12.6437
 30
0.0
 10
13.9939
 20
-12.6437
 30
0.0
 10
13.9933
 20
-12.7228
 30
0.0
 10
13.97
 20
-12.7911
 30
0.0
 10
13.9247
 20
-12.8491
 30
0.0
 10
13.9247
 20
-12.8491
 30
0.0
 10
13.8794
 20
-12.907
 30
0.0
 10
13.8174
 20
-12.9521
 30
0.0
 10
13.7371
 20
-12.9836
 30
0.0
 10
13.7371
 20
-12.9836
 30
0.0
 10
13.657
 20
-13.0151
 30
0.0
 10
13.5638
 20
-13.0312
 30
0.0
 10
13.4584
 20
-13.0317
 30
0.0
 10
13.4584
 20
-13.0317
 30
0.0
 10
13.3369
 20
-13.0312
 30
0.0
 10
13.2302
 20
-13.0141
 30
0.0
 10
13.1383
 20
-12.9805
 30
0.0
 10
13.1383
 20
-12.9805
 30
0.0
 10
13.0458
 20
-12.9469
 30
0.0
 10
12.9734
 20
-12.9008
 30
0.0
 10
12.921
 20
-12.8419
 30
0.0
 10
12.921
 20
-12.8419
 30
0.0
 10
12.8686
 20
-12.7828
 30
0.0
 10
12.842
 20
-12.7145
 30
0.0
 10
12.8415
 20
-12.6375
 30
0.0
  0
ENDSEC
  0
SECTION
  2
OBJECTS
  0
DICTIONARY
  5
C
330
0
100
AcDbDictionary
281
     1
  3
ACAD_GROUP
350
D
  3
ACAD_LAYOUT
350
1A
  3
ACAD_MATERIAL
350
3B
  3
ACAD_MLEADERSTYLE
350
1DA
  3
ACAD_MLINESTYLE
350
17
  3
ACAD_PLOTSETTINGS
350
19
  3
ACAD_PLOTSTYLENAME
350
E
  3
ACAD_VISUALSTYLE
350
2A
  3
AcDbVariableDictionary
350
1D8
  0
DICTIONARY
  5
D
102
{ACAD_REACTORS
330
C
102
}
330
C
100
AcDbDictionary
281
     1
  0
DICTIONARY
  5
1A
102
{ACAD_REACTORS
330
C
102
}
330
C
100
AcDbDictionary
281
     1
  3
Layout1
350
1E
  3
Layout2
350
26
  3
Model
350
22
  0
DICTIONARY
  5
3B
102
{ACAD_REACTORS
330
C
102
}
330
C
100
AcDbDictionary
281
     1
  3
ByBlock
350
3D
  3
ByLayer
350
3C
  3
Global
350
3E
  0
DICTIONARY
  5
1DA
102
{ACAD_REACTORS
330
C
102
}
330
C
100
AcDbDictionary
281
     1
  0
DICTIONARY
  5
17
102
{ACAD_REACTORS
330
C
102
}
330
C
100
AcDbDictionary
281
     1
  3
Standard
350
18
  0
DICTIONARY
  5
19
102
{ACAD_REACTORS
330
C
102
}
330
C
100
AcDbDictionary
281
     1
  0
ACDBDICTIONARYWDFLT
  5
E
102
{ACAD_REACTORS
330
C
102
}
330
C
100
AcDbDictionary
281
     1
  3
Normal
350
F
100
AcDbDictionaryWithDefault
340
F
  0
DICTIONARY
  5
2A
102
{ACAD_REACTORS
330
C
102
}
330
C
100
AcDbDictionary
281
     1
  3
2dWireframe
350
2F
  3
3D Hidden
350
31
  3
3dWireframe
350
30
  3
Basic
350
32
  3
Brighten
350
36
  3
ColorChange
350
3A
  3
Conceptual
350
34
  3
Dim
350
35
  3
Facepattern
350
39
  3
Flat
350
2B
  3
FlatWithEdges
350
2C
  3
Gouraud
350
2D
  3
GouraudWithEdges
350
2E
  3
Linepattern
350
38
  3
Realistic
350
33
  3
Thicken
350
37
  0
DICTIONARY
  5
1D8
102
{ACAD_REACTORS
330
C
102
}
330
C
100
AcDbDictionary
281
     1
  3
DIMASSOC
350
1DB
  3
HIDETEXT
350
1DC
  0
LAYOUT
  5
1E
102
{ACAD_REACTORS
330
1A
102
}
330
1A
100
AcDbPlotSettings
  1

  2
none_device
  4

  6

 40
0.0
 41
0.0
 42
0.0
 43
0.0
 44
0.0
 45
0.0
 46
0.0
 47
0.0
 48
0.0
 49
0.0
140
0.0
141
0.0
142
1.0
143
1.0
 70
   688
 72
     0
 73
     0
 74
     5
  7

 75
    16
147
1.0
148
0.0
149
0.0
100
AcDbLayout
  1
Layout1
 70
     1
 71
     1
 10
0.0
 20
0.0
 11
12.0
 21
9.0
 12
0.0
 22
0.0
 32
0.0
 14
1.000000000000000E+20
 24
1.000000000000000E+20
 34
1.000000000000000E+20
 15
-1.000000000000000E+20
 25
-1.000000000000000E+20
 35
-1.000000000000000E+20
146
0.0
 13
0.0
 23
0.0
 33
0.0
 16
1.0
 26
0.0
 36
0.0
 17
0.0
 27
1.0
 37
0.0
 76
     0
330
1B
  0
LAYOUT
  5
26
102
{ACAD_REACTORS
330
1A
102
}
330
1A
100
AcDbPlotSettings
  1

  2
none_device
  4

  6

 40
0.0
 41
0.0
 42
0.0
 43
0.0
 44
0.0
 45
0.0
 46
0.0
 47
0.0
 48
0.0
 49
0.0
140
0.0
141
0.0
142
1.0
143
1.0
 70
   688
 72
     0
 73
     0
 74
     5
  7

 75
    16
147
1.0
148
0.0
149
0.0
100
AcDbLayout
  1
Layout2
 70
     1
 71
     2
 10
0.0
 20
0.0
 11
0.0
 21
0.0
 12
0.0
 22
0.0
 32
0.0
 14
0.0
 24
0.0
 34
0.0
 15
0.0
 25
0.0
 35
0.0
146
0.0
 13
0.0
 23
0.0
 33
0.0
 16
1.0
 26
0.0
 36
0.0
 17
0.0
 27
1.0
 37
0.0
 76
     0
330
23
  0
LAYOUT
  5
22
102
{ACAD_REACTORS
330
1A
102
}
330
1A
100
AcDbPlotSettings
  1

  2
none_device
  4

  6

 40
0.0
 41
0.0
 42
0.0
 43
0.0
 44
0.0
 45
0.0
 46
0.0
 47
0.0
 48
0.0
 49
0.0
140
0.0
141
0.0
142
1.0
143
1.0
 70
  1712
 72
     0
 73
     0
 74
     0
  7

 75
     0
147
1.0
148
0.0
149
0.0
100
AcDbLayout
  1
Model
 70
     1
 71
     0
 10
0.0
 20
0.0
 11
12.0
 21
9.0
 12
0.0
 22
0.0
 32
0.0
 14
-16.3655
 24
-18.6225
 34
0.0
 15
16.2246
 25
18.5166
 35
0.0
146
0.0
 13
0.0
 23
0.0
 33
0.0
 16
1.0
 26
0.0
 36
0.0
 17
0.0
 27
1.0
 37
0.0
 76
     0
330
1F
331
29
  0
MATERIAL
  5
3D
102
{ACAD_REACTORS
330
3B
102
}
102
{ACAD_XDICTIONARY
360
1FF
102
}
330
3B
100
AcDbMaterial
  1
ByBlock
  0
MATERIAL
  5
3C
102
{ACAD_REACTORS
330
3B
102
}
102
{ACAD_XDICTIONARY
360
1FD
102
}
330
3B
100
AcDbMaterial
  1
ByLayer
  0
MATERIAL
  5
3E
102
{ACAD_REACTORS
330
3B
102
}
102
{ACAD_XDICTIONARY
360
201
102
}
330
3B
100
AcDbMaterial
  1
Global
  0
MLINESTYLE
  5
18
102
{ACAD_REACTORS
330
17
102
}
330
17
100
AcDbMlineStyle
  2
Standard
 70
     0
  3

 62
   256
 51
90.0
 52
90.0
 71
     2
 49
0.5
 62
   256
  6
BYLAYER
 49
-0.5
 62
   256
  6
BYLAYER
  0
ACDBPLACEHOLDER
  5
F
102
{ACAD_REACTORS
330
E
102
}
330
E
  0
VISUALSTYLE
  5
2F
102
{ACAD_REACTORS
330
2A
102
}
102
{ACAD_XDICTIONARY
360
1E5
102
}
330
2A
100
AcDbVisualStyle
  2
2dWireframe
 70
     4
 71
     0
 72
     2
 73
     0
 90
        0
 40
-0.6
 41
-30.0
 62
     5
 63
     7
 74
     1
 91
        4
 64
     7
 65
   257
 75
     1
175
     1
 42
1.0
 92
        0
 66
   257
 43
1.0
 76
     1
 77
     6
 78
     2
 67
     7
 79
     5
170
     0
171
     0
290
     0
174
     0
 93
        1
 44
0.0
173
     0
291
     0
 45
0.0
1001
ACAD
1000
AcDbSavedByObjectVersion
1070
     0
  0
VISUALSTYLE
  5
31
102
{ACAD_REACTORS
330
2A
102
}
102
{ACAD_XDICTIONARY
360
1E9
102
}
330
2A
100
AcDbVisualStyle
  2
3D Hidden
 70
     6
 71
     1
 72
     2
 73
     2
 90
        0
 40
-0.6
 41
-30.0
 62
     5
 63
     7
 74
     2
 91
        2
 64
     7
 65
   257
 75
     2
175
     1
 42
40.0
 92
        0
 66
   257
 43
1.0
 76
     1
 77
     6
 78
     2
 67
     7
 79
     3
170
     0
171
     0
290
     0
174
     0
 93
        1
 44
0.0
173
     0
291
     0
 45
0.0
1001
ACAD
1000
AcDbSavedByObjectVersion
1070
     0
  0
VISUALSTYLE
  5
30
102
{ACAD_REACTORS
330
2A
102
}
102
{ACAD_XDICTIONARY
360
1E7
102
}
330
2A
100
AcDbVisualStyle
  2
3dWireframe
 70
     5
 71
     0
 72
     2
 73
     0
 90
        0
 40
-0.6
 41
-30.0
 62
     5
 63
     7
 74
     1
 91
        4
 64
     7
 65
   257
 75
     1
175
     1
 42
1.0
 92
        0
 66
   257
 43
1.0
 76
     1
 77
     6
 78
     2
 67
     7
 79
     5
170
     0
171
     0
290
     0
174
     0
 93
        1
 44
0.0
173
     0
291
     0
 45
0.0
1001
ACAD
1000
AcDbSavedByObjectVersion
1070
     0
  0
VISUALSTYLE
  5
32
102
{ACAD_REACTORS
330
2A
102
}
102
{ACAD_XDICTIONARY
360
1EB
102
}
330
2A
100
AcDbVisualStyle
  2
Basic
 70
     7
 71
     1
 72
     0
 73
     1
 90
        0
 40
-0.6
 41
-30.0
 62
     5
 63
     7
 74
     0
 91
        4
 64
     7
 65
   257
 75
     1
175
     1
 42
1.0
 92
        8
 66
     7
 43
1.0
 76
     1
 77
     6
 78
     2
 67
     7
 79
     5
170
     0
171
     0
290
     0
174
     0
 93
        1
 44
0.0
173
     0
291
     1
 45
0.0
1001
ACAD
1000
AcDbSavedByObjectVersion
1070
     0
  0
VISUALSTYLE
  5
36
102
{ACAD_REACTORS
330
2A
102
}
102
{ACAD_XDICTIONARY
360
1F3
102
}
330
2A
100
AcDbVisualStyle
  2
Brighten
 70
    12
 71
     2
 72
     2
 73
     0
 90
        0
 40
-0.6
 41
-30.0
 62
     5
 63
     7
 74
     1
 91
        4
 64
     7
 65
   257
 75
     1
175
     1
 42
1.0
 92
        8
 66
     7
 43
1.0
 76
     1
 77
     6
 78
     2
 67
     7
 79
     5
170
     0
171
     0
290
     0
174
     0
 93
        1
 44
50.0
173
     0
291
     1
 45
0.0
1001
ACAD
1000
AcDbSavedByObjectVersion
1070
     0
  0
VISUALSTYLE
  5
3A
102
{ACAD_REACTORS
330
2A
102
}
102
{ACAD_XDICTIONARY
360
1FB
102
}
330
2A
100
AcDbVisualStyle
  2
ColorChange
 70
    16
 71
     2
 72
     2
 73
     3
 90
        0
 40
-0.6
 41
-30.0
 62
     5
 63
     8
 74
     1
 91
        4
 64
     7
 65
   257
 75
     1
175
     1
 42
1.0
 92
        8
 66
     8
 43
1.0
 76
     1
 77
     6
 78
     2
 67
     7
 79
     5
170
     0
171
     0
290
     0
174
     0
 93
        1
 44
0.0
173
     0
291
     1
 45
0.0
1001
ACAD
1000
AcDbSavedByObjectVersion
1070
     0
  0
VISUALSTYLE
  5
34
102
{ACAD_REACTORS
330
2A
102
}
102
{ACAD_XDICTIONARY
360
1EF
102
}
330
2A
100
AcDbVisualStyle
  2
Conceptual
 70
     9
 71
     3
 72
     2
 73
     0
 90
        0
 40
-0.6
 41
-30.0
 62
     5
 63
     7
 74
     2
 91
        2
 64
     7
 65
   257
 75
     1
175
     1
 42
40.0
 92
        8
 66
     7
 43
1.0
 76
     1
 77
     6
 78
     2
 67
     7
 79
     3
170
     0
171
     0
290
     0
174
     0
 93
        1
 44
0.0
173
     0
291
     0
 45
0.0
1001
ACAD
1000
AcDbSavedByObjectVersion
1070
     0
  0
VISUALSTYLE
  5
35
102
{ACAD_REACTORS
330
2A
102
}
102
{ACAD_XDICTIONARY
360
1F1
102
}
330
2A
100
AcDbVisualStyle
  2
Dim
 70
    11
 71
     2
 72
     2
 73
     0
 90
        0
 40
-0.6
 41
-30.0
 62
     5
 63
     7
 74
     1
 91
        4
 64
     7
 65
   257
 75
     1
175
     1
 42
1.0
 92
        8
 66
     7
 43
1.0
 76
     1
 77
     6
 78
     2
 67
     7
 79
     5
170
     0
171
     0
290
     0
174
     0
 93
        1
 44
-50.0
173
     0
291
     1
 45
0.0
1001
ACAD
1000
AcDbSavedByObjectVersion
1070
     0
  0
VISUALSTYLE
  5
39
102
{ACAD_REACTORS
330
2A
102
}
102
{ACAD_XDICTIONARY
360
1F9
102
}
330
2A
100
AcDbVisualStyle
  2
Facepattern
 70
    15
 71
     2
 72
     2
 73
     0
 90
        0
 40
-0.6
 41
-30.0
 62
     5
 63
     7
 74
     1
 91
        4
 64
     7
 65
   257
 75
     1
175
     1
 42
1.0
 92
        8
 66
     7
 43
1.0
 76
     1
 77
     6
 78
     2
 67
     7
 79
     5
170
     0
171
     0
290
     0
174
     0
 93
        1
 44
0.0
173
     0
291
     1
 45
0.0
1001
ACAD
1000
AcDbSavedByObjectVersion
1070
     0
  0
VISUALSTYLE
  5
2B
102
{ACAD_REACTORS
330
2A
102
}
102
{ACAD_XDICTIONARY
360
1DD
102
}
330
2A
100
AcDbVisualStyle
  2
Flat
 70
     0
 71
     2
 72
     1
 73
     1
 90
        2
 40
-0.6
 41
30.0
 62
     5
 63
     7
 74
     0
 91
        4
 64
     7
 65
   257
 75
     1
175
     1
 42
1.0
 92
        8
 66
     7
 43
1.0
 76
     1
 77
     6
 78
     2
 67
     7
 79
     5
170
     0
171
     0
290
     0
174
     0
 93
       13
 44
0.0
173
     0
291
     1
 45
0.0
1001
ACAD
1000
AcDbSavedByObjectVersion
1070
     0
  0
VISUALSTYLE
  5
2C
102
{ACAD_REACTORS
330
2A
102
}
102
{ACAD_XDICTIONARY
360
1DF
102
}
330
2A
100
AcDbVisualStyle
  2
FlatWithEdges
 70
     1
 71
     2
 72
     1
 73
     1
 90
        2
 40
-0.6
 41
30.0
 62
     5
 63
     7
 74
     1
 91
        4
 64
     7
 65
   257
 75
     1
175
     1
 42
1.0
 92
        0
 66
   257
 43
1.0
 76
     1
 77
     6
 78
     2
 67
     7
 79
     5
170
     0
171
     0
290
     0
174
     0
 93
       13
 44
0.0
173
     0
291
     1
 45
0.0
1001
ACAD
1000
AcDbSavedByObjectVersion
1070
     0
  0
VISUALSTYLE
  5
2D
102
{ACAD_REACTORS
330
2A
102
}
102
{ACAD_XDICTIONARY
360
1E1
102
}
330
2A
100
AcDbVisualStyle
  2
Gouraud
 70
     2
 71
     2
 72
     2
 73
     1
 90
        2
 40
-0.6
 41
30.0
 62
     5
 63
     7
 74
     0
 91
        4
 64
     7
 65
   257
 75
     1
175
     1
 42
1.0
 92
        0
 66
     7
 43
1.0
 76
     1
 77
     6
 78
     2
 67
     7
 79
     5
170
     0
171
     0
290
     0
174
     0
 93
       13
 44
0.0
173
     0
291
     1
 45
0.0
1001
ACAD
1000
AcDbSavedByObjectVersion
1070
     0
  0
VISUALSTYLE
  5
2E
102
{ACAD_REACTORS
330
2A
102
}
102
{ACAD_XDICTIONARY
360
1E3
102
}
330
2A
100
AcDbVisualStyle
  2
GouraudWithEdges
 70
     3
 71
     2
 72
     2
 73
     1
 90
        2
 40
-0.6
 41
30.0
 62
     5
 63
     7
 74
     1
 91
        4
 64
     7
 65
   257
 75
     1
175
     1
 42
1.0
 92
        0
 66
   257
 43
1.0
 76
     1
 77
     6
 78
     2
 67
     7
 79
     5
170
     0
171
     0
290
     0
174
     0
 93
       13
 44
0.0
173
     0
291
     1
 45
0.0
1001
ACAD
1000
AcDbSavedByObjectVersion
1070
     0
  0
VISUALSTYLE
  5
38
102
{ACAD_REACTORS
330
2A
102
}
102
{ACAD_XDICTIONARY
360
1F7
102
}
330
2A
100
AcDbVisualStyle
  2
Linepattern
 70
    14
 71
     2
 72
     2
 73
     0
 90
        0
 40
-0.6
 41
-30.0
 62
     5
 63
     7
 74
     1
 91
        4
 64
     7
 65
   257
 75
     7
175
     7
 42
1.0
 92
        8
 66
     7
 43
1.0
 76
     1
 77
     6
 78
     2
 67
     7
 79
     5
170
     0
171
     0
290
     0
174
     0
 93
        1
 44
0.0
173
     0
291
     1
 45
0.0
1001
ACAD
1000
AcDbSavedByObjectVersion
1070
     0
  0
VISUALSTYLE
  5
33
102
{ACAD_REACTORS
330
2A
102
}
102
{ACAD_XDICTIONARY
360
1ED
102
}
330
2A
100
AcDbVisualStyle
  2
Realistic
 70
     8
 71
     2
 72
     2
 73
     0
 90
        0
 40
-0.6
 41
-30.0
 62
     5
 63
     7
 74
     1
 91
        0
 64
     7
 65
   257
 75
     1
175
     1
 42
1.0
 92
        8
 66
     8
 43
1.0
 76
     1
 77
     6
 78
     2
 67
     7
 79
     5
170
     0
171
     0
290
     0
174
     0
 93
       13
 44
0.0
173
     0
291
     0
 45
0.0
1001
ACAD
1000
AcDbSavedByObjectVersion
1070
     0
  0
VISUALSTYLE
  5
37
102
{ACAD_REACTORS
330
2A
102
}
102
{ACAD_XDICTIONARY
360
1F5
102
}
330
2A
100
AcDbVisualStyle
  2
Thicken
 70
    13
 71
     2
 72
     2
 73
     0
 90
        0
 40
-0.6
 41
-30.0
 62
     5
 63
     7
 74
     1
 91
        4
 64
     7
 65
   257
 75
     1
175
     1
 42
1.0
 92
       12
 66
     7
 43
1.0
 76
     1
 77
     6
 78
     2
 67
     7
 79
     5
170
     0
171
     0
290
     0
174
     0
 93
        1
 44
0.0
173
     0
291
     1
 45
0.0
1001
ACAD
1000
AcDbSavedByObjectVersion
1070
     0
  0
DICTIONARYVAR
  5
1DB
102
{ACAD_REACTORS
330
1D8
102
}
330
1D8
100
DictionaryVariables
280
     0
  1
2
  0
DICTIONARYVAR
  5
1DC
102
{ACAD_REACTORS
330
1D8
102
}
330
1D8
100
DictionaryVariables
280
     0
  1
1
  0
DICTIONARY
  5
1FF
330
3D
100
AcDbDictionary
280
     1
281
     1
  3
ACAD_XREC_ROUNDTRIP
360
200
  0
DICTIONARY
  5
1FD
330
3C
100
AcDbDictionary
280
     1
281
     1
  3
ACAD_XREC_ROUNDTRIP
360
1FE
  0
DICTIONARY
  5
201
330
3E
100
AcDbDictionary
280
     1
281
     1
  3
ACAD_XREC_ROUNDTRIP
360
202
  0
DICTIONARY
  5
1E5
330
2F
100
AcDbDictionary
280
     1
281
     1
  3
ACAD_XREC_ROUNDTRIP
360
1E6
  0
DICTIONARY
  5
1E9
330
31
100
AcDbDictionary
280
     1
281
     1
  3
ACAD_XREC_ROUNDTRIP
360
1EA
  0
DICTIONARY
  5
1E7
330
30
100
AcDbDictionary
280
     1
281
     1
  3
ACAD_XREC_ROUNDTRIP
360
1E8
  0
DICTIONARY
  5
1EB
330
32
100
AcDbDictionary
280
     1
281
     1
  3
ACAD_XREC_ROUNDTRIP
360
1EC
  0
DICTIONARY
  5
1F3
330
36
100
AcDbDictionary
280
     1
281
     1
  3
ACAD_XREC_ROUNDTRIP
360
1F4
  0
DICTIONARY
  5
1FB
330
3A
100
AcDbDictionary
280
     1
281
     1
  3
ACAD_XREC_ROUNDTRIP
360
1FC
  0
DICTIONARY
  5
1EF
330
34
100
AcDbDictionary
280
     1
281
     1
  3
ACAD_XREC_ROUNDTRIP
360
1F0
  0
DICTIONARY
  5
1F1
330
35
100
AcDbDictionary
280
     1
281
     1
  3
ACAD_XREC_ROUNDTRIP
360
1F2
  0
DICTIONARY
  5
1F9
330
39
100
AcDbDictionary
280
     1
281
     1
  3
ACAD_XREC_ROUNDTRIP
360
1FA
  0
DICTIONARY
  5
1DD
330
2B
100
AcDbDictionary
280
     1
281
     1
  3
ACAD_XREC_ROUNDTRIP
360
1DE
  0
DICTIONARY
  5
1DF
330
2C
100
AcDbDictionary
280
     1
281
     1
  3
ACAD_XREC_ROUNDTRIP
360
1E0
  0
DICTIONARY
  5
1E1
330
2D
100
AcDbDictionary
280
     1
281
     1
  3
ACAD_XREC_ROUNDTRIP
360
1E2
  0
DICTIONARY
  5
1E3
330
2E
100
AcDbDictionary
280
     1
281
     1
  3
ACAD_XREC_ROUNDTRIP
360
1E4
  0
DICTIONARY
  5
1F7
330
38
100
AcDbDictionary
280
     1
281
     1
  3
ACAD_XREC_ROUNDTRIP
360
1F8
  0
DICTIONARY
  5
1ED
330
33
100
AcDbDictionary
280
     1
281
     1
  3
ACAD_XREC_ROUNDTRIP
360
1EE
  0
DICTIONARY
  5
1F5
330
37
100
AcDbDictionary
280
     1
281
     1
  3
ACAD_XREC_ROUNDTRIP
360
1F6
  0
XRECORD
  5
200
102
{ACAD_REACTORS
330
1FF
102
}
330
1FF
100
AcDbXrecord
280
     1
102
MATERIAL
148
0.0
149
0.0
149
0.0
 93
        0
 94
      127
282
     0
 72
     1
 77
     1
171
     1
175
     1
179
     1
273
     0
  0
XRECORD
  5
1FE
102
{ACAD_REACTORS
330
1FD
102
}
330
1FD
100
AcDbXrecord
280
     1
102
MATERIAL
148
0.0
149
0.0
149
0.0
 93
        0
 94
      127
282
     0
 72
     1
 77
     1
171
     1
175
     1
179
     1
273
     0
  0
XRECORD
  5
202
102
{ACAD_REACTORS
330
201
102
}
330
201
100
AcDbXrecord
280
     1
102
MATERIAL
148
0.0
149
0.0
149
0.0
 93
        0
 94
      127
282
     0
 72
     1
 77
     1
171
     1
175
     1
179
     1
273
     0
  0
XRECORD
  5
1E6
102
{ACAD_REACTORS
330
1E5
102
}
330
1E5
100
AcDbXrecord
280
     1
102
RTVSPropertyOp0
 70
     1
102
RTVSPropertyOp1
 70
     1
102
RTVSPropertyOp2
 70
     1
102
RTVSPropertyOp3
 70
     1
102
RTVSPropertyOp4
 70
     1
102
RTVSPropertyOp5
 70
     1
102
RTVSPropertyOp6
 70
     1
102
RTVSPropertyOp7
 70
     1
102
RTVSPropertyOp8
 70
     1
102
RTVSPropertyOp9
 70
     1
102
RTVSPropertyOp10
 70
     1
102
RTVSPropertyOp11
 70
     1
102
RTVSPropertyOp12
 70
     1
102
RTVSPropertyOp13
 70
     1
102
RTVSPropertyOp14
 70
     1
102
RTVSPropertyOp15
 70
     1
102
RTVSPropertyOp16
 70
     1
102
RTVSPropertyOp17
 70
     1
102
RTVSPropertyOp18
 70
     1
102
RTVSPropertyOp19
 70
     1
102
RTVSPropertyOp20
 70
     1
102
RTVSPropertyOp21
 70
     1
102
RTVSPropertyOp22
 70
     1
102
RTVSPropertyOp23
 70
     1
102
RTVSPropertyOp24
 70
     1
102
RTVSPropertyOp25
 70
     1
102
RTVSPropertyOp26
 70
     1
102
RTVSPropertyOp27
 70
     1
  0
XRECORD
  5
1EA
102
{ACAD_REACTORS
330
1E9
102
}
330
1E9
100
AcDbXrecord
280
     1
102
RTVSPropertyOp0
 70
     1
102
RTVSPropertyOp1
 70
     1
102
RTVSPropertyOp2
 70
     1
102
RTVSPropertyOp3
 70
     1
102
RTVSPropertyOp4
 70
     1
102
RTVSPropertyOp5
 70
     1
102
RTVSPropertyOp6
 70
     1
102
RTVSPropertyOp7
 70
     1
102
RTVSPropertyOp8
 70
     1
102
RTVSPropertyOp9
 70
     1
102
RTVSPropertyOp10
 70
     1
102
RTVSPropertyOp11
 70
     1
102
RTVSPropertyOp12
 70
     1
102
RTVSPropertyOp13
 70
     1
102
RTVSPropertyOp14
 70
     1
102
RTVSPropertyOp15
 70
     1
102
RTVSPropertyOp16
 70
     1
102
RTVSPropertyOp17
 70
     1
102
RTVSPropertyOp18
 70
     1
102
RTVSPropertyOp19
 70
     1
102
RTVSPropertyOp20
 70
     1
102
RTVSPropertyOp21
 70
     1
102
RTVSPropertyOp22
 70
     1
102
RTVSPropertyOp23
 70
     1
102
RTVSPropertyOp24
 70
     1
102
RTVSPropertyOp25
 70
     1
102
RTVSPropertyOp26
 70
     1
102
RTVSPropertyOp27
 70
     1
  0
XRECORD
  5
1E8
102
{ACAD_REACTORS
330
1E7
102
}
330
1E7
100
AcDbXrecord
280
     1
102
RTVSPropertyOp0
 70
     1
102
RTVSPropertyOp1
 70
     1
102
RTVSPropertyOp2
 70
     1
102
RTVSPropertyOp3
 70
     1
102
RTVSPropertyOp4
 70
     1
102
RTVSPropertyOp5
 70
     1
102
RTVSPropertyOp6
 70
     1
102
RTVSPropertyOp7
 70
     1
102
RTVSPropertyOp8
 70
     1
102
RTVSPropertyOp9
 70
     1
102
RTVSPropertyOp10
 70
     1
102
RTVSPropertyOp11
 70
     1
102
RTVSPropertyOp12
 70
     1
102
RTVSPropertyOp13
 70
     1
102
RTVSPropertyOp14
 70
     1
102
RTVSPropertyOp15
 70
     1
102
RTVSPropertyOp16
 70
     1
102
RTVSPropertyOp17
 70
     1
102
RTVSPropertyOp18
 70
     1
102
RTVSPropertyOp19
 70
     1
102
RTVSPropertyOp20
 70
     1
102
RTVSPropertyOp21
 70
     1
102
RTVSPropertyOp22
 70
     1
102
RTVSPropertyOp23
 70
     1
102
RTVSPropertyOp24
 70
     1
102
RTVSPropertyOp25
 70
     1
102
RTVSPropertyOp26
 70
     1
102
RTVSPropertyOp27
 70
     1
  0
XRECORD
  5
1EC
102
{ACAD_REACTORS
330
1EB
102
}
330
1EB
100
AcDbXrecord
280
     1
102
RTVSPropertyOp0
 70
     1
102
RTVSPropertyOp1
 70
     1
102
RTVSPropertyOp2
 70
     1
102
RTVSPropertyOp3
 70
     1
102
RTVSPropertyOp4
 70
     1
102
RTVSPropertyOp5
 70
     1
102
RTVSPropertyOp6
 70
     1
102
RTVSPropertyOp7
 70
     1
102
RTVSPropertyOp8
 70
     1
102
RTVSPropertyOp9
 70
     1
102
RTVSPropertyOp10
 70
     1
102
RTVSPropertyOp11
 70
     1
102
RTVSPropertyOp12
 70
     1
102
RTVSPropertyOp13
 70
     1
102
RTVSPropertyOp14
 70
     1
102
RTVSPropertyOp15
 70
     1
102
RTVSPropertyOp16
 70
     1
102
RTVSPropertyOp17
 70
     1
102
RTVSPropertyOp18
 70
     1
102
RTVSPropertyOp19
 70
     1
102
RTVSPropertyOp20
 70
     1
102
RTVSPropertyOp21
 70
     1
102
RTVSPropertyOp22
 70
     1
102
RTVSPropertyOp23
 70
     1
102
RTVSPropertyOp24
 70
     1
102
RTVSPropertyOp25
 70
     1
102
RTVSPropertyOp26
 70
     1
102
RTVSPropertyOp27
 70
     1
  0
XRECORD
  5
1F4
102
{ACAD_REACTORS
330
1F3
102
}
330
1F3
100
AcDbXrecord
280
     1
102
RTVSPropertyOp0
 70
     1
102
RTVSPropertyOp1
 70
     1
102
RTVSPropertyOp2
 70
     1
102
RTVSPropertyOp3
 70
     1
102
RTVSPropertyOp4
 70
     1
102
RTVSPropertyOp5
 70
     1
102
RTVSPropertyOp6
 70
     1
102
RTVSPropertyOp7
 70
     1
102
RTVSPropertyOp8
 70
     1
102
RTVSPropertyOp9
 70
     1
102
RTVSPropertyOp10
 70
     1
102
RTVSPropertyOp11
 70
     1
102
RTVSPropertyOp12
 70
     1
102
RTVSPropertyOp13
 70
     1
102
RTVSPropertyOp14
 70
     1
102
RTVSPropertyOp15
 70
     1
102
RTVSPropertyOp16
 70
     1
102
RTVSPropertyOp17
 70
     1
102
RTVSPropertyOp18
 70
     1
102
RTVSPropertyOp19
 70
     1
102
RTVSPropertyOp20
 70
     1
102
RTVSPropertyOp21
 70
     1
102
RTVSPropertyOp22
 70
     1
102
RTVSPropertyOp23
 70
     1
102
RTVSPropertyOp24
 70
     1
102
RTVSPropertyOp25
 70
     1
102
RTVSPropertyOp26
 70
     1
102
RTVSPropertyOp27
 70
     1
  0
XRECORD
  5
1FC
102
{ACAD_REACTORS
330
1FB
102
}
330
1FB
100
AcDbXrecord
280
     1
102
RTVSPropertyOp0
 70
     1
102
RTVSPropertyOp1
 70
     1
102
RTVSPropertyOp2
 70
     1
102
RTVSPropertyOp3
 70
     1
102
RTVSPropertyOp4
 70
     1
102
RTVSPropertyOp5
 70
     1
102
RTVSPropertyOp6
 70
     1
102
RTVSPropertyOp7
 70
     1
102
RTVSPropertyOp8
 70
     1
102
RTVSPropertyOp9
 70
     1
102
RTVSPropertyOp10
 70
     1
102
RTVSPropertyOp11
 70
     1
102
RTVSPropertyOp12
 70
     1
102
RTVSPropertyOp13
 70
     1
102
RTVSPropertyOp14
 70
     1
102
RTVSPropertyOp15
 70
     1
102
RTVSPropertyOp16
 70
     1
102
RTVSPropertyOp17
 70
     1
102
RTVSPropertyOp18
 70
     1
102
RTVSPropertyOp19
 70
     1
102
RTVSPropertyOp20
 70
     1
102
RTVSPropertyOp21
 70
     1
102
RTVSPropertyOp22
 70
     1
102
RTVSPropertyOp23
 70
     1
102
RTVSPropertyOp24
 70
     1
102
RTVSPropertyOp25
 70
     1
102
RTVSPropertyOp26
 70
     1
102
RTVSPropertyOp27
 70
     1
  0
XRECORD
  5
1F0
102
{ACAD_REACTORS
330
1EF
102
}
330
1EF
100
AcDbXrecord
280
     1
102
RTVSPropertyOp0
 70
     1
102
RTVSPropertyOp1
 70
     1
102
RTVSPropertyOp2
 70
     1
102
RTVSPropertyOp3
 70
     1
102
RTVSPropertyOp4
 70
     1
102
RTVSPropertyOp5
 70
     1
102
RTVSPropertyOp6
 70
     1
102
RTVSPropertyOp7
 70
     1
102
RTVSPropertyOp8
 70
     1
102
RTVSPropertyOp9
 70
     1
102
RTVSPropertyOp10
 70
     1
102
RTVSPropertyOp11
 70
     1
102
RTVSPropertyOp12
 70
     1
102
RTVSPropertyOp13
 70
     1
102
RTVSPropertyOp14
 70
     1
102
RTVSPropertyOp15
 70
     1
102
RTVSPropertyOp16
 70
     1
102
RTVSPropertyOp17
 70
     1
102
RTVSPropertyOp18
 70
     1
102
RTVSPropertyOp19
 70
     1
102
RTVSPropertyOp20
 70
     1
102
RTVSPropertyOp21
 70
     1
102
RTVSPropertyOp22
 70
     1
102
RTVSPropertyOp23
 70
     1
102
RTVSPropertyOp24
 70
     1
102
RTVSPropertyOp25
 70
     1
102
RTVSPropertyOp26
 70
     1
102
RTVSPropertyOp27
 70
     1
  0
XRECORD
  5
1F2
102
{ACAD_REACTORS
330
1F1
102
}
330
1F1
100
AcDbXrecord
280
     1
102
RTVSPropertyOp0
 70
     1
102
RTVSPropertyOp1
 70
     1
102
RTVSPropertyOp2
 70
     1
102
RTVSPropertyOp3
 70
     1
102
RTVSPropertyOp4
 70
     1
102
RTVSPropertyOp5
 70
     1
102
RTVSPropertyOp6
 70
     1
102
RTVSPropertyOp7
 70
     1
102
RTVSPropertyOp8
 70
     1
102
RTVSPropertyOp9
 70
     1
102
RTVSPropertyOp10
 70
     1
102
RTVSPropertyOp11
 70
     1
102
RTVSPropertyOp12
 70
     1
102
RTVSPropertyOp13
 70
     1
102
RTVSPropertyOp14
 70
     1
102
RTVSPropertyOp15
 70
     1
102
RTVSPropertyOp16
 70
     1
102
RTVSPropertyOp17
 70
     1
102
RTVSPropertyOp18
 70
     1
102
RTVSPropertyOp19
 70
     1
102
RTVSPropertyOp20
 70
     1
102
RTVSPropertyOp21
 70
     1
102
RTVSPropertyOp22
 70
     1
102
RTVSPropertyOp23
 70
     1
102
RTVSPropertyOp24
 70
     1
102
RTVSPropertyOp25
 70
     1
102
RTVSPropertyOp26
 70
     1
102
RTVSPropertyOp27
 70
     1
  0
XRECORD
  5
1FA
102
{ACAD_REACTORS
330
1F9
102
}
330
1F9
100
AcDbXrecord
280
     1
102
RTVSPropertyOp0
 70
     1
102
RTVSPropertyOp1
 70
     1
102
RTVSPropertyOp2
 70
     1
102
RTVSPropertyOp3
 70
     1
102
RTVSPropertyOp4
 70
     1
102
RTVSPropertyOp5
 70
     1
102
RTVSPropertyOp6
 70
     1
102
RTVSPropertyOp7
 70
     1
102
RTVSPropertyOp8
 70
     1
102
RTVSPropertyOp9
 70
     1
102
RTVSPropertyOp10
 70
     1
102
RTVSPropertyOp11
 70
     1
102
RTVSPropertyOp12
 70
     1
102
RTVSPropertyOp13
 70
     1
102
RTVSPropertyOp14
 70
     1
102
RTVSPropertyOp15
 70
     1
102
RTVSPropertyOp16
 70
     1
102
RTVSPropertyOp17
 70
     1
102
RTVSPropertyOp18
 70
     1
102
RTVSPropertyOp19
 70
     1
102
RTVSPropertyOp20
 70
     1
102
RTVSPropertyOp21
 70
     1
102
RTVSPropertyOp22
 70
     1
102
RTVSPropertyOp23
 70
     1
102
RTVSPropertyOp24
 70
     1
102
RTVSPropertyOp25
 70
     1
102
RTVSPropertyOp26
 70
     1
102
RTVSPropertyOp27
 70
     1
  0
XRECORD
  5
1DE
102
{ACAD_REACTORS
330
1DD
102
}
330
1DD
100
AcDbXrecord
280
     1
102
RTVSPropertyOp0
 70
     1
102
RTVSPropertyOp1
 70
     1
102
RTVSPropertyOp2
 70
     1
102
RTVSPropertyOp3
 70
     1
102
RTVSPropertyOp4
 70
     1
102
RTVSPropertyOp5
 70
     1
102
RTVSPropertyOp6
 70
     1
102
RTVSPropertyOp7
 70
     1
102
RTVSPropertyOp8
 70
     1
102
RTVSPropertyOp9
 70
     1
102
RTVSPropertyOp10
 70
     1
102
RTVSPropertyOp11
 70
     1
102
RTVSPropertyOp12
 70
     1
102
RTVSPropertyOp13
 70
     1
102
RTVSPropertyOp14
 70
     1
102
RTVSPropertyOp15
 70
     1
102
RTVSPropertyOp16
 70
     1
102
RTVSPropertyOp17
 70
     1
102
RTVSPropertyOp18
 70
     1
102
RTVSPropertyOp19
 70
     1
102
RTVSPropertyOp20
 70
     1
102
RTVSPropertyOp21
 70
     1
102
RTVSPropertyOp22
 70
     1
102
RTVSPropertyOp23
 70
     1
102
RTVSPropertyOp24
 70
     1
102
RTVSPropertyOp25
 70
     1
102
RTVSPropertyOp26
 70
     1
102
RTVSPropertyOp27
 70
     1
  0
XRECORD
  5
1E0
102
{ACAD_REACTORS
330
1DF
102
}
330
1DF
100
AcDbXrecord
280
     1
102
RTVSPropertyOp0
 70
     1
102
RTVSPropertyOp1
 70
     1
102
RTVSPropertyOp2
 70
     1
102
RTVSPropertyOp3
 70
     1
102
RTVSPropertyOp4
 70
     1
102
RTVSPropertyOp5
 70
     1
102
RTVSPropertyOp6
 70
     1
102
RTVSPropertyOp7
 70
     1
102
RTVSPropertyOp8
 70
     1
102
RTVSPropertyOp9
 70
     1
102
RTVSPropertyOp10
 70
     1
102
RTVSPropertyOp11
 70
     1
102
RTVSPropertyOp12
 70
     1
102
RTVSPropertyOp13
 70
     1
102
RTVSPropertyOp14
 70
     1
102
RTVSPropertyOp15
 70
     1
102
RTVSPropertyOp16
 70
     1
102
RTVSPropertyOp17
 70
     1
102
RTVSPropertyOp18
 70
     1
102
RTVSPropertyOp19
 70
     1
102
RTVSPropertyOp20
 70
     1
102
RTVSPropertyOp21
 70
     1
102
RTVSPropertyOp22
 70
     1
102
RTVSPropertyOp23
 70
     1
102
RTVSPropertyOp24
 70
     1
102
RTVSPropertyOp25
 70
     1
102
RTVSPropertyOp26
 70
     1
102
RTVSPropertyOp27
 70
     1
  0
XRECORD
  5
1E2
102
{ACAD_REACTORS
330
1E1
102
}
330
1E1
100
AcDbXrecord
280
     1
102
RTVSPropertyOp0
 70
     1
102
RTVSPropertyOp1
 70
     1
102
RTVSPropertyOp2
 70
     1
102
RTVSPropertyOp3
 70
     1
102
RTVSPropertyOp4
 70
     1
102
RTVSPropertyOp5
 70
     1
102
RTVSPropertyOp6
 70
     1
102
RTVSPropertyOp7
 70
     1
102
RTVSPropertyOp8
 70
     1
102
RTVSPropertyOp9
 70
     1
102
RTVSPropertyOp10
 70
     1
102
RTVSPropertyOp11
 70
     1
102
RTVSPropertyOp12
 70
     1
102
RTVSPropertyOp13
 70
     1
102
RTVSPropertyOp14
 70
     1
102
RTVSPropertyOp15
 70
     1
102
RTVSPropertyOp16
 70
     1
102
RTVSPropertyOp17
 70
     1
102
RTVSPropertyOp18
 70
     1
102
RTVSPropertyOp19
 70
     1
102
RTVSPropertyOp20
 70
     1
102
RTVSPropertyOp21
 70
     1
102
RTVSPropertyOp22
 70
     1
102
RTVSPropertyOp23
 70
     1
102
RTVSPropertyOp24
 70
     1
102
RTVSPropertyOp25
 70
     1
102
RTVSPropertyOp26
 70
     1
102
RTVSPropertyOp27
 70
     1
  0
XRECORD
  5
1E4
102
{ACAD_REACTORS
330
1E3
102
}
330
1E3
100
AcDbXrecord
280
     1
102
RTVSPropertyOp0
 70
     1
102
RTVSPropertyOp1
 70
     1
102
RTVSPropertyOp2
 70
     1
102
RTVSPropertyOp3
 70
     1
102
RTVSPropertyOp4
 70
     1
102
RTVSPropertyOp5
 70
     1
102
RTVSPropertyOp6
 70
     1
102
RTVSPropertyOp7
 70
     1
102
RTVSPropertyOp8
 70
     1
102
RTVSPropertyOp9
 70
     1
102
RTVSPropertyOp10
 70
     1
102
RTVSPropertyOp11
 70
     1
102
RTVSPropertyOp12
 70
     1
102
RTVSPropertyOp13
 70
     1
102
RTVSPropertyOp14
 70
     1
102
RTVSPropertyOp15
 70
     1
102
RTVSPropertyOp16
 70
     1
102
RTVSPropertyOp17
 70
     1
102
RTVSPropertyOp18
 70
     1
102
RTVSPropertyOp19
 70
     1
102
RTVSPropertyOp20
 70
     1
102
RTVSPropertyOp21
 70
     1
102
RTVSPropertyOp22
 70
     1
102
RTVSPropertyOp23
 70
     1
102
RTVSPropertyOp24
 70
     1
102
RTVSPropertyOp25
 70
     1
102
RTVSPropertyOp26
 70
     1
102
RTVSPropertyOp27
 70
     1
  0
XRECORD
  5
1F8
102
{ACAD_REACTORS
330
1F7
102
}
330
1F7
100
AcDbXrecord
280
     1
102
RTVSPropertyOp0
 70
     1
102
RTVSPropertyOp1
 70
     1
102
RTVSPropertyOp2
 70
     1
102
RTVSPropertyOp3
 70
     1
102
RTVSPropertyOp4
 70
     1
102
RTVSPropertyOp5
 70
     1
102
RTVSPropertyOp6
 70
     1
102
RTVSPropertyOp7
 70
     1
102
RTVSPropertyOp8
 70
     1
102
RTVSPropertyOp9
 70
     1
102
RTVSPropertyOp10
 70
     1
102
RTVSPropertyOp11
 70
     1
102
RTVSPropertyOp12
 70
     1
102
RTVSPropertyOp13
 70
     1
102
RTVSPropertyOp14
 70
     1
102
RTVSPropertyOp15
 70
     1
102
RTVSPropertyOp16
 70
     1
102
RTVSPropertyOp17
 70
     1
102
RTVSPropertyOp18
 70
     1
102
RTVSPropertyOp19
 70
     1
102
RTVSPropertyOp20
 70
     1
102
RTVSPropertyOp21
 70
     1
102
RTVSPropertyOp22
 70
     1
102
RTVSPropertyOp23
 70
     1
102
RTVSPropertyOp24
 70
     1
102
RTVSPropertyOp25
 70
     1
102
RTVSPropertyOp26
 70
     1
102
RTVSPropertyOp27
 70
     1
  0
XRECORD
  5
1EE
102
{ACAD_REACTORS
330
1ED
102
}
330
1ED
100
AcDbXrecord
280
     1
102
RTVSPropertyOp0
 70
     1
102
RTVSPropertyOp1
 70
     1
102
RTVSPropertyOp2
 70
     1
102
RTVSPropertyOp3
 70
     1
102
RTVSPropertyOp4
 70
     1
102
RTVSPropertyOp5
 70
     1
102
RTVSPropertyOp6
 70
     1
102
RTVSPropertyOp7
 70
     1
102
RTVSPropertyOp8
 70
     1
102
RTVSPropertyOp9
 70
     1
102
RTVSPropertyOp10
 70
     1
102
RTVSPropertyOp11
 70
     1
102
RTVSPropertyOp12
 70
     1
102
RTVSPropertyOp13
 70
     1
102
RTVSPropertyOp14
 70
     1
102
RTVSPropertyOp15
 70
     1
102
RTVSPropertyOp16
 70
     1
102
RTVSPropertyOp17
 70
     1
102
RTVSPropertyOp18
 70
     1
102
RTVSPropertyOp19
 70
     1
102
RTVSPropertyOp20
 70
     1
102
RTVSPropertyOp21
 70
     1
102
RTVSPropertyOp22
 70
     1
102
RTVSPropertyOp23
 70
     1
102
RTVSPropertyOp24
 70
     1
102
RTVSPropertyOp25
 70
     1
102
RTVSPropertyOp26
 70
     1
102
RTVSPropertyOp27
 70
     1
  0
XRECORD
  5
1F6
102
{ACAD_REACTORS
330
1F5
102
}
330
1F5
100
AcDbXrecord
280
     1
102
RTVSPropertyOp0
 70
     1
102
RTVSPropertyOp1
 70
     1
102
RTVSPropertyOp2
 70
     1
102
RTVSPropertyOp3
 70
     1
102
RTVSPropertyOp4
 70
     1
102
RTVSPropertyOp5
 70
     1
102
RTVSPropertyOp6
 70
     1
102
RTVSPropertyOp7
 70
     1
102
RTVSPropertyOp8
 70
     1
102
RTVSPropertyOp9
 70
     1
102
RTVSPropertyOp10
 70
     1
102
RTVSPropertyOp11
 70
     1
102
RTVSPropertyOp12
 70
     1
102
RTVSPropertyOp13
 70
     1
102
RTVSPropertyOp14
 70
     1
102
RTVSPropertyOp15
 70
     1
102
RTVSPropertyOp16
 70
     1
102
RTVSPropertyOp17
 70
     1
102
RTVSPropertyOp18
 70
     1
102
RTVSPropertyOp19
 70
     1
102
RTVSPropertyOp20
 70
     1
102
RTVSPropertyOp21
 70
     1
102
RTVSPropertyOp22
 70
     1
102
RTVSPropertyOp23
 70
     1
102
RTVSPropertyOp24
 70
     1
102
RTVSPropertyOp25
 70
     1
102
RTVSPropertyOp26
 70
     1
102
RTVSPropertyOp27
 70
     1
  0
ENDSEC
  0
EOF
