  0
SECTION
  2
HEADER
  9
$ACADVER
  1
AC1014
  9
$ACADMAINTVER
 70
     9
  9
$DWGCODEPAGE
  3
ANSI_1250
  9
$INSBASE
 10
0.0
 20
0.0
 30
0.0
  9
$EXTMIN
 10
-63.185
 20
-19.5342
 30
0.0
  9
$EXTMAX
 10
63.2375
 20
19.4818
 30
0.0
  9
$LIMMIN
 10
0.0
 20
0.0
  9
$LIMMAX
 10
12.0
 20
9.0
  9
$ORTHOMODE
 70
     0
  9
$REGENMODE
 70
     1
  9
$FILLMODE
 70
     1
  9
$QTEXTMODE
 70
     0
  9
$MIRRTEXT
 70
     1
  9
$DRAGMODE
 70
     2
  9
$LTSCALE
 40
1.0
  9
$OSMODE
 70
    37
  9
$ATTMODE
 70
     1
  9
$TEXTSIZE
 40
0.2
  9
$TRACEWID
 40
0.05
  9
$TEXTSTYLE
  7
STANDARD
  9
$CLAYER
  8
0
  9
$CELTYPE
  6
BYLAYER
  9
$CECOLOR
 62
   256
  9
$CELTSCALE
 40
1.0
  9
$DELOBJ
 70
     1
  9
$DISPSILH
 70
     0
  9
$DIMSCALE
 40
1.0
  9
$DIMASZ
 40
0.18
  9
$DIMEXO
 40
0.0625
  9
$DIMDLI
 40
0.38
  9
$DIMRND
 40
0.0
  9
$DIMDLE
 40
0.0
  9
$DIMEXE
 40
0.18
  9
$DIMTP
 40
0.0
  9
$DIMTM
 40
0.0
  9
$DIMTXT
 40
0.18
  9
$DIMCEN
 40
0.09
  9
$DIMTSZ
 40
0.0
  9
$DIMTOL
 70
     0
  9
$DIMLIM
 70
     0
  9
$DIMTIH
 70
     1
  9
$DIMTOH
 70
     1
  9
$DIMSE1
 70
     0
  9
$DIMSE2
 70
     0
  9
$DIMTAD
 70
     0
  9
$DIMZIN
 70
     0
  9
$DIMBLK
  1

  9
$DIMASO
 70
     1
  9
$DIMSHO
 70
     1
  9
$DIMPOST
  1

  9
$DIMAPOST
  1

  9
$DIMALT
 70
     0
  9
$DIMALTD
 70
     2
  9
$DIMALTF
 40
25.4
  9
$DIMLFAC
 40
1.0
  9
$DIMTOFL
 70
     0
  9
$DIMTVP
 40
0.0
  9
$DIMTIX
 70
     0
  9
$DIMSOXD
 70
     0
  9
$DIMSAH
 70
     0
  9
$DIMBLK1
  1

  9
$DIMBLK2
  1

  9
$DIMSTYLE
  2
STANDARD
  9
$DIMCLRD
 70
     0
  9
$DIMCLRE
 70
     0
  9
$DIMCLRT
 70
     0
  9
$DIMTFAC
 40
1.0
  9
$DIMGAP
 40
0.09
  9
$DIMJUST
 70
     0
  9
$DIMSD1
 70
     0
  9
$DIMSD2
 70
     0
  9
$DIMTOLJ
 70
     1
  9
$DIMTZIN
 70
     0
  9
$DIMALTZ
 70
     0
  9
$DIMALTTZ
 70
     0
  9
$DIMFIT
 70
     3
  9
$DIMUPT
 70
     0
  9
$DIMUNIT
 70
     2
  9
$DIMDEC
 70
     4
  9
$DIMTDEC
 70
     4
  9
$DIMALTU
 70
     2
  9
$DIMALTTD
 70
     2
  9
$DIMTXSTY
  7
STANDARD
  9
$DIMAUNIT
 70
     0
  9
$LUNITS
 70
     2
  9
$LUPREC
 70
     4
  9
$SKETCHINC
 40
0.1
  9
$FILLETRAD
 40
0.5
  9
$AUNITS
 70
     0
  9
$AUPREC
 70
     0
  9
$MENU
  1
.
  9
$ELEVATION
 40
0.0
  9
$PELEVATION
 40
0.0
  9
$THICKNESS
 40
0.0
  9
$LIMCHECK
 70
     0
  9
$CHAMFERA
 40
0.5
  9
$CHAMFERB
 40
0.5
  9
$CHAMFERC
 40
1.0
  9
$CHAMFERD
 40
0.0
  9
$SKPOLY
 70
     0
  9
$TDCREATE
 40
2456272.362810868
  9
$TDUPDATE
 40
2456272.362810879
  9
$TDINDWG
 40
0.0000000116
  9
$TDUSRTIMER
 40
0.0000000116
  9
$USRTIMER
 70
     1
  9
$ANGBASE
 50
0.0
  9
$ANGDIR
 70
     0
  9
$PDMODE
 70
     0
  9
$PDSIZE
 40
0.0
  9
$PLINEWID
 40
0.0
  9
$COORDS
 70
     1
  9
$SPLFRAME
 70
     0
  9
$SPLINETYPE
 70
     6
  9
$SPLINESEGS
 70
     8
  9
$ATTDIA
 70
     0
  9
$ATTREQ
 70
     1
  9
$HANDLING
 70
     1
  9
$HANDSEED
  5
134
  9
$SURFTAB1
 70
     6
  9
$SURFTAB2
 70
     6
  9
$SURFTYPE
 70
     6
  9
$SURFU
 70
     6
  9
$SURFV
 70
     6
  9
$UCSNAME
  2

  9
$UCSORG
 10
0.0
 20
0.0
 30
0.0
  9
$UCSXDIR
 10
1.0
 20
0.0
 30
0.0
  9
$UCSYDIR
 10
0.0
 20
1.0
 30
0.0
  9
$PUCSNAME
  2

  9
$PUCSORG
 10
0.0
 20
0.0
 30
0.0
  9
$PUCSXDIR
 10
1.0
 20
0.0
 30
0.0
  9
$PUCSYDIR
 10
0.0
 20
1.0
 30
0.0
  9
$USERI1
 70
     0
  9
$USERI2
 70
     0
  9
$USERI3
 70
     0
  9
$USERI4
 70
     0
  9
$USERI5
 70
     0
  9
$USERR1
 40
0.0
  9
$USERR2
 40
0.0
  9
$USERR3
 40
0.0
  9
$USERR4
 40
0.0
  9
$USERR5
 40
0.0
  9
$WORLDVIEW
 70
     1
  9
$SHADEDGE
 70
     3
  9
$SHADEDIF
 70
    70
  9
$TILEMODE
 70
     1
  9
$MAXACTVP
 70
    64
  9
$PINSBASE
 10
0.0
 20
0.0
 30
0.0
  9
$PLIMCHECK
 70
     0
  9
$PEXTMIN
 10
1.000000000000000E+20
 20
1.000000000000000E+20
 30
1.000000000000000E+20
  9
$PEXTMAX
 10
-1.000000000000000E+20
 20
-1.000000000000000E+20
 30
-1.000000000000000E+20
  9
$PLIMMIN
 10
0.0
 20
0.0
  9
$PLIMMAX
 10
12.0
 20
9.0
  9
$UNITMODE
 70
     0
  9
$VISRETAIN
 70
     1
  9
$PLINEGEN
 70
     0
  9
$PSLTSCALE
 70
     1
  9
$TREEDEPTH
 70
  3020
  9
$PICKSTYLE
 70
     1
  9
$CMLSTYLE
  2
STANDARD
  9
$CMLJUST
 70
     0
  9
$CMLSCALE
 40
1.0
  9
$PROXYGRAPHICS
 70
     1
  9
$MEASUREMENT
 70
     0
  0
ENDSEC
  0
SECTION
  2
CLASSES
  0
CLASS
  1
ACDBDICTIONARYWDFLT
  2
AcDbDictionaryWithDefault
  3
ObjectDBX Classes
 90
        0
280
     0
281
     0
  0
CLASS
  1
VISUALSTYLE
  2
AcDbVisualStyle
  3
ObjectDBX Classes
 90
     4095
280
     0
281
     0
  0
CLASS
  1
MATERIAL
  2
AcDbMaterial
  3
ObjectDBX Classes
 90
     1153
280
     0
281
     0
  0
CLASS
  1
DICTIONARYVAR
  2
AcDbDictionaryVar
  3
ObjectDBX Classes
 90
        0
280
     0
281
     0
  0
CLASS
  1
XRECORD
  2
AcDbXrecord
  3
AutoCAD 2000
 90
        0
280
     0
281
     0
  0
CLASS
  1
LWPOLYLINE
  2
AcDbPolyline
  3
AutoCAD 2000
 90
        0
280
     0
281
     1
  0
CLASS
  1
HATCH
  2
AcDbHatch
  3
AutoCAD 2000
 90
        0
280
     0
281
     1
  0
CLASS
  1
ACDBPLACEHOLDER
  2
AcDbPlaceHolder
  3
ObjectDBX Classes
 90
        0
280
     0
281
     0
  0
CLASS
  1
LAYOUT
  2
AcDbLayout
  3
ObjectDBX Classes
 90
        0
280
     0
281
     0
  0
ENDSEC
  0
SECTION
  2
TABLES
  0
TABLE
  2
VPORT
  5
8
330
0
100
AcDbSymbolTable
 70
     1
  0
VPORT
  5
29
330
8
100
AcDbSymbolTableRecord
100
AcDbViewportTableRecord
  2
*ACTIVE
 70
     0
 10
0.0
 20
0.0
 11
1.0
 21
1.0
 12
10.42990654205607
 22
4.5
 13
0.0
 23
0.0
 14
0.5
 24
0.5
 15
0.5
 25
0.5
 16
0.0
 26
0.0
 36
1.0
 17
0.0
 27
0.0
 37
0.0
 40
9.0
 41
1.972972972850329
 42
50.0
 43
0.0
 44
0.0
 50
0.0
 51
0.0
 71
     0
 72
   100
 73
     1
 74
     3
 75
     0
 76
     0
 77
     0
 78
     0
  0
ENDTAB
  0
TABLE
  2
LTYPE
  5
5
330
0
100
AcDbSymbolTable
 70
     2
  0
LTYPE
  5
14
330
5
100
AcDbSymbolTableRecord
100
AcDbLinetypeTableRecord
  2
BYBLOCK
 70
     0
  3

 72
    65
 73
     0
 40
0.0
  0
LTYPE
  5
15
330
5
100
AcDbSymbolTableRecord
100
AcDbLinetypeTableRecord
  2
BYLAYER
 70
     0
  3

 72
    65
 73
     0
 40
0.0
  0
LTYPE
  5
16
330
5
100
AcDbSymbolTableRecord
100
AcDbLinetypeTableRecord
  2
CONTINUOUS
 70
     0
  3
Solid line
 72
    65
 73
     0
 40
0.0
  0
LTYPE
  5
6D
330
5
100
AcDbSymbolTableRecord
100
AcDbLinetypeTableRecord
  2
NEW_LINE1
 70
     0
  3

 72
    65
 73
     4
 40
1.2
 49
0.5
 74
     4
 75
     0
340
0
 46
1.0
 50
0.0
 44
0.0
 45
0.0
 49
-0.3
 74
     4
 75
     0
340
0
 46
1.0
 50
0.0
 44
0.0
 45
0.0
 49
0.1
 74
     4
 75
     0
340
0
 46
1.0
 50
0.0
 44
0.0
 45
0.0
 49
-0.3
 74
     4
 75
     0
340
0
 46
1.0
 50
0.0
 44
0.0
 45
0.0
  0
ENDTAB
  0
TABLE
  2
LAYER
  5
2
330
0
100
AcDbSymbolTable
 70
     2
  0
LAYER
  5
10
330
2
100
AcDbSymbolTableRecord
100
AcDbLayerTableRecord
  2
0
 70
     0
 62
     7
  6
CONTINUOUS
  0
LAYER
  5
40
330
2
100
AcDbSymbolTableRecord
100
AcDbLayerTableRecord
  2
DEFAULT_1
 70
     0
 62
     7
  6
CONTINUOUS
  0
ENDTAB
  0
TABLE
  2
STYLE
  5
3
330
0
100
AcDbSymbolTable
 70
     1
  0
STYLE
  5
11
330
3
100
AcDbSymbolTableRecord
100
AcDbTextStyleTableRecord
  2
STANDARD
 70
     0
 40
0.0
 41
1.0
 50
0.0
 71
     0
 42
0.2
  3
txt
  4

  0
ENDTAB
  0
TABLE
  2
VIEW
  5
6
330
0
100
AcDbSymbolTable
 70
     0
  0
ENDTAB
  0
TABLE
  2
UCS
  5
7
330
0
100
AcDbSymbolTable
 70
     0
  0
ENDTAB
  0
TABLE
  2
APPID
  5
9
330
0
100
AcDbSymbolTable
 70
     2
  0
APPID
  5
12
330
9
100
AcDbSymbolTableRecord
100
AcDbRegAppTableRecord
  2
ACAD
 70
     0
  0
APPID
  5
3F
330
9
100
AcDbSymbolTableRecord
100
AcDbRegAppTableRecord
  2
ODA
 70
     0
  0
ENDTAB
  0
TABLE
  2
DIMSTYLE
  5
A
330
0
100
AcDbSymbolTable
 70
     1
  0
DIMSTYLE
105
27
330
A
100
AcDbSymbolTableRecord
100
AcDbDimStyleTableRecord
  2
STANDARD
 70
     0
  3

  4

  5

  6

  7

 40
1.0
 41
0.18
 42
0.0625
 43
0.38
 44
0.18
 45
0.0
 46
0.0
 47
0.0
 48
0.0
140
0.18
141
0.09
142
0.0
143
25.4
144
1.0
145
0.0
146
1.0
147
0.09
 71
     0
 72
     0
 73
     1
 74
     1
 75
     0
 76
     0
 77
     0
 78
     0
170
     0
171
     2
172
     0
173
     0
174
     0
175
     0
176
     0
177
     0
178
     0
270
     2
271
     4
272
     4
273
     2
274
     2
340
11
275
     0
280
     0
281
     0
282
     0
283
     1
284
     0
285
     0
286
     0
287
     3
288
     0
  0
ENDTAB
  0
TABLE
  2
BLOCK_RECORD
  5
1
330
0
100
AcDbSymbolTable
 70
     1
  0
BLOCK_RECORD
  5
1F
330
1
100
AcDbSymbolTableRecord
100
AcDbBlockTableRecord
  2
*MODEL_SPACE
  0
BLOCK_RECORD
  5
1B
330
1
100
AcDbSymbolTableRecord
100
AcDbBlockTableRecord
  2
*PAPER_SPACE
  0
ENDTAB
  0
ENDSEC
  0
SECTION
  2
BLOCKS
  0
BLOCK
  5
20
330
1F
100
AcDbEntity
  8
0
100
AcDbBlockBegin
  2
*MODEL_SPACE
 70
     0
 10
0.0
 20
0.0
 30
0.0
  3
*MODEL_SPACE
  1

  0
ENDBLK
  5
21
330
1F
100
AcDbEntity
  8
0
100
AcDbBlockEnd
  0
BLOCK
  5
1C
330
1B
100
AcDbEntity
 67
     1
  8
0
100
AcDbBlockBegin
  2
*PAPER_SPACE
 70
     0
 10
0.0
 20
0.0
 30
0.0
  3
*PAPER_SPACE
  1

  0
ENDBLK
  5
1D
330
1B
100
AcDbEntity
 67
     1
  8
0
100
AcDbBlockEnd
  0
ENDSEC
  0
SECTION
  2
ENTITIES
  0
SPLINE
  5
41
330
1F
100
AcDbEntity
  8
DEFAULT_1
 62
   250
100
AcDbSpline
210
0.0
220
0.0
230
1.0
 70
    11
 71
     3
 72
    48
 73
    44
 74
     0
 42
0.0000000001
 43
0.0000000001
 40
0.0
 40
0.0
 40
0.0
 40
0.0
 40
0.0833333333333333
 40
0.0833333333333333
 40
0.0833333333333333
 40
0.0833333333333333
 40
0.1666666666666667
 40
0.1666666666666667
 40
0.1666666666666667
 40
0.1666666666666667
 40
0.25
 40
0.25
 40
0.25
 40
0.25
 40
0.3333333333333333
 40
0.3333333333333333
 40
0.3333333333333333
 40
0.3333333333333333
 40
0.4166666666666667
 40
0.4166666666666667
 40
0.4166666666666667
 40
0.4166666666666667
 40
0.5
 40
0.5
 40
0.5
 40
0.5
 40
0.5833333333333334
 40
0.5833333333333334
 40
0.5833333333333334
 40
0.5833333333333334
 40
0.6666666666666666
 40
0.6666666666666666
 40
0.6666666666666666
 40
0.6666666666666666
 40
0.75
 40
0.75
 40
0.75
 40
0.75
 40
0.8333333333333334
 40
0.8333333333333334
 40
0.8333333333333334
 40
0.8333333333333334
 40
1.0
 40
1.0
 40
1.0
 40
1.0
 10
-3.6914
 20
-17.6585
 30
0.0
 10
-3.6914
 20
-17.6585
 30
0.0
 10
-3.6914
 20
-16.657
 30
0.0
 10
-3.6914
 20
-16.657
 30
0.0
 10
-3.6914
 20
-16.657
 30
0.0
 10
-3.6914
 20
-16.657
 30
0.0
 10
-5.5063
 20
-16.657
 30
0.0
 10
-5.5063
 20
-16.657
 30
0.0
 10
-5.5063
 20
-16.657
 30
0.0
 10
-5.5063
 20
-16.657
 30
0.0
 10
-5.5063
 20
-16.1855
 30
0.0
 10
-5.5063
 20
-16.1855
 30
0.0
 10
-5.5063
 20
-16.1855
 30
0.0
 10
-5.5063
 20
-16.1855
 30
0.0
 10
-3.5969
 20
-13.4744
 30
0.0
 10
-3.5969
 20
-13.4744
 30
0.0
 10
-3.5969
 20
-13.4744
 30
0.0
 10
-3.5969
 20
-13.4744
 30
0.0
 10
-3.177
 20
-13.4744
 30
0.0
 10
-3.177
 20
-13.4744
 30
0.0
 10
-3.177
 20
-13.4744
 30
0.0
 10
-3.177
 20
-13.4744
 30
0.0
 10
-3.177
 20
-16.1855
 30
0.0
 10
-3.177
 20
-16.1855
 30
0.0
 10
-3.177
 20
-16.1855
 30
0.0
 10
-3.177
 20
-16.1855
 30
0.0
 10
-2.612
 20
-16.1855
 30
0.0
 10
-2.612
 20
-16.1855
 30
0.0
 10
-2.612
 20
-16.1855
 30
0.0
 10
-2.612
 20
-16.1855
 30
0.0
 10
-2.612
 20
-16.657
 30
0.0
 10
-2.612
 20
-16.657
 30
0.0
 10
-2.612
 20
-16.657
 30
0.0
 10
-2.612
 20
-16.657
 30
0.0
 10
-3.177
 20
-16.657
 30
0.0
 10
-3.177
 20
-16.657
 30
0.0
 10
-3.177
 20
-16.657
 30
0.0
 10
-3.177
 20
-16.657
 30
0.0
 10
-3.177
 20
-17.6585
 30
0.0
 10
-3.177
 20
-17.6585
 30
0.0
 10
-3.177
 20
-17.6585
 30
0.0
 10
-3.177
 20
-17.6585
 30
0.0
 10
-3.6914
 20
-17.6585
 30
0.0
 10
-3.6914
 20
-17.6585
 30
0.0
  0
SPLINE
  5
42
330
1F
100
AcDbEntity
  8
DEFAULT_1
 62
   250
100
AcDbSpline
210
0.0
220
0.0
230
1.0
 70
    11
 71
     3
 72
    16
 73
    12
 74
     0
 42
0.0000000001
 43
0.0000000001
 40
0.0
 40
0.0
 40
0.0
 40
0.0
 40
0.25
 40
0.25
 40
0.25
 40
0.25
 40
0.5
 40
0.5
 40
0.5
 40
0.5
 40
1.0
 40
1.0
 40
1.0
 40
1.0
 10
-3.6914
 20
-16.1855
 30
0.0
 10
-3.6914
 20
-16.1855
 30
0.0
 10
-3.6914
 20
-14.2995
 30
0.0
 10
-3.6914
 20
-14.2995
 30
0.0
 10
-3.6914
 20
-14.2995
 30
0.0
 10
-3.6914
 20
-14.2995
 30
0.0
 10
-5.0007
 20
-16.1855
 30
0.0
 10
-5.0007
 20
-16.1855
 30
0.0
 10
-5.0007
 20
-16.1855
 30
0.0
 10
-5.0007
 20
-16.1855
 30
0.0
 10
-3.6914
 20
-16.1855
 30
0.0
 10
-3.6914
 20
-16.1855
 30
0.0
  0
SPLINE
  5
43
330
1F
100
AcDbEntity
  8
DEFAULT_1
 62
   250
100
AcDbSpline
210
0.0
220
0.0
230
1.0
 70
    11
 71
     3
 72
    48
 73
    44
 74
     0
 42
0.0000000001
 43
0.0000000001
 40
0.0
 40
0.0
 40
0.0
 40
0.0
 40
0.0833333333333333
 40
0.0833333333333333
 40
0.0833333333333333
 40
0.0833333333333333
 40
0.1666666666666667
 40
0.1666666666666667
 40
0.1666666666666667
 40
0.1666666666666667
 40
0.25
 40
0.25
 40
0.25
 40
0.25
 40
0.3333333333333333
 40
0.3333333333333333
 40
0.3333333333333333
 40
0.3333333333333333
 40
0.4166666666666667
 40
0.4166666666666667
 40
0.4166666666666667
 40
0.4166666666666667
 40
0.5
 40
0.5
 40
0.5
 40
0.5
 40
0.5833333333333334
 40
0.5833333333333334
 40
0.5833333333333334
 40
0.5833333333333334
 40
0.6666666666666666
 40
0.6666666666666666
 40
0.6666666666666666
 40
0.6666666666666666
 40
0.75
 40
0.75
 40
0.75
 40
0.75
 40
0.8333333333333334
 40
0.8333333333333334
 40
0.8333333333333334
 40
0.8333333333333334
 40
1.0
 40
1.0
 40
1.0
 40
1.0
 10
-0.4406
 20
-17.6585
 30
0.0
 10
-0.4406
 20
-17.6585
 30
0.0
 10
-0.4406
 20
-16.657
 30
0.0
 10
-0.4406
 20
-16.657
 30
0.0
 10
-0.4406
 20
-16.657
 30
0.0
 10
-0.4406
 20
-16.657
 30
0.0
 10
-2.2555
 20
-16.657
 30
0.0
 10
-2.2555
 20
-16.657
 30
0.0
 10
-2.2555
 20
-16.657
 30
0.0
 10
-2.2555
 20
-16.657
 30
0.0
 10
-2.2555
 20
-16.1855
 30
0.0
 10
-2.2555
 20
-16.1855
 30
0.0
 10
-2.2555
 20
-16.1855
 30
0.0
 10
-2.2555
 20
-16.1855
 30
0.0
 10
-0.3461
 20
-13.4744
 30
0.0
 10
-0.3461
 20
-13.4744
 30
0.0
 10
-0.3461
 20
-13.4744
 30
0.0
 10
-0.3461
 20
-13.4744
 30
0.0
 10
0.0738
 20
-13.4744
 30
0.0
 10
0.0738
 20
-13.4744
 30
0.0
 10
0.0738
 20
-13.4744
 30
0.0
 10
0.0738
 20
-13.4744
 30
0.0
 10
0.0738
 20
-16.1855
 30
0.0
 10
0.0738
 20
-16.1855
 30
0.0
 10
0.0738
 20
-16.1855
 30
0.0
 10
0.0738
 20
-16.1855
 30
0.0
 10
0.6388
 20
-16.1855
 30
0.0
 10
0.6388
 20
-16.1855
 30
0.0
 10
0.6388
 20
-16.1855
 30
0.0
 10
0.6388
 20
-16.1855
 30
0.0
 10
0.6388
 20
-16.657
 30
0.0
 10
0.6388
 20
-16.657
 30
0.0
 10
0.6388
 20
-16.657
 30
0.0
 10
0.6388
 20
-16.657
 30
0.0
 10
0.0738
 20
-16.657
 30
0.0
 10
0.0738
 20
-16.657
 30
0.0
 10
0.0738
 20
-16.657
 30
0.0
 10
0.0738
 20
-16.657
 30
0.0
 10
0.0738
 20
-17.6585
 30
0.0
 10
0.0738
 20
-17.6585
 30
0.0
 10
0.0738
 20
-17.6585
 30
0.0
 10
0.0738
 20
-17.6585
 30
0.0
 10
-0.4406
 20
-17.6585
 30
0.0
 10
-0.4406
 20
-17.6585
 30
0.0
  0
SPLINE
  5
44
330
1F
100
AcDbEntity
  8
DEFAULT_1
 62
   250
100
AcDbSpline
210
0.0
220
0.0
230
1.0
 70
    11
 71
     3
 72
    16
 73
    12
 74
     0
 42
0.0000000001
 43
0.0000000001
 40
0.0
 40
0.0
 40
0.0
 40
0.0
 40
0.25
 40
0.25
 40
0.25
 40
0.25
 40
0.5
 40
0.5
 40
0.5
 40
0.5
 40
1.0
 40
1.0
 40
1.0
 40
1.0
 10
-0.4406
 20
-16.1855
 30
0.0
 10
-0.4406
 20
-16.1855
 30
0.0
 10
-0.4406
 20
-14.2995
 30
0.0
 10
-0.4406
 20
-14.2995
 30
0.0
 10
-0.4406
 20
-14.2995
 30
0.0
 10
-0.4406
 20
-14.2995
 30
0.0
 10
-1.7499
 20
-16.1855
 30
0.0
 10
-1.7499
 20
-16.1855
 30
0.0
 10
-1.7499
 20
-16.1855
 30
0.0
 10
-1.7499
 20
-16.1855
 30
0.0
 10
-0.4406
 20
-16.1855
 30
0.0
 10
-0.4406
 20
-16.1855
 30
0.0
  0
SPLINE
  5
45
330
1F
100
AcDbEntity
  8
DEFAULT_1
 62
   250
100
AcDbSpline
210
0.0
220
0.0
230
1.0
 70
    11
 71
     3
 72
    52
 73
    48
 74
     0
 42
0.0000000001
 43
0.0000000001
 40
0.0
 40
0.0
 40
0.0
 40
0.0
 40
0.0769230769230769
 40
0.0769230769230769
 40
0.0769230769230769
 40
0.0769230769230769
 40
0.1538461538461539
 40
0.1538461538461539
 40
0.1538461538461539
 40
0.1538461538461539
 40
0.2307692307692308
 40
0.2307692307692308
 40
0.2307692307692308
 40
0.2307692307692308
 40
0.3076923076923077
 40
0.3076923076923077
 40
0.3076923076923077
 40
0.3076923076923077
 40
0.3846153846153846
 40
0.3846153846153846
 40
0.3846153846153846
 40
0.3846153846153846
 40
0.4615384615384616
 40
0.4615384615384616
 40
0.4615384615384616
 40
0.4615384615384616
 40
0.5384615384615384
 40
0.5384615384615384
 40
0.5384615384615384
 40
0.5384615384615384
 40
0.6153846153846154
 40
0.6153846153846154
 40
0.6153846153846154
 40
0.6153846153846154
 40
0.6923076923076923
 40
0.6923076923076923
 40
0.6923076923076923
 40
0.6923076923076923
 40
0.7692307692307693
 40
0.7692307692307693
 40
0.7692307692307693
 40
0.7692307692307693
 40
0.8461538461538461
 40
0.8461538461538461
 40
0.8461538461538461
 40
0.8461538461538461
 40
1.0
 40
1.0
 40
1.0
 40
1.0
 10
1.1639
 20
-15.5952
 30
0.0
 10
1.1639
 20
-15.1003
 30
0.0
 10
1.2145
 20
-14.7019
 30
0.0
 10
1.3168
 20
-14.4008
 30
0.0
 10
1.3168
 20
-14.4008
 30
0.0
 10
1.4181
 20
-14.0988
 30
0.0
 10
1.5701
 20
-13.866
 30
0.0
 10
1.7708
 20
-13.7023
 30
0.0
 10
1.7708
 20
-13.7023
 30
0.0
 10
1.9715
 20
-13.5387
 30
0.0
 10
2.2238
 20
-13.4568
 30
0.0
 10
2.5277
 20
-13.4568
 30
0.0
 10
2.5277
 20
-13.4568
 30
0.0
 10
2.7528
 20
-13.4568
 30
0.0
 10
2.9495
 20
-13.5026
 30
0.0
 10
3.1191
 20
-13.5932
 30
0.0
 10
3.1191
 20
-13.5932
 30
0.0
 10
3.2886
 20
-13.6829
 30
0.0
 10
3.4279
 20
-13.8134
 30
0.0
 10
3.5389
 20
-13.9839
 30
0.0
 10
3.5389
 20
-13.9839
 30
0.0
 10
3.649
 20
-14.1544
 30
0.0
 10
3.7357
 20
-14.3619
 30
0.0
 10
3.7981
 20
-14.6064
 30
0.0
 10
3.7981
 20
-14.6064
 30
0.0
 10
3.8614
 20
-14.8509
 30
0.0
 10
3.8926
 20
-15.1802
 30
0.0
 10
3.8926
 20
-15.5952
 30
0.0
 10
3.8926
 20
-15.5952
 30
0.0
 10
3.8926
 20
-16.0862
 30
0.0
 10
3.8419
 20
-16.4817
 30
0.0
 10
3.7416
 20
-16.7837
 30
0.0
 10
3.7416
 20
-16.7837
 30
0.0
 10
3.6402
 20
-17.0857
 30
0.0
 10
3.4892
 20
-17.3185
 30
0.0
 10
3.2886
 20
-17.4831
 30
0.0
 10
3.2886
 20
-17.4831
 30
0.0
 10
3.0879
 20
-17.6478
 30
0.0
 10
2.8346
 20
-17.7296
 30
0.0
 10
2.5277
 20
-17.7296
 30
0.0
 10
2.5277
 20
-17.7296
 30
0.0
 10
2.1244
 20
-17.7296
 30
0.0
 10
1.8078
 20
-17.5854
 30
0.0
 10
1.5779
 20
-17.2961
 30
0.0
 10
1.5779
 20
-17.2961
 30
0.0
 10
1.3022
 20
-16.9483
 30
0.0
 10
1.1639
 20
-16.3804
 30
0.0
 10
1.1639
 20
-15.5952
 30
0.0
  0
SPLINE
  5
46
330
1F
100
AcDbEntity
  8
DEFAULT_1
 62
   250
100
AcDbSpline
210
0.0
220
0.0
230
1.0
 70
    11
 71
     3
 72
    36
 73
    32
 74
     0
 42
0.0000000001
 43
0.0000000001
 40
0.0
 40
0.0
 40
0.0
 40
0.0
 40
0.1111111111111111
 40
0.1111111111111111
 40
0.1111111111111111
 40
0.1111111111111111
 40
0.2222222222222222
 40
0.2222222222222222
 40
0.2222222222222222
 40
0.2222222222222222
 40
0.3333333333333333
 40
0.3333333333333333
 40
0.3333333333333333
 40
0.3333333333333333
 40
0.4444444444444444
 40
0.4444444444444444
 40
0.4444444444444444
 40
0.4444444444444444
 40
0.5555555555555556
 40
0.5555555555555556
 40
0.5555555555555556
 40
0.5555555555555556
 40
0.6666666666666666
 40
0.6666666666666666
 40
0.6666666666666666
 40
0.6666666666666666
 40
0.7777777777777778
 40
0.7777777777777778
 40
0.7777777777777778
 40
0.7777777777777778
 40
1.0
 40
1.0
 40
1.0
 40
1.0
 10
1.6919
 20
-15.5952
 30
0.0
 10
1.6919
 20
-16.282
 30
0.0
 10
1.7727
 20
-16.7389
 30
0.0
 10
1.9335
 20
-16.9668
 30
0.0
 10
1.9335
 20
-16.9668
 30
0.0
 10
2.0942
 20
-17.1938
 30
0.0
 10
2.292
 20
-17.3078
 30
0.0
 10
2.5277
 20
-17.3078
 30
0.0
 10
2.5277
 20
-17.3078
 30
0.0
 10
2.7645
 20
-17.3078
 30
0.0
 10
2.9622
 20
-17.1928
 30
0.0
 10
3.123
 20
-16.9649
 30
0.0
 10
3.123
 20
-16.9649
 30
0.0
 10
3.2837
 20
-16.7369
 30
0.0
 10
3.3646
 20
-16.28
 30
0.0
 10
3.3646
 20
-15.5952
 30
0.0
 10
3.3646
 20
-15.5952
 30
0.0
 10
3.3646
 20
-14.9064
 30
0.0
 10
3.2837
 20
-14.4486
 30
0.0
 10
3.123
 20
-14.2226
 30
0.0
 10
3.123
 20
-14.2226
 30
0.0
 10
2.9622
 20
-13.9956
 30
0.0
 10
2.7625
 20
-13.8826
 30
0.0
 10
2.5229
 20
-13.8826
 30
0.0
 10
2.5229
 20
-13.8826
 30
0.0
 10
2.2861
 20
-13.8826
 30
0.0
 10
2.0981
 20
-13.9829
 30
0.0
 10
1.9569
 20
-14.1826
 30
0.0
 10
1.9569
 20
-14.1826
 30
0.0
 10
1.7805
 20
-14.4369
 30
0.0
 10
1.6919
 20
-14.9084
 30
0.0
 10
1.6919
 20
-15.5952
 30
0.0
  0
SPLINE
  5
47
330
1F
100
AcDbEntity
  8
DEFAULT_1
 62
   250
100
AcDbSpline
210
0.0
220
0.0
230
1.0
 70
    11
 71
     3
 72
    20
 73
    16
 74
     0
 42
0.0000000001
 43
0.0000000001
 40
0.0
 40
0.0
 40
0.0
 40
0.0
 40
0.2
 40
0.2
 40
0.2
 40
0.2
 40
0.4
 40
0.4
 40
0.4
 40
0.4
 40
0.6
 40
0.6
 40
0.6
 40
0.6
 40
1.0
 40
1.0
 40
1.0
 40
1.0
 10
5.9812
 20
-16.4028
 30
0.0
 10
5.9812
 20
-16.4028
 30
0.0
 10
5.9812
 20
-15.8865
 30
0.0
 10
5.9812
 20
-15.8865
 30
0.0
 10
5.9812
 20
-15.8865
 30
0.0
 10
5.9812
 20
-15.8865
 30
0.0
 10
7.5603
 20
-15.8865
 30
0.0
 10
7.5603
 20
-15.8865
 30
0.0
 10
7.5603
 20
-15.8865
 30
0.0
 10
7.5603
 20
-15.8865
 30
0.0
 10
7.5603
 20
-16.4028
 30
0.0
 10
7.5603
 20
-16.4028
 30
0.0
 10
7.5603
 20
-16.4028
 30
0.0
 10
7.5603
 20
-16.4028
 30
0.0
 10
5.9812
 20
-16.4028
 30
0.0
 10
5.9812
 20
-16.4028
 30
0.0
  0
SPLINE
  5
48
330
1F
100
AcDbEntity
  8
DEFAULT_1
 62
   250
100
AcDbSpline
210
0.0
220
0.0
230
1.0
 70
    11
 71
     3
 72
    68
 73
    64
 74
     0
 42
0.0000000001
 43
0.0000000001
 40
0.0
 40
0.0
 40
0.0
 40
0.0
 40
0.0588235294117647
 40
0.0588235294117647
 40
0.0588235294117647
 40
0.0588235294117647
 40
0.1176470588235294
 40
0.1176470588235294
 40
0.1176470588235294
 40
0.1176470588235294
 40
0.1764705882352941
 40
0.1764705882352941
 40
0.1764705882352941
 40
0.1764705882352941
 40
0.2352941176470588
 40
0.2352941176470588
 40
0.2352941176470588
 40
0.2352941176470588
 40
0.2941176470588235
 40
0.2941176470588235
 40
0.2941176470588235
 40
0.2941176470588235
 40
0.3529411764705883
 40
0.3529411764705883
 40
0.3529411764705883
 40
0.3529411764705883
 40
0.4117647058823529
 40
0.4117647058823529
 40
0.4117647058823529
 40
0.4117647058823529
 40
0.4705882352941176
 40
0.4705882352941176
 40
0.4705882352941176
 40
0.4705882352941176
 40
0.5294117647058824
 40
0.5294117647058824
 40
0.5294117647058824
 40
0.5294117647058824
 40
0.5882352941176471
 40
0.5882352941176471
 40
0.5882352941176471
 40
0.5882352941176471
 40
0.6470588235294118
 40
0.6470588235294118
 40
0.6470588235294118
 40
0.6470588235294118
 40
0.7058823529411765
 40
0.7058823529411765
 40
0.7058823529411765
 40
0.7058823529411765
 40
0.7647058823529411
 40
0.7647058823529411
 40
0.7647058823529411
 40
0.7647058823529411
 40
0.8235294117647058
 40
0.8235294117647058
 40
0.8235294117647058
 40
0.8235294117647058
 40
0.8823529411764706
 40
0.8823529411764706
 40
0.8823529411764706
 40
0.8823529411764706
 40
1.0
 40
1.0
 40
1.0
 40
1.0
 10
10.4001
 20
-15.3896
 30
0.0
 10
10.1868
 20
-15.3117
 30
0.0
 10
10.0289
 20
-15.2006
 30
0.0
 10
9.9257
 20
-15.0555
 30
0.0
 10
9.9257
 20
-15.0555
 30
0.0
 10
9.8234
 20
-14.9113
 30
0.0
 10
9.7718
 20
-14.7379
 30
0.0
 10
9.7718
 20
-14.5362
 30
0.0
 10
9.7718
 20
-14.5362
 30
0.0
 10
9.7718
 20
-14.2313
 30
0.0
 10
9.8809
 20
-13.9761
 30
0.0
 10
10.1001
 20
-13.7686
 30
0.0
 10
10.1001
 20
-13.7686
 30
0.0
 10
10.3193
 20
-13.5611
 30
0.0
 10
10.6096
 20
-13.4568
 30
0.0
 10
10.9729
 20
-13.4568
 30
0.0
 10
10.9729
 20
-13.4568
 30
0.0
 10
11.3382
 20
-13.4568
 30
0.0
 10
11.6325
 20
-13.563
 30
0.0
 10
11.8555
 20
-13.7754
 30
0.0
 10
11.8555
 20
-13.7754
 30
0.0
 10
12.0777
 20
-13.9878
 30
0.0
 10
12.1887
 20
-14.2459
 30
0.0
 10
12.1887
 20
-14.5509
 30
0.0
 10
12.1887
 20
-14.5509
 30
0.0
 10
12.1887
 20
-14.7447
 30
0.0
 10
12.1381
 20
-14.9133
 30
0.0
 10
12.0367
 20
-15.0574
 30
0.0
 10
12.0367
 20
-15.0574
 30
0.0
 10
11.9344
 20
-15.2006
 30
0.0
 10
11.7805
 20
-15.3117
 30
0.0
 10
11.573
 20
-15.3896
 30
0.0
 10
11.573
 20
-15.3896
 30
0.0
 10
11.8292
 20
-15.4734
 30
0.0
 10
12.025
 20
-15.6078
 30
0.0
 10
12.1595
 20
-15.7949
 30
0.0
 10
12.1595
 20
-15.7949
 30
0.0
 10
12.2929
 20
-15.981
 30
0.0
 10
12.3602
 20
-16.204
 30
0.0
 10
12.3602
 20
-16.4622
 30
0.0
 10
12.3602
 20
-16.4622
 30
0.0
 10
12.3602
 20
-16.8207
 30
0.0
 10
12.2335
 20
-17.1208
 30
0.0
 10
11.9812
 20
-17.3643
 30
0.0
 10
11.9812
 20
-17.3643
 30
0.0
 10
11.7279
 20
-17.6078
 30
0.0
 10
11.3947
 20
-17.7296
 30
0.0
 10
10.9817
 20
-17.7296
 30
0.0
 10
10.9817
 20
-17.7296
 30
0.0
 10
10.5686
 20
-17.7296
 30
0.0
 10
10.2364
 20
-17.6078
 30
0.0
 10
9.9832
 20
-17.3633
 30
0.0
 10
9.9832
 20
-17.3633
 30
0.0
 10
9.7299
 20
-17.1188
 30
0.0
 10
9.6032
 20
-16.8139
 30
0.0
 10
9.6032
 20
-16.4486
 30
0.0
 10
9.6032
 20
-16.4486
 30
0.0
 10
9.6032
 20
-16.1768
 30
0.0
 10
9.6724
 20
-15.9488
 30
0.0
 10
9.8107
 20
-15.7647
 30
0.0
 10
9.8107
 20
-15.7647
 30
0.0
 10
9.9481
 20
-15.5815
 30
0.0
 10
10.1449
 20
-15.4559
 30
0.0
 10
10.4001
 20
-15.3896
 30
0.0
  0
SPLINE
  5
49
330
1F
100
AcDbEntity
  8
DEFAULT_1
 62
   250
100
AcDbSpline
210
0.0
220
0.0
230
1.0
 70
    11
 71
     3
 72
    36
 73
    32
 74
     0
 42
0.0000000001
 43
0.0000000001
 40
0.0
 40
0.0
 40
0.0
 40
0.0
 40
0.1111111111111111
 40
0.1111111111111111
 40
0.1111111111111111
 40
0.1111111111111111
 40
0.2222222222222222
 40
0.2222222222222222
 40
0.2222222222222222
 40
0.2222222222222222
 40
0.3333333333333333
 40
0.3333333333333333
 40
0.3333333333333333
 40
0.3333333333333333
 40
0.4444444444444444
 40
0.4444444444444444
 40
0.4444444444444444
 40
0.4444444444444444
 40
0.5555555555555556
 40
0.5555555555555556
 40
0.5555555555555556
 40
0.5555555555555556
 40
0.6666666666666666
 40
0.6666666666666666
 40
0.6666666666666666
 40
0.6666666666666666
 40
0.7777777777777778
 40
0.7777777777777778
 40
0.7777777777777778
 40
0.7777777777777778
 40
1.0
 40
1.0
 40
1.0
 40
1.0
 10
10.2968
 20
-14.5187
 30
0.0
 10
10.2968
 20
-14.7165
 30
0.0
 10
10.3611
 20
-14.8782
 30
0.0
 10
10.4878
 20
-15.0039
 30
0.0
 10
10.4878
 20
-15.0039
 30
0.0
 10
10.6154
 20
-15.1295
 30
0.0
 10
10.781
 20
-15.1928
 30
0.0
 10
10.9846
 20
-15.1928
 30
0.0
 10
10.9846
 20
-15.1928
 30
0.0
 10
11.1824
 20
-15.1928
 30
0.0
 10
11.3451
 20
-15.1305
 30
0.0
 10
11.4717
 20
-15.0058
 30
0.0
 10
11.4717
 20
-15.0058
 30
0.0
 10
11.5984
 20
-14.8811
 30
0.0
 10
11.6607
 20
-14.7282
 30
0.0
 10
11.6607
 20
-14.5479
 30
0.0
 10
11.6607
 20
-14.5479
 30
0.0
 10
11.6607
 20
-14.3589
 30
0.0
 10
11.5964
 20
-14.2011
 30
0.0
 10
11.4659
 20
-14.0725
 30
0.0
 10
11.4659
 20
-14.0725
 30
0.0
 10
11.3353
 20
-13.9439
 30
0.0
 10
11.1736
 20
-13.8796
 30
0.0
 10
10.9788
 20
-13.8796
 30
0.0
 10
10.9788
 20
-13.8796
 30
0.0
 10
10.783
 20
-13.8796
 30
0.0
 10
10.6203
 20
-13.943
 30
0.0
 10
10.4907
 20
-14.0677
 30
0.0
 10
10.4907
 20
-14.0677
 30
0.0
 10
10.3611
 20
-14.1933
 30
0.0
 10
10.2968
 20
-14.3443
 30
0.0
 10
10.2968
 20
-14.5187
 30
0.0
  0
SPLINE
  5
4A
330
1F
100
AcDbEntity
  8
DEFAULT_1
 62
   250
100
AcDbSpline
210
0.0
220
0.0
230
1.0
 70
    11
 71
     3
 72
    40
 73
    36
 74
     0
 42
0.0000000001
 43
0.0000000001
 40
0.0
 40
0.0
 40
0.0
 40
0.0
 40
0.1
 40
0.1
 40
0.1
 40
0.1
 40
0.2
 40
0.2
 40
0.2
 40
0.2
 40
0.3
 40
0.3
 40
0.3
 40
0.3
 40
0.4
 40
0.4
 40
0.4
 40
0.4
 40
0.5
 40
0.5
 40
0.5
 40
0.5
 40
0.6
 40
0.6
 40
0.6
 40
0.6
 40
0.7
 40
0.7
 40
0.7
 40
0.7
 40
0.8
 40
0.8
 40
0.8
 40
0.8
 40
1.0
 40
1.0
 40
1.0
 40
1.0
 10
10.1312
 20
-16.4515
 30
0.0
 10
10.1312
 20
-16.5976
 30
0.0
 10
10.1663
 20
-16.7398
 30
0.0
 10
10.2355
 20
-16.8762
 30
0.0
 10
10.2355
 20
-16.8762
 30
0.0
 10
10.3046
 20
-17.0136
 30
0.0
 10
10.4079
 20
-17.1198
 30
0.0
 10
10.5453
 20
-17.1948
 30
0.0
 10
10.5453
 20
-17.1948
 30
0.0
 10
10.6826
 20
-17.2698
 30
0.0
 10
10.8297
 20
-17.3078
 30
0.0
 10
10.9875
 20
-17.3078
 30
0.0
 10
10.9875
 20
-17.3078
 30
0.0
 10
11.233
 20
-17.3078
 30
0.0
 10
11.4357
 20
-17.2289
 30
0.0
 10
11.5954
 20
-17.0701
 30
0.0
 10
11.5954
 20
-17.0701
 30
0.0
 10
11.7552
 20
-16.9123
 30
0.0
 10
11.8351
 20
-16.7116
 30
0.0
 10
11.8351
 20
-16.468
 30
0.0
 10
11.8351
 20
-16.468
 30
0.0
 10
11.8351
 20
-16.2206
 30
0.0
 10
11.7532
 20
-16.016
 30
0.0
 10
11.5886
 20
-15.8543
 30
0.0
 10
11.5886
 20
-15.8543
 30
0.0
 10
11.424
 20
-15.6926
 30
0.0
 10
11.2174
 20
-15.6117
 30
0.0
 10
10.97
 20
-15.6117
 30
0.0
 10
10.97
 20
-15.6117
 30
0.0
 10
10.7284
 20
-15.6117
 30
0.0
 10
10.5287
 20
-15.6916
 30
0.0
 10
10.3699
 20
-15.8514
 30
0.0
 10
10.3699
 20
-15.8514
 30
0.0
 10
10.2111
 20
-16.0121
 30
0.0
 10
10.1312
 20
-16.2118
 30
0.0
 10
10.1312
 20
-16.4515
 30
0.0
  0
SPLINE
  5
4B
330
1F
100
AcDbEntity
  8
DEFAULT_1
 62
   250
100
AcDbSpline
210
0.0
220
0.0
230
1.0
 70
    11
 71
     3
 72
    80
 73
    76
 74
     0
 42
0.0000000001
 43
0.0000000001
 40
0.0
 40
0.0
 40
0.0
 40
0.0
 40
0.05
 40
0.05
 40
0.05
 40
0.05
 40
0.1
 40
0.1
 40
0.1
 40
0.1
 40
0.15
 40
0.15
 40
0.15
 40
0.15
 40
0.2
 40
0.2
 40
0.2
 40
0.2
 40
0.25
 40
0.25
 40
0.25
 40
0.25
 40
0.3
 40
0.3
 40
0.3
 40
0.3
 40
0.35
 40
0.35
 40
0.35
 40
0.35
 40
0.4
 40
0.4
 40
0.4
 40
0.4
 40
0.45
 40
0.45
 40
0.45
 40
0.45
 40
0.5
 40
0.5
 40
0.5
 40
0.5
 40
0.55
 40
0.55
 40
0.55
 40
0.55
 40
0.6
 40
0.6
 40
0.6
 40
0.6
 40
0.65
 40
0.65
 40
0.65
 40
0.65
 40
0.7
 40
0.7
 40
0.7
 40
0.7
 40
0.75
 40
0.75
 40
0.75
 40
0.75
 40
0.8
 40
0.8
 40
0.8
 40
0.8
 40
0.85
 40
0.85
 40
0.85
 40
0.85
 40
0.9
 40
0.9
 40
0.9
 40
0.9
 40
1.0
 40
1.0
 40
1.0
 40
1.0
 10
15.5251
 20
-14.4992
 30
0.0
 10
15.5251
 20
-14.4992
 30
0.0
 10
15.0147
 20
-14.5392
 30
0.0
 10
15.0147
 20
-14.5392
 30
0.0
 10
15.0147
 20
-14.5392
 30
0.0
 10
14.9689
 20
-14.3375
 30
0.0
 10
14.9046
 20
-14.1904
 30
0.0
 10
14.8208
 20
-14.0998
 30
0.0
 10
14.8208
 20
-14.0998
 30
0.0
 10
14.6815
 20
-13.9527
 30
0.0
 10
14.51
 20
-13.8796
 30
0.0
 10
14.3064
 20
-13.8796
 30
0.0
 10
14.3064
 20
-13.8796
 30
0.0
 10
14.1428
 20
-13.8796
 30
0.0
 10
13.9996
 20
-13.9254
 30
0.0
 10
13.8758
 20
-14.017
 30
0.0
 10
13.8758
 20
-14.017
 30
0.0
 10
13.7141
 20
-14.1349
 30
0.0
 10
13.5865
 20
-14.3073
 30
0.0
 10
13.493
 20
-14.5333
 30
0.0
 10
13.493
 20
-14.5333
 30
0.0
 10
13.4004
 20
-14.7593
 30
0.0
 10
13.3517
 20
-15.0818
 30
0.0
 10
13.3478
 20
-15.5007
 30
0.0
 10
13.3478
 20
-15.5007
 30
0.0
 10
13.4716
 20
-15.3127
 30
0.0
 10
13.6226
 20
-15.1724
 30
0.0
 10
13.8018
 20
-15.0808
 30
0.0
 10
13.8018
 20
-15.0808
 30
0.0
 10
13.9801
 20
-14.9902
 30
0.0
 10
14.1681
 20
-14.9444
 30
0.0
 10
14.3639
 20
-14.9444
 30
0.0
 10
14.3639
 20
-14.9444
 30
0.0
 10
14.7068
 20
-14.9444
 30
0.0
 10
14.9981
 20
-15.0701
 30
0.0
 10
15.2387
 20
-15.3224
 30
0.0
 10
15.2387
 20
-15.3224
 30
0.0
 10
15.4794
 20
-15.5747
 30
0.0
 10
15.6001
 20
-15.9001
 30
0.0
 10
15.6001
 20
-16.2995
 30
0.0
 10
15.6001
 20
-16.2995
 30
0.0
 10
15.6001
 20
-16.5625
 30
0.0
 10
15.5427
 20
-16.8061
 30
0.0
 10
15.4297
 20
-17.0321
 30
0.0
 10
15.4297
 20
-17.0321
 30
0.0
 10
15.3167
 20
-17.2571
 30
0.0
 10
15.1608
 20
-17.4305
 30
0.0
 10
14.963
 20
-17.5504
 30
0.0
 10
14.963
 20
-17.5504
 30
0.0
 10
14.7653
 20
-17.6702
 30
0.0
 10
14.5412
 20
-17.7296
 30
0.0
 10
14.2899
 20
-17.7296
 30
0.0
 10
14.2899
 20
-17.7296
 30
0.0
 10
13.8612
 20
-17.7296
 30
0.0
 10
13.5125
 20
-17.5728
 30
0.0
 10
13.2426
 20
-17.2571
 30
0.0
 10
13.2426
 20
-17.2571
 30
0.0
 10
12.9718
 20
-16.9425
 30
0.0
 10
12.8374
 20
-16.4232
 30
0.0
 10
12.8374
 20
-15.7004
 30
0.0
 10
12.8374
 20
-15.7004
 30
0.0
 10
12.8374
 20
-14.8918
 30
0.0
 10
12.9864
 20
-14.3044
 30
0.0
 10
13.2855
 20
-13.9371
 30
0.0
 10
13.2855
 20
-13.9371
 30
0.0
 10
13.5456
 20
-13.6176
 30
0.0
 10
13.8963
 20
-13.4568
 30
0.0
 10
14.3386
 20
-13.4568
 30
0.0
 10
14.3386
 20
-13.4568
 30
0.0
 10
14.6669
 20
-13.4568
 30
0.0
 10
14.9367
 20
-13.5494
 30
0.0
 10
15.1472
 20
-13.7345
 30
0.0
 10
15.1472
 20
-13.7345
 30
0.0
 10
15.3576
 20
-13.9186
 30
0.0
 10
15.4832
 20
-14.1738
 30
0.0
 10
15.5251
 20
-14.4992
 30
0.0
  0
SPLINE
  5
4C
330
1F
100
AcDbEntity
  8
DEFAULT_1
 62
   250
100
AcDbSpline
210
0.0
220
0.0
230
1.0
 70
    11
 71
     3
 72
    40
 73
    36
 74
     0
 42
0.0000000001
 43
0.0000000001
 40
0.0
 40
0.0
 40
0.0
 40
0.0
 40
0.1
 40
0.1
 40
0.1
 40
0.1
 40
0.2
 40
0.2
 40
0.2
 40
0.2
 40
0.3
 40
0.3
 40
0.3
 40
0.3
 40
0.4
 40
0.4
 40
0.4
 40
0.4
 40
0.5
 40
0.5
 40
0.5
 40
0.5
 40
0.6
 40
0.6
 40
0.6
 40
0.6
 40
0.7
 40
0.7
 40
0.7
 40
0.7
 40
0.8
 40
0.8
 40
0.8
 40
0.8
 40
1.0
 40
1.0
 40
1.0
 40
1.0
 10
13.4277
 20
-16.3024
 30
0.0
 10
13.4277
 20
-16.4797
 30
0.0
 10
13.4657
 20
-16.6492
 30
0.0
 10
13.5407
 20
-16.811
 30
0.0
 10
13.5407
 20
-16.811
 30
0.0
 10
13.6157
 20
-16.9727
 30
0.0
 10
13.7209
 20
-17.0954
 30
0.0
 10
13.8554
 20
-17.1802
 30
0.0
 10
13.8554
 20
-17.1802
 30
0.0
 10
13.9908
 20
-17.2649
 30
0.0
 10
14.133
 20
-17.3078
 30
0.0
 10
14.2811
 20
-17.3078
 30
0.0
 10
14.2811
 20
-17.3078
 30
0.0
 10
14.4983
 20
-17.3078
 30
0.0
 10
14.6844
 20
-17.2201
 30
0.0
 10
14.8403
 20
-17.0448
 30
0.0
 10
14.8403
 20
-17.0448
 30
0.0
 10
14.9962
 20
-16.8694
 30
0.0
 10
15.0741
 20
-16.6317
 30
0.0
 10
15.0741
 20
-16.3317
 30
0.0
 10
15.0741
 20
-16.3317
 30
0.0
 10
15.0741
 20
-16.0423
 30
0.0
 10
14.9971
 20
-15.8144
 30
0.0
 10
14.8432
 20
-15.6478
 30
0.0
 10
14.8432
 20
-15.6478
 30
0.0
 10
14.6893
 20
-15.4812
 30
0.0
 10
14.4954
 20
-15.3984
 30
0.0
 10
14.2616
 20
-15.3984
 30
0.0
 10
14.2616
 20
-15.3984
 30
0.0
 10
14.0288
 20
-15.3984
 30
0.0
 10
13.832
 20
-15.4812
 30
0.0
 10
13.6703
 20
-15.6478
 30
0.0
 10
13.6703
 20
-15.6478
 30
0.0
 10
13.5086
 20
-15.8144
 30
0.0
 10
13.4277
 20
-16.0326
 30
0.0
 10
13.4277
 20
-16.3024
 30
0.0
  0
SPLINE
  5
4D
330
1F
100
AcDbEntity
  8
DEFAULT_1
 62
   250
100
AcDbSpline
210
0.0
220
0.0
230
1.0
 70
    11
 71
     3
 72
    52
 73
    48
 74
     0
 42
0.0000000001
 43
0.0000000001
 40
0.0
 40
0.0
 40
0.0
 40
0.0
 40
0.0769230769230769
 40
0.0769230769230769
 40
0.0769230769230769
 40
0.0769230769230769
 40
0.1538461538461539
 40
0.1538461538461539
 40
0.1538461538461539
 40
0.1538461538461539
 40
0.2307692307692308
 40
0.2307692307692308
 40
0.2307692307692308
 40
0.2307692307692308
 40
0.3076923076923077
 40
0.3076923076923077
 40
0.3076923076923077
 40
0.3076923076923077
 40
0.3846153846153846
 40
0.3846153846153846
 40
0.3846153846153846
 40
0.3846153846153846
 40
0.4615384615384616
 40
0.4615384615384616
 40
0.4615384615384616
 40
0.4615384615384616
 40
0.5384615384615384
 40
0.5384615384615384
 40
0.5384615384615384
 40
0.5384615384615384
 40
0.6153846153846154
 40
0.6153846153846154
 40
0.6153846153846154
 40
0.6153846153846154
 40
0.6923076923076923
 40
0.6923076923076923
 40
0.6923076923076923
 40
0.6923076923076923
 40
0.7692307692307693
 40
0.7692307692307693
 40
0.7692307692307693
 40
0.7692307692307693
 40
0.8461538461538461
 40
0.8461538461538461
 40
0.8461538461538461
 40
0.8461538461538461
 40
1.0
 40
1.0
 40
1.0
 40
1.0
 10
16.1106
 20
-15.5952
 30
0.0
 10
16.1106
 20
-15.1003
 30
0.0
 10
16.1612
 20
-14.7019
 30
0.0
 10
16.2635
 20
-14.4008
 30
0.0
 10
16.2635
 20
-14.4008
 30
0.0
 10
16.3648
 20
-14.0988
 30
0.0
 10
16.5168
 20
-13.866
 30
0.0
 10
16.7175
 20
-13.7023
 30
0.0
 10
16.7175
 20
-13.7023
 30
0.0
 10
16.9182
 20
-13.5387
 30
0.0
 10
17.1705
 20
-13.4568
 30
0.0
 10
17.4744
 20
-13.4568
 30
0.0
 10
17.4744
 20
-13.4568
 30
0.0
 10
17.6995
 20
-13.4568
 30
0.0
 10
17.8962
 20
-13.5026
 30
0.0
 10
18.0658
 20
-13.5932
 30
0.0
 10
18.0658
 20
-13.5932
 30
0.0
 10
18.2353
 20
-13.6829
 30
0.0
 10
18.3746
 20
-13.8134
 30
0.0
 10
18.4856
 20
-13.9839
 30
0.0
 10
18.4856
 20
-13.9839
 30
0.0
 10
18.5957
 20
-14.1544
 30
0.0
 10
18.6824
 20
-14.3619
 30
0.0
 10
18.7448
 20
-14.6064
 30
0.0
 10
18.7448
 20
-14.6064
 30
0.0
 10
18.8081
 20
-14.8509
 30
0.0
 10
18.8393
 20
-15.1802
 30
0.0
 10
18.8393
 20
-15.5952
 30
0.0
 10
18.8393
 20
-15.5952
 30
0.0
 10
18.8393
 20
-16.0862
 30
0.0
 10
18.7886
 20
-16.4817
 30
0.0
 10
18.6883
 20
-16.7837
 30
0.0
 10
18.6883
 20
-16.7837
 30
0.0
 10
18.5869
 20
-17.0857
 30
0.0
 10
18.4359
 20
-17.3185
 30
0.0
 10
18.2353
 20
-17.4831
 30
0.0
 10
18.2353
 20
-17.4831
 30
0.0
 10
18.0346
 20
-17.6478
 30
0.0
 10
17.7813
 20
-17.7296
 30
0.0
 10
17.4744
 20
-17.7296
 30
0.0
 10
17.4744
 20
-17.7296
 30
0.0
 10
17.0711
 20
-17.7296
 30
0.0
 10
16.7545
 20
-17.5854
 30
0.0
 10
16.5246
 20
-17.2961
 30
0.0
 10
16.5246
 20
-17.2961
 30
0.0
 10
16.2489
 20
-16.9483
 30
0.0
 10
16.1106
 20
-16.3804
 30
0.0
 10
16.1106
 20
-15.5952
 30
0.0
  0
SPLINE
  5
4E
330
1F
100
AcDbEntity
  8
DEFAULT_1
 62
   250
100
AcDbSpline
210
0.0
220
0.0
230
1.0
 70
    11
 71
     3
 72
    36
 73
    32
 74
     0
 42
0.0000000001
 43
0.0000000001
 40
0.0
 40
0.0
 40
0.0
 40
0.0
 40
0.1111111111111111
 40
0.1111111111111111
 40
0.1111111111111111
 40
0.1111111111111111
 40
0.2222222222222222
 40
0.2222222222222222
 40
0.2222222222222222
 40
0.2222222222222222
 40
0.3333333333333333
 40
0.3333333333333333
 40
0.3333333333333333
 40
0.3333333333333333
 40
0.4444444444444444
 40
0.4444444444444444
 40
0.4444444444444444
 40
0.4444444444444444
 40
0.5555555555555556
 40
0.5555555555555556
 40
0.5555555555555556
 40
0.5555555555555556
 40
0.6666666666666666
 40
0.6666666666666666
 40
0.6666666666666666
 40
0.6666666666666666
 40
0.7777777777777778
 40
0.7777777777777778
 40
0.7777777777777778
 40
0.7777777777777778
 40
1.0
 40
1.0
 40
1.0
 40
1.0
 10
16.6386
 20
-15.5952
 30
0.0
 10
16.6386
 20
-16.282
 30
0.0
 10
16.7194
 20
-16.7389
 30
0.0
 10
16.8802
 20
-16.9668
 30
0.0
 10
16.8802
 20
-16.9668
 30
0.0
 10
17.0409
 20
-17.1938
 30
0.0
 10
17.2387
 20
-17.3078
 30
0.0
 10
17.4744
 20
-17.3078
 30
0.0
 10
17.4744
 20
-17.3078
 30
0.0
 10
17.7112
 20
-17.3078
 30
0.0
 10
17.9089
 20
-17.1928
 30
0.0
 10
18.0697
 20
-16.9649
 30
0.0
 10
18.0697
 20
-16.9649
 30
0.0
 10
18.2304
 20
-16.7369
 30
0.0
 10
18.3113
 20
-16.28
 30
0.0
 10
18.3113
 20
-15.5952
 30
0.0
 10
18.3113
 20
-15.5952
 30
0.0
 10
18.3113
 20
-14.9064
 30
0.0
 10
18.2304
 20
-14.4486
 30
0.0
 10
18.0697
 20
-14.2226
 30
0.0
 10
18.0697
 20
-14.2226
 30
0.0
 10
17.9089
 20
-13.9956
 30
0.0
 10
17.7092
 20
-13.8826
 30
0.0
 10
17.4696
 20
-13.8826
 30
0.0
 10
17.4696
 20
-13.8826
 30
0.0
 10
17.2328
 20
-13.8826
 30
0.0
 10
17.0448
 20
-13.9829
 30
0.0
 10
16.9036
 20
-14.1826
 30
0.0
 10
16.9036
 20
-14.1826
 30
0.0
 10
16.7272
 20
-14.4369
 30
0.0
 10
16.6386
 20
-14.9084
 30
0.0
 10
16.6386
 20
-15.5952
 30
0.0
  0
SPLINE
  5
4F
330
1F
100
AcDbEntity
  8
DEFAULT_1
 62
   250
100
AcDbSpline
210
0.0
220
0.0
230
1.0
 70
    11
 71
     3
 72
    20
 73
    16
 74
     0
 42
0.0000000001
 43
0.0000000001
 40
0.0
 40
0.0
 40
0.0
 40
0.0
 40
0.2
 40
0.2
 40
0.2
 40
0.2
 40
0.4
 40
0.4
 40
0.4
 40
0.4
 40
0.6
 40
0.6
 40
0.6
 40
0.6
 40
1.0
 40
1.0
 40
1.0
 40
1.0
 10
-53.3362
 20
-18.4155
 30
0.0
 10
-53.3362
 20
-18.4155
 30
0.0
 10
-47.2212
 20
-19.3083
 30
0.0
 10
-47.2212
 20
-19.3083
 30
0.0
 10
-47.2212
 20
-19.3083
 30
0.0
 10
-47.2212
 20
-19.3083
 30
0.0
 10
-47.2212
 20
-17.3374
 30
0.0
 10
-47.2212
 20
-17.3374
 30
0.0
 10
-47.2212
 20
-17.3374
 30
0.0
 10
-47.2212
 20
-17.3374
 30
0.0
 10
-53.3362
 20
-18.4128
 30
0.0
 10
-53.3362
 20
-18.4128
 30
0.0
 10
-53.3362
 20
-18.4128
 30
0.0
 10
-53.3362
 20
-18.4128
 30
0.0
 10
-53.3362
 20
-18.4155
 30
0.0
 10
-53.3362
 20
-18.4155
 30
0.0
  0
SPLINE
  5
50
330
1F
100
AcDbEntity
  8
DEFAULT_1
 62
   250
100
AcDbSpline
210
0.0
220
0.0
230
1.0
 70
    11
 71
     3
 72
    20
 73
    16
 74
     0
 42
0.0000000001
 43
0.0000000001
 40
0.0
 40
0.0
 40
0.0
 40
0.0
 40
0.2
 40
0.2
 40
0.2
 40
0.2
 40
0.4
 40
0.4
 40
0.4
 40
0.4
 40
0.6
 40
0.6
 40
0.6
 40
0.6
 40
1.0
 40
1.0
 40
1.0
 40
1.0
 10
54.9227
 20
-18.4036
 30
0.0
 10
54.9227
 20
-18.4036
 30
0.0
 10
48.8077
 20
-17.5107
 30
0.0
 10
48.8077
 20
-17.5107
 30
0.0
 10
48.8077
 20
-17.5107
 30
0.0
 10
48.8077
 20
-17.5107
 30
0.0
 10
48.8077
 20
-19.4817
 30
0.0
 10
48.8077
 20
-19.4817
 30
0.0
 10
48.8077
 20
-19.4817
 30
0.0
 10
48.8077
 20
-19.4817
 30
0.0
 10
54.9227
 20
-18.4063
 30
0.0
 10
54.9227
 20
-18.4063
 30
0.0
 10
54.9227
 20
-18.4063
 30
0.0
 10
54.9227
 20
-18.4063
 30
0.0
 10
54.9227
 20
-18.4036
 30
0.0
 10
54.9227
 20
-18.4036
 30
0.0
  0
SPLINE
  5
51
330
1F
100
AcDbEntity
  8
DEFAULT_1
 62
   250
100
AcDbSpline
210
0.0
220
0.0
230
1.0
 70
    24
 71
     3
 72
     8
 73
     4
 74
     0
 42
0.0000000001
 43
0.0000000001
 40
0.0
 40
0.0
 40
0.0
 40
0.0
 40
1.0
 40
1.0
 40
1.0
 40
1.0
 10
53.6202
 20
-18.4084
 30
0.0
 10
53.6202
 20
-18.4084
 30
0.0
 10
-52.1283
 20
-18.4084
 30
0.0
 10
-52.1283
 20
-18.4084
 30
0.0
  0
SPLINE
  5
52
330
1F
100
AcDbEntity
  8
DEFAULT_1
 62
   250
100
AcDbSpline
210
0.0
220
0.0
230
1.0
 70
    24
 71
     3
 72
     8
 73
     4
 74
     0
 42
0.0000000001
 43
0.0000000001
 40
0.0
 40
0.0
 40
0.0
 40
0.0
 40
1.0
 40
1.0
 40
1.0
 40
1.0
 10
-53.4108
 20
-18.9001
 30
0.0
 10
-53.4108
 20
-18.9001
 30
0.0
 10
-53.4108
 20
-10.7229
 30
0.0
 10
-53.4108
 20
-10.7229
 30
0.0
  0
SPLINE
  5
53
330
1F
100
AcDbEntity
  8
DEFAULT_1
 62
   250
100
AcDbSpline
210
0.0
220
0.0
230
1.0
 70
    24
 71
     3
 72
     8
 73
     4
 74
     0
 42
0.0000000001
 43
0.0000000001
 40
0.0
 40
0.0
 40
0.0
 40
0.0
 40
1.0
 40
1.0
 40
1.0
 40
1.0
 10
55.0869
 20
-19.0787
 30
0.0
 10
55.0869
 20
-19.0787
 30
0.0
 10
55.0869
 20
-10.6528
 30
0.0
 10
55.0869
 20
-10.6528
 30
0.0
  0
SPLINE
  5
54
330
1F
100
AcDbEntity
  8
DEFAULT_1
 62
   250
100
AcDbSpline
210
0.0
220
0.0
230
1.0
 70
    24
 71
     3
 72
     8
 73
     4
 74
     0
 42
0.0000000001
 43
0.0000000001
 40
0.0
 40
0.0
 40
0.0
 40
0.0
 40
1.0
 40
1.0
 40
1.0
 40
1.0
 10
-53.9456
 20
-9.3876
 30
0.0
 10
-53.9456
 20
-9.3876
 30
0.0
 10
-58.7017
 20
-9.3876
 30
0.0
 10
-58.7017
 20
-9.3876
 30
0.0
  0
SPLINE
  5
55
330
1F
100
AcDbEntity
  8
DEFAULT_1
 62
   250
100
AcDbSpline
210
0.0
220
0.0
230
1.0
 70
    24
 71
     3
 72
     8
 73
     4
 74
     0
 42
0.0000000001
 43
0.0000000001
 40
0.0
 40
0.0
 40
0.0
 40
0.0
 40
1.0
 40
1.0
 40
1.0
 40
1.0
 10
-58.7346
 20
6.1164
 30
0.0
 10
-58.7346
 20
6.1164
 30
0.0
 10
-53.9804
 20
6.1164
 30
0.0
 10
-53.9804
 20
6.1164
 30
0.0
  0
SPLINE
  5
56
330
1F
100
AcDbEntity
  8
DEFAULT_1
 62
   250
100
AcDbSpline
210
0.0
220
0.0
230
1.0
 70
    11
 71
     3
 72
    84
 73
    80
 74
     0
 42
0.0000000001
 43
0.0000000001
 40
0.0
 40
0.0
 40
0.0
 40
0.0
 40
0.0476190476190476
 40
0.0476190476190476
 40
0.0476190476190476
 40
0.0476190476190476
 40
0.0952380952380952
 40
0.0952380952380952
 40
0.0952380952380952
 40
0.0952380952380952
 40
0.1428571428571428
 40
0.1428571428571428
 40
0.1428571428571428
 40
0.1428571428571428
 40
0.1904761904761905
 40
0.1904761904761905
 40
0.1904761904761905
 40
0.1904761904761905
 40
0.2380952380952381
 40
0.2380952380952381
 40
0.2380952380952381
 40
0.2380952380952381
 40
0.2857142857142857
 40
0.2857142857142857
 40
0.2857142857142857
 40
0.2857142857142857
 40
0.3333333333333333
 40
0.3333333333333333
 40
0.3333333333333333
 40
0.3333333333333333
 40
0.3809523809523809
 40
0.3809523809523809
 40
0.3809523809523809
 40
0.3809523809523809
 40
0.4285714285714285
 40
0.4285714285714285
 40
0.4285714285714285
 40
0.4285714285714285
 40
0.4761904761904762
 40
0.4761904761904762
 40
0.4761904761904762
 40
0.4761904761904762
 40
0.5238095238095238
 40
0.5238095238095238
 40
0.5238095238095238
 40
0.5238095238095238
 40
0.5714285714285714
 40
0.5714285714285714
 40
0.5714285714285714
 40
0.5714285714285714
 40
0.6190476190476191
 40
0.6190476190476191
 40
0.6190476190476191
 40
0.6190476190476191
 40
0.6666666666666666
 40
0.6666666666666666
 40
0.6666666666666666
 40
0.6666666666666666
 40
0.7142857142857143
 40
0.7142857142857143
 40
0.7142857142857143
 40
0.7142857142857143
 40
0.7619047619047619
 40
0.7619047619047619
 40
0.7619047619047619
 40
0.7619047619047619
 40
0.8095238095238095
 40
0.8095238095238095
 40
0.8095238095238095
 40
0.8095238095238095
 40
0.8571428571428571
 40
0.8571428571428571
 40
0.8571428571428571
 40
0.8571428571428571
 40
0.9047619047619048
 40
0.9047619047619048
 40
0.9047619047619048
 40
0.9047619047619048
 40
1.0
 40
1.0
 40
1.0
 40
1.0
 10
-35.0138
 20
12.2807
 30
0.0
 10
-35.0138
 20
12.2807
 30
0.0
 10
-35.5505
 20
12.76
 30
0.0
 10
-35.5505
 20
12.76
 30
0.0
 10
-35.5505
 20
12.76
 30
0.0
 10
-35.5505
 20
12.76
 30
0.0
 10
-35.3109
 20
13.0425
 30
0.0
 10
-35.3109
 20
13.0425
 30
0.0
 10
-35.3109
 20
13.0425
 30
0.0
 10
-35.3109
 20
13.0425
 30
0.0
 10
-34.7459
 20
12.5408
 30
0.0
 10
-34.7459
 20
12.5408
 30
0.0
 10
-34.7459
 20
12.5408
 30
0.0
 10
-34.5023
 20
12.7044
 30
0.0
 10
-34.289
 20
12.8145
 30
0.0
 10
-34.1068
 20
12.872
 30
0.0
 10
-34.1068
 20
12.872
 30
0.0
 10
-33.8671
 20
12.948
 30
0.0
 10
-33.5983
 20
12.986
 30
0.0
 10
-33.3021
 20
12.986
 30
0.0
 10
-33.3021
 20
12.986
 30
0.0
 10
-32.8735
 20
12.986
 30
0.0
 10
-32.4916
 20
12.8993
 30
0.0
 10
-32.1575
 20
12.7259
 30
0.0
 10
-32.1575
 20
12.7259
 30
0.0
 10
-31.8223
 20
12.5525
 30
0.0
 10
-31.5691
 20
12.3099
 30
0.0
 10
-31.3976
 20
11.9972
 30
0.0
 10
-31.3976
 20
11.9972
 30
0.0
 10
-31.2271
 20
11.6835
 30
0.0
 10
-31.1414
 20
11.3513
 30
0.0
 10
-31.1414
 20
10.9996
 30
0.0
 10
-31.1414
 20
10.9996
 30
0.0
 10
-31.1414
 20
10.7366
 30
0.0
 10
-31.1784
 20
10.4989
 30
0.0
 10
-31.2524
 20
10.2855
 30
0.0
 10
-31.2524
 20
10.2855
 30
0.0
 10
-31.3099
 20
10.1219
 30
0.0
 10
-31.419
 20
9.9309
 30
0.0
 10
-31.5807
 20
9.7117
 30
0.0
 10
-31.5807
 20
9.7117
 30
0.0
 10
-31.5807
 20
9.7117
 30
0.0
 10
-31.044
 20
9.2324
 30
0.0
 10
-31.044
 20
9.2324
 30
0.0
 10
-31.044
 20
9.2324
 30
0.0
 10
-31.044
 20
9.2324
 30
0.0
 10
-31.2836
 20
8.9499
 30
0.0
 10
-31.2836
 20
8.9499
 30
0.0
 10
-31.2836
 20
8.9499
 30
0.0
 10
-31.2836
 20
8.9499
 30
0.0
 10
-31.8457
 20
9.4526
 30
0.0
 10
-31.8457
 20
9.4526
 30
0.0
 10
-31.8457
 20
9.4526
 30
0.0
 10
-32.1292
 20
9.2656
 30
0.0
 10
-32.3718
 20
9.1409
 30
0.0
 10
-32.5725
 20
9.0785
 30
0.0
 10
-32.5725
 20
9.0785
 30
0.0
 10
-32.7731
 20
9.0162
 30
0.0
 10
-33.0147
 20
8.984
 30
0.0
 10
-33.2963
 20
8.984
 30
0.0
 10
-33.2963
 20
8.984
 30
0.0
 10
-33.7259
 20
8.984
 30
0.0
 10
-34.1087
 20
9.0698
 30
0.0
 10
-34.4448
 20
9.2412
 30
0.0
 10
-34.4448
 20
9.2412
 30
0.0
 10
-34.7809
 20
9.4127
 30
0.0
 10
-35.0352
 20
9.6523
 30
0.0
 10
-35.2086
 20
9.9621
 30
0.0
 10
-35.2086
 20
9.9621
 30
0.0
 10
-35.381
 20
10.2709
 30
0.0
 10
-35.4677
 20
10.6148
 30
0.0
 10
-35.4677
 20
10.9938
 30
0.0
 10
-35.4677
 20
10.9938
 30
0.0
 10
-35.4677
 20
11.249
 30
0.0
 10
-35.4346
 20
11.4721
 30
0.0
 10
-35.3664
 20
11.663
 30
0.0
 10
-35.3664
 20
11.663
 30
0.0
 10
-35.2992
 20
11.854
 30
0.0
 10
-35.1813
 20
12.0605
 30
0.0
 10
-35.0138
 20
12.2807
 30
0.0
  0
SPLINE
  5
57
330
1F
100
AcDbEntity
  8
DEFAULT_1
 62
   250
100
AcDbSpline
210
0.0
220
0.0
230
1.0
 70
    11
 71
     3
 72
    32
 73
    28
 74
     0
 42
0.0000000001
 43
0.0000000001
 40
0.0
 40
0.0
 40
0.0
 40
0.0
 40
0.125
 40
0.125
 40
0.125
 40
0.125
 40
0.25
 40
0.25
 40
0.25
 40
0.25
 40
0.375
 40
0.375
 40
0.375
 40
0.375
 40
0.5
 40
0.5
 40
0.5
 40
0.5
 40
0.625
 40
0.625
 40
0.625
 40
0.625
 40
0.75
 40
0.75
 40
0.75
 40
0.75
 40
1.0
 40
1.0
 40
1.0
 40
1.0
 10
-34.629
 20
11.9387
 30
0.0
 10
-34.7692
 20
11.7595
 30
0.0
 10
-34.8657
 20
11.6026
 30
0.0
 10
-34.9173
 20
11.4692
 30
0.0
 10
-34.9173
 20
11.4692
 30
0.0
 10
-34.968
 20
11.3347
 30
0.0
 10
-34.9943
 20
11.1769
 30
0.0
 10
-34.9943
 20
10.9967
 30
0.0
 10
-34.9943
 20
10.9967
 30
0.0
 10
-34.9943
 20
10.5797
 30
0.0
 10
-34.853
 20
10.2358
 30
0.0
 10
-34.5705
 20
9.9631
 30
0.0
 10
-34.5705
 20
9.9631
 30
0.0
 10
-34.288
 20
9.6913
 30
0.0
 10
-33.8662
 20
9.5549
 30
0.0
 10
-33.3041
 20
9.5549
 30
0.0
 10
-33.3041
 20
9.5549
 30
0.0
 10
-33.0839
 20
9.5549
 30
0.0
 10
-32.8881
 20
9.5763
 30
0.0
 10
-32.7166
 20
9.6182
 30
0.0
 10
-32.7166
 20
9.6182
 30
0.0
 10
-32.589
 20
9.6484
 30
0.0
 10
-32.4322
 20
9.7117
 30
0.0
 10
-32.2461
 20
9.8092
 30
0.0
 10
-32.2461
 20
9.8092
 30
0.0
 10
-32.2461
 20
9.8092
 30
0.0
 10
-34.629
 20
11.9387
 30
0.0
 10
-34.629
 20
11.9387
 30
0.0
  0
SPLINE
  5
58
330
1F
100
AcDbEntity
  8
DEFAULT_1
 62
   250
100
AcDbSpline
210
0.0
220
0.0
230
1.0
 70
    11
 71
     3
 72
    28
 73
    24
 74
     0
 42
0.0000000001
 43
0.0000000001
 40
0.0
 40
0.0
 40
0.0
 40
0.0
 40
0.1428571428571428
 40
0.1428571428571428
 40
0.1428571428571428
 40
0.1428571428571428
 40
0.2857142857142857
 40
0.2857142857142857
 40
0.2857142857142857
 40
0.2857142857142857
 40
0.4285714285714285
 40
0.4285714285714285
 40
0.4285714285714285
 40
0.4285714285714285
 40
0.5714285714285714
 40
0.5714285714285714
 40
0.5714285714285714
 40
0.5714285714285714
 40
0.7142857142857143
 40
0.7142857142857143
 40
0.7142857142857143
 40
0.7142857142857143
 40
1.0
 40
1.0
 40
1.0
 40
1.0
 10
-34.3348
 20
12.1725
 30
0.0
 10
-34.3348
 20
12.1725
 30
0.0
 10
-31.9607
 20
10.0517
 30
0.0
 10
-31.9607
 20
10.0517
 30
0.0
 10
-31.9607
 20
10.0517
 30
0.0
 10
-31.8408
 20
10.1979
 30
0.0
 10
-31.7571
 20
10.3333
 30
0.0
 10
-31.7093
 20
10.457
 30
0.0
 10
-31.7093
 20
10.457
 30
0.0
 10
-31.646
 20
10.6187
 30
0.0
 10
-31.6148
 20
10.7941
 30
0.0
 10
-31.6148
 20
10.9821
 30
0.0
 10
-31.6148
 20
10.9821
 30
0.0
 10
-31.6148
 20
11.3971
 30
0.0
 10
-31.761
 20
11.739
 30
0.0
 10
-32.0542
 20
12.0098
 30
0.0
 10
-32.0542
 20
12.0098
 30
0.0
 10
-32.3474
 20
12.2797
 30
0.0
 10
-32.7585
 20
12.4151
 30
0.0
 10
-33.2875
 20
12.4151
 30
0.0
 10
-33.2875
 20
12.4151
 30
0.0
 10
-33.683
 20
12.4151
 30
0.0
 10
-34.0328
 20
12.3342
 30
0.0
 10
-34.3348
 20
12.1725
 30
0.0
  0
SPLINE
  5
59
330
1F
100
AcDbEntity
  8
DEFAULT_1
 62
   250
100
AcDbSpline
210
0.0
220
0.0
230
1.0
 70
    11
 71
     3
 72
    48
 73
    44
 74
     0
 42
0.0000000001
 43
0.0000000001
 40
0.0
 40
0.0
 40
0.0
 40
0.0
 40
0.0833333333333333
 40
0.0833333333333333
 40
0.0833333333333333
 40
0.0833333333333333
 40
0.1666666666666667
 40
0.1666666666666667
 40
0.1666666666666667
 40
0.1666666666666667
 40
0.25
 40
0.25
 40
0.25
 40
0.25
 40
0.3333333333333333
 40
0.3333333333333333
 40
0.3333333333333333
 40
0.3333333333333333
 40
0.4166666666666667
 40
0.4166666666666667
 40
0.4166666666666667
 40
0.4166666666666667
 40
0.5
 40
0.5
 40
0.5
 40
0.5
 40
0.5833333333333334
 40
0.5833333333333334
 40
0.5833333333333334
 40
0.5833333333333334
 40
0.6666666666666666
 40
0.6666666666666666
 40
0.6666666666666666
 40
0.6666666666666666
 40
0.75
 40
0.75
 40
0.75
 40
0.75
 40
0.8333333333333334
 40
0.8333333333333334
 40
0.8333333333333334
 40
0.8333333333333334
 40
1.0
 40
1.0
 40
1.0
 40
1.0
 10
-31.2125
 20
15.1486
 30
0.0
 10
-31.2125
 20
15.1486
 30
0.0
 10
-32.214
 20
15.1486
 30
0.0
 10
-32.214
 20
15.1486
 30
0.0
 10
-32.214
 20
15.1486
 30
0.0
 10
-32.214
 20
15.1486
 30
0.0
 10
-32.214
 20
13.3337
 30
0.0
 10
-32.214
 20
13.3337
 30
0.0
 10
-32.214
 20
13.3337
 30
0.0
 10
-32.214
 20
13.3337
 30
0.0
 10
-32.6855
 20
13.3337
 30
0.0
 10
-32.6855
 20
13.3337
 30
0.0
 10
-32.6855
 20
13.3337
 30
0.0
 10
-32.6855
 20
13.3337
 30
0.0
 10
-35.3966
 20
15.2431
 30
0.0
 10
-35.3966
 20
15.2431
 30
0.0
 10
-35.3966
 20
15.2431
 30
0.0
 10
-35.3966
 20
15.2431
 30
0.0
 10
-35.3966
 20
15.663
 30
0.0
 10
-35.3966
 20
15.663
 30
0.0
 10
-35.3966
 20
15.663
 30
0.0
 10
-35.3966
 20
15.663
 30
0.0
 10
-32.6855
 20
15.663
 30
0.0
 10
-32.6855
 20
15.663
 30
0.0
 10
-32.6855
 20
15.663
 30
0.0
 10
-32.6855
 20
15.663
 30
0.0
 10
-32.6855
 20
16.228
 30
0.0
 10
-32.6855
 20
16.228
 30
0.0
 10
-32.6855
 20
16.228
 30
0.0
 10
-32.6855
 20
16.228
 30
0.0
 10
-32.214
 20
16.228
 30
0.0
 10
-32.214
 20
16.228
 30
0.0
 10
-32.214
 20
16.228
 30
0.0
 10
-32.214
 20
16.228
 30
0.0
 10
-32.214
 20
15.663
 30
0.0
 10
-32.214
 20
15.663
 30
0.0
 10
-32.214
 20
15.663
 30
0.0
 10
-32.214
 20
15.663
 30
0.0
 10
-31.2125
 20
15.663
 30
0.0
 10
-31.2125
 20
15.663
 30
0.0
 10
-31.2125
 20
15.663
 30
0.0
 10
-31.2125
 20
15.663
 30
0.0
 10
-31.2125
 20
15.1486
 30
0.0
 10
-31.2125
 20
15.1486
 30
0.0
  0
SPLINE
  5
5A
330
1F
100
AcDbEntity
  8
DEFAULT_1
 62
   250
100
AcDbSpline
210
0.0
220
0.0
230
1.0
 70
    11
 71
     3
 72
    16
 73
    12
 74
     0
 42
0.0000000001
 43
0.0000000001
 40
0.0
 40
0.0
 40
0.0
 40
0.0
 40
0.25
 40
0.25
 40
0.25
 40
0.25
 40
0.5
 40
0.5
 40
0.5
 40
0.5
 40
1.0
 40
1.0
 40
1.0
 40
1.0
 10
-32.6855
 20
15.1486
 30
0.0
 10
-32.6855
 20
15.1486
 30
0.0
 10
-34.5715
 20
15.1486
 30
0.0
 10
-34.5715
 20
15.1486
 30
0.0
 10
-34.5715
 20
15.1486
 30
0.0
 10
-34.5715
 20
15.1486
 30
0.0
 10
-32.6855
 20
13.8393
 30
0.0
 10
-32.6855
 20
13.8393
 30
0.0
 10
-32.6855
 20
13.8393
 30
0.0
 10
-32.6855
 20
13.8393
 30
0.0
 10
-32.6855
 20
15.1486
 30
0.0
 10
-32.6855
 20
15.1486
 30
0.0
  0
SPLINE
  5
5B
330
1F
100
AcDbEntity
  8
DEFAULT_1
 62
   250
100
AcDbSpline
210
0.0
220
0.0
230
1.0
 70
    11
 71
     3
 72
    52
 73
    48
 74
     0
 42
0.0000000001
 43
0.0000000001
 40
0.0
 40
0.0
 40
0.0
 40
0.0
 40
0.0769230769230769
 40
0.0769230769230769
 40
0.0769230769230769
 40
0.0769230769230769
 40
0.1538461538461539
 40
0.1538461538461539
 40
0.1538461538461539
 40
0.1538461538461539
 40
0.2307692307692308
 40
0.2307692307692308
 40
0.2307692307692308
 40
0.2307692307692308
 40
0.3076923076923077
 40
0.3076923076923077
 40
0.3076923076923077
 40
0.3076923076923077
 40
0.3846153846153846
 40
0.3846153846153846
 40
0.3846153846153846
 40
0.3846153846153846
 40
0.4615384615384616
 40
0.4615384615384616
 40
0.4615384615384616
 40
0.4615384615384616
 40
0.5384615384615384
 40
0.5384615384615384
 40
0.5384615384615384
 40
0.5384615384615384
 40
0.6153846153846154
 40
0.6153846153846154
 40
0.6153846153846154
 40
0.6153846153846154
 40
0.6923076923076923
 40
0.6923076923076923
 40
0.6923076923076923
 40
0.6923076923076923
 40
0.7692307692307693
 40
0.7692307692307693
 40
0.7692307692307693
 40
0.7692307692307693
 40
0.8461538461538461
 40
0.8461538461538461
 40
0.8461538461538461
 40
0.8461538461538461
 40
1.0
 40
1.0
 40
1.0
 40
1.0
 10
-33.2758
 20
16.7531
 30
0.0
 10
-33.7707
 20
16.7531
 30
0.0
 10
-34.1691
 20
16.8037
 30
0.0
 10
-34.4702
 20
16.906
 30
0.0
 10
-34.4702
 20
16.906
 30
0.0
 10
-34.7722
 20
17.0073
 30
0.0
 10
-35.005
 20
17.1593
 30
0.0
 10
-35.1687
 20
17.36
 30
0.0
 10
-35.1687
 20
17.36
 30
0.0
 10
-35.3323
 20
17.5607
 30
0.0
 10
-35.4142
 20
17.813
 30
0.0
 10
-35.4142
 20
18.1169
 30
0.0
 10
-35.4142
 20
18.1169
 30
0.0
 10
-35.4142
 20
18.342
 30
0.0
 10
-35.3684
 20
18.5387
 30
0.0
 10
-35.2778
 20
18.7083
 30
0.0
 10
-35.2778
 20
18.7083
 30
0.0
 10
-35.1881
 20
18.8778
 30
0.0
 10
-35.0576
 20
19.0171
 30
0.0
 10
-34.8871
 20
19.1281
 30
0.0
 10
-34.8871
 20
19.1281
 30
0.0
 10
-34.7166
 20
19.2382
 30
0.0
 10
-34.5091
 20
19.3249
 30
0.0
 10
-34.2646
 20
19.3873
 30
0.0
 10
-34.2646
 20
19.3873
 30
0.0
 10
-34.0201
 20
19.4506
 30
0.0
 10
-33.6908
 20
19.4818
 30
0.0
 10
-33.2758
 20
19.4818
 30
0.0
 10
-33.2758
 20
19.4818
 30
0.0
 10
-32.7848
 20
19.4818
 30
0.0
 10
-32.3893
 20
19.4311
 30
0.0
 10
-32.0873
 20
19.3308
 30
0.0
 10
-32.0873
 20
19.3308
 30
0.0
 10
-31.7853
 20
19.2294
 30
0.0
 10
-31.5525
 20
19.0784
 30
0.0
 10
-31.3879
 20
18.8778
 30
0.0
 10
-31.3879
 20
18.8778
 30
0.0
 10
-31.2232
 20
18.6771
 30
0.0
 10
-31.1414
 20
18.4238
 30
0.0
 10
-31.1414
 20
18.1169
 30
0.0
 10
-31.1414
 20
18.1169
 30
0.0
 10
-31.1414
 20
17.7136
 30
0.0
 10
-31.2856
 20
17.397
 30
0.0
 10
-31.5749
 20
17.1671
 30
0.0
 10
-31.5749
 20
17.1671
 30
0.0
 10
-31.9227
 20
16.8914
 30
0.0
 10
-32.4906
 20
16.7531
 30
0.0
 10
-33.2758
 20
16.7531
 30
0.0
  0
SPLINE
  5
5C
330
1F
100
AcDbEntity
  8
DEFAULT_1
 62
   250
100
AcDbSpline
210
0.0
220
0.0
230
1.0
 70
    11
 71
     3
 72
    36
 73
    32
 74
     0
 42
0.0000000001
 43
0.0000000001
 40
0.0
 40
0.0
 40
0.0
 40
0.0
 40
0.1111111111111111
 40
0.1111111111111111
 40
0.1111111111111111
 40
0.1111111111111111
 40
0.2222222222222222
 40
0.2222222222222222
 40
0.2222222222222222
 40
0.2222222222222222
 40
0.3333333333333333
 40
0.3333333333333333
 40
0.3333333333333333
 40
0.3333333333333333
 40
0.4444444444444444
 40
0.4444444444444444
 40
0.4444444444444444
 40
0.4444444444444444
 40
0.5555555555555556
 40
0.5555555555555556
 40
0.5555555555555556
 40
0.5555555555555556
 40
0.6666666666666666
 40
0.6666666666666666
 40
0.6666666666666666
 40
0.6666666666666666
 40
0.7777777777777778
 40
0.7777777777777778
 40
0.7777777777777778
 40
0.7777777777777778
 40
1.0
 40
1.0
 40
1.0
 40
1.0
 10
-33.2758
 20
17.2811
 30
0.0
 10
-32.589
 20
17.2811
 30
0.0
 10
-32.1321
 20
17.3619
 30
0.0
 10
-31.9042
 20
17.5227
 30
0.0
 10
-31.9042
 20
17.5227
 30
0.0
 10
-31.6772
 20
17.6834
 30
0.0
 10
-31.5632
 20
17.8812
 30
0.0
 10
-31.5632
 20
18.1169
 30
0.0
 10
-31.5632
 20
18.1169
 30
0.0
 10
-31.5632
 20
18.3537
 30
0.0
 10
-31.6782
 20
18.5514
 30
0.0
 10
-31.9061
 20
18.7122
 30
0.0
 10
-31.9061
 20
18.7122
 30
0.0
 10
-32.1341
 20
18.8729
 30
0.0
 10
-32.591
 20
18.9538
 30
0.0
 10
-33.2758
 20
18.9538
 30
0.0
 10
-33.2758
 20
18.9538
 30
0.0
 10
-33.9646
 20
18.9538
 30
0.0
 10
-34.4224
 20
18.8729
 30
0.0
 10
-34.6484
 20
18.7122
 30
0.0
 10
-34.6484
 20
18.7122
 30
0.0
 10
-34.8754
 20
18.5514
 30
0.0
 10
-34.9884
 20
18.3517
 30
0.0
 10
-34.9884
 20
18.1121
 30
0.0
 10
-34.9884
 20
18.1121
 30
0.0
 10
-34.9884
 20
17.8753
 30
0.0
 10
-34.8881
 20
17.6873
 30
0.0
 10
-34.6884
 20
17.5461
 30
0.0
 10
-34.6884
 20
17.5461
 30
0.0
 10
-34.4341
 20
17.3697
 30
0.0
 10
-33.9626
 20
17.2811
 30
0.0
 10
-33.2758
 20
17.2811
 30
0.0
  0
SPLINE
  5
5D
330
1F
100
AcDbEntity
  8
DEFAULT_1
 62
   250
100
AcDbSpline
210
0.0
220
0.0
230
1.0
 70
    11
 71
     3
 72
    20
 73
    16
 74
     0
 42
0.0000000001
 43
0.0000000001
 40
0.0
 40
0.0
 40
0.0
 40
0.0
 40
0.2
 40
0.2
 40
0.2
 40
0.2
 40
0.4
 40
0.4
 40
0.4
 40
0.4
 40
0.6
 40
0.6
 40
0.6
 40
0.6
 40
1.0
 40
1.0
 40
1.0
 40
1.0
 10
-29.6828
 20
4.8128
 30
0.0
 10
-29.6828
 20
4.8128
 30
0.0
 10
-28.7899
 20
10.9278
 30
0.0
 10
-28.7899
 20
10.9278
 30
0.0
 10
-28.7899
 20
10.9278
 30
0.0
 10
-28.7899
 20
10.9278
 30
0.0
 10
-30.7609
 20
10.9278
 30
0.0
 10
-30.7609
 20
10.9278
 30
0.0
 10
-30.7609
 20
10.9278
 30
0.0
 10
-30.7609
 20
10.9278
 30
0.0
 10
-29.6855
 20
4.8128
 30
0.0
 10
-29.6855
 20
4.8128
 30
0.0
 10
-29.6855
 20
4.8128
 30
0.0
 10
-29.6855
 20
4.8128
 30
0.0
 10
-29.6828
 20
4.8128
 30
0.0
 10
-29.6828
 20
4.8128
 30
0.0
  0
SPLINE
  5
5E
330
1F
100
AcDbEntity
  8
DEFAULT_1
 62
   250
100
AcDbSpline
210
0.0
220
0.0
230
1.0
 70
    11
 71
     3
 72
    20
 73
    16
 74
     0
 42
0.0000000001
 43
0.0000000001
 40
0.0
 40
0.0
 40
0.0
 40
0.0
 40
0.2
 40
0.2
 40
0.2
 40
0.2
 40
0.4
 40
0.4
 40
0.4
 40
0.4
 40
0.6
 40
0.6
 40
0.6
 40
0.6
 40
1.0
 40
1.0
 40
1.0
 40
1.0
 10
-29.6769
 20
-8.0178
 30
0.0
 10
-29.6769
 20
-8.0178
 30
0.0
 10
-30.5698
 20
-14.1328
 30
0.0
 10
-30.5698
 20
-14.1328
 30
0.0
 10
-30.5698
 20
-14.1328
 30
0.0
 10
-30.5698
 20
-14.1328
 30
0.0
 10
-28.5988
 20
-14.1328
 30
0.0
 10
-28.5988
 20
-14.1328
 30
0.0
 10
-28.5988
 20
-14.1328
 30
0.0
 10
-28.5988
 20
-14.1328
 30
0.0
 10
-29.6742
 20
-8.0178
 30
0.0
 10
-29.6742
 20
-8.0178
 30
0.0
 10
-29.6742
 20
-8.0178
 30
0.0
 10
-29.6742
 20
-8.0178
 30
0.0
 10
-29.6769
 20
-8.0178
 30
0.0
 10
-29.6769
 20
-8.0178
 30
0.0
  0
SPLINE
  5
5F
330
1F
100
AcDbEntity
  8
DEFAULT_1
 62
   250
100
AcDbSpline
210
0.0
220
0.0
230
1.0
 70
    24
 71
     3
 72
     8
 73
     4
 74
     0
 42
0.0000000001
 43
0.0000000001
 40
0.0
 40
0.0
 40
0.0
 40
0.0
 40
1.0
 40
1.0
 40
1.0
 40
1.0
 10
-29.6776
 20
19.4612
 30
0.0
 10
-29.6776
 20
19.4612
 30
0.0
 10
-29.6776
 20
-15.1045
 30
0.0
 10
-29.6776
 20
-15.1045
 30
0.0
  0
SPLINE
  5
60
330
1F
100
AcDbEntity
  8
DEFAULT_1
 62
   250
100
AcDbSpline
210
0.0
220
0.0
230
1.0
 70
    24
 71
     3
 72
     8
 73
     4
 74
     0
 42
0.0000000001
 43
0.0000000001
 40
0.0
 40
0.0
 40
0.0
 40
0.0
 40
1.0
 40
1.0
 40
1.0
 40
1.0
 10
62.9647
 20
-9.5607
 30
0.0
 10
62.9647
 20
-9.5607
 30
0.0
 10
55.942
 20
-9.5607
 30
0.0
 10
55.942
 20
-9.5607
 30
0.0
  0
SPLINE
  5
61
330
1F
100
AcDbEntity
  8
DEFAULT_1
 62
   250
100
AcDbSpline
210
0.0
220
0.0
230
1.0
 70
    24
 71
     3
 72
     8
 73
     4
 74
     0
 42
0.0000000001
 43
0.0000000001
 40
0.0
 40
0.0
 40
0.0
 40
0.0
 40
1.0
 40
1.0
 40
1.0
 40
1.0
 10
55.7426
 20
6.134
 30
0.0
 10
55.7426
 20
6.134
 30
0.0
 10
62.8965
 20
6.134
 30
0.0
 10
62.8965
 20
6.134
 30
0.0
  0
SPLINE
  5
62
330
1F
100
AcDbEntity
  8
DEFAULT_1
 62
   250
100
AcDbSpline
210
0.0
220
0.0
230
1.0
 70
    11
 71
     3
 72
    84
 73
    80
 74
     0
 42
0.0000000001
 43
0.0000000001
 40
0.0
 40
0.0
 40
0.0
 40
0.0
 40
0.0476190476190476
 40
0.0476190476190476
 40
0.0476190476190476
 40
0.0476190476190476
 40
0.0952380952380952
 40
0.0952380952380952
 40
0.0952380952380952
 40
0.0952380952380952
 40
0.1428571428571428
 40
0.1428571428571428
 40
0.1428571428571428
 40
0.1428571428571428
 40
0.1904761904761905
 40
0.1904761904761905
 40
0.1904761904761905
 40
0.1904761904761905
 40
0.2380952380952381
 40
0.2380952380952381
 40
0.2380952380952381
 40
0.2380952380952381
 40
0.2857142857142857
 40
0.2857142857142857
 40
0.2857142857142857
 40
0.2857142857142857
 40
0.3333333333333333
 40
0.3333333333333333
 40
0.3333333333333333
 40
0.3333333333333333
 40
0.3809523809523809
 40
0.3809523809523809
 40
0.3809523809523809
 40
0.3809523809523809
 40
0.4285714285714285
 40
0.4285714285714285
 40
0.4285714285714285
 40
0.4285714285714285
 40
0.4761904761904762
 40
0.4761904761904762
 40
0.4761904761904762
 40
0.4761904761904762
 40
0.5238095238095238
 40
0.5238095238095238
 40
0.5238095238095238
 40
0.5238095238095238
 40
0.5714285714285714
 40
0.5714285714285714
 40
0.5714285714285714
 40
0.5714285714285714
 40
0.6190476190476191
 40
0.6190476190476191
 40
0.6190476190476191
 40
0.6190476190476191
 40
0.6666666666666666
 40
0.6666666666666666
 40
0.6666666666666666
 40
0.6666666666666666
 40
0.7142857142857143
 40
0.7142857142857143
 40
0.7142857142857143
 40
0.7142857142857143
 40
0.7619047619047619
 40
0.7619047619047619
 40
0.7619047619047619
 40
0.7619047619047619
 40
0.8095238095238095
 40
0.8095238095238095
 40
0.8095238095238095
 40
0.8095238095238095
 40
0.8571428571428571
 40
0.8571428571428571
 40
0.8571428571428571
 40
0.8571428571428571
 40
0.9047619047619048
 40
0.9047619047619048
 40
0.9047619047619048
 40
0.9047619047619048
 40
1.0
 40
1.0
 40
1.0
 40
1.0
 10
24.9814
 20
11.1865
 30
0.0
 10
24.9814
 20
11.1865
 30
0.0
 10
24.4447
 20
11.6658
 30
0.0
 10
24.4447
 20
11.6658
 30
0.0
 10
24.4447
 20
11.6658
 30
0.0
 10
24.4447
 20
11.6658
 30
0.0
 10
24.6843
 20
11.9483
 30
0.0
 10
24.6843
 20
11.9483
 30
0.0
 10
24.6843
 20
11.9483
 30
0.0
 10
24.6843
 20
11.9483
 30
0.0
 10
25.2493
 20
11.4466
 30
0.0
 10
25.2493
 20
11.4466
 30
0.0
 10
25.2493
 20
11.4466
 30
0.0
 10
25.4929
 20
11.6102
 30
0.0
 10
25.7062
 20
11.7203
 30
0.0
 10
25.8884
 20
11.7778
 30
0.0
 10
25.8884
 20
11.7778
 30
0.0
 10
26.1281
 20
11.8538
 30
0.0
 10
26.3969
 20
11.8918
 30
0.0
 10
26.6931
 20
11.8918
 30
0.0
 10
26.6931
 20
11.8918
 30
0.0
 10
27.1217
 20
11.8918
 30
0.0
 10
27.5036
 20
11.8051
 30
0.0
 10
27.8377
 20
11.6317
 30
0.0
 10
27.8377
 20
11.6317
 30
0.0
 10
28.1729
 20
11.4583
 30
0.0
 10
28.4261
 20
11.2157
 30
0.0
 10
28.5976
 20
10.903
 30
0.0
 10
28.5976
 20
10.903
 30
0.0
 10
28.7681
 20
10.5893
 30
0.0
 10
28.8538
 20
10.2571
 30
0.0
 10
28.8538
 20
9.9054
 30
0.0
 10
28.8538
 20
9.9054
 30
0.0
 10
28.8538
 20
9.6424
 30
0.0
 10
28.8168
 20
9.4047
 30
0.0
 10
28.7428
 20
9.1913
 30
0.0
 10
28.7428
 20
9.1913
 30
0.0
 10
28.6853
 20
9.0277
 30
0.0
 10
28.5762
 20
8.8367
 30
0.0
 10
28.4145
 20
8.6175
 30
0.0
 10
28.4145
 20
8.6175
 30
0.0
 10
28.4145
 20
8.6175
 30
0.0
 10
28.9512
 20
8.1382
 30
0.0
 10
28.9512
 20
8.1382
 30
0.0
 10
28.9512
 20
8.1382
 30
0.0
 10
28.9512
 20
8.1382
 30
0.0
 10
28.7116
 20
7.8557
 30
0.0
 10
28.7116
 20
7.8557
 30
0.0
 10
28.7116
 20
7.8557
 30
0.0
 10
28.7116
 20
7.8557
 30
0.0
 10
28.1495
 20
8.3584
 30
0.0
 10
28.1495
 20
8.3584
 30
0.0
 10
28.1495
 20
8.3584
 30
0.0
 10
27.866
 20
8.1714
 30
0.0
 10
27.6234
 20
8.0467
 30
0.0
 10
27.4227
 20
7.9843
 30
0.0
 10
27.4227
 20
7.9843
 30
0.0
 10
27.2221
 20
7.922
 30
0.0
 10
26.9805
 20
7.8898
 30
0.0
 10
26.6989
 20
7.8898
 30
0.0
 10
26.6989
 20
7.8898
 30
0.0
 10
26.2693
 20
7.8898
 30
0.0
 10
25.8865
 20
7.9756
 30
0.0
 10
25.5504
 20
8.147
 30
0.0
 10
25.5504
 20
8.147
 30
0.0
 10
25.2143
 20
8.3185
 30
0.0
 10
24.96
 20
8.5581
 30
0.0
 10
24.7866
 20
8.8679
 30
0.0
 10
24.7866
 20
8.8679
 30
0.0
 10
24.6142
 20
9.1767
 30
0.0
 10
24.5275
 20
9.5206
 30
0.0
 10
24.5275
 20
9.8996
 30
0.0
 10
24.5275
 20
9.8996
 30
0.0
 10
24.5275
 20
10.1548
 30
0.0
 10
24.5606
 20
10.3779
 30
0.0
 10
24.6288
 20
10.5688
 30
0.0
 10
24.6288
 20
10.5688
 30
0.0
 10
24.696
 20
10.7598
 30
0.0
 10
24.8139
 20
10.9663
 30
0.0
 10
24.9814
 20
11.1865
 30
0.0
  0
SPLINE
  5
63
330
1F
100
AcDbEntity
  8
DEFAULT_1
 62
   250
100
AcDbSpline
210
0.0
220
0.0
230
1.0
 70
    11
 71
     3
 72
    32
 73
    28
 74
     0
 42
0.0000000001
 43
0.0000000001
 40
0.0
 40
0.0
 40
0.0
 40
0.0
 40
0.125
 40
0.125
 40
0.125
 40
0.125
 40
0.25
 40
0.25
 40
0.25
 40
0.25
 40
0.375
 40
0.375
 40
0.375
 40
0.375
 40
0.5
 40
0.5
 40
0.5
 40
0.5
 40
0.625
 40
0.625
 40
0.625
 40
0.625
 40
0.75
 40
0.75
 40
0.75
 40
0.75
 40
1.0
 40
1.0
 40
1.0
 40
1.0
 10
25.3662
 20
10.8445
 30
0.0
 10
25.226
 20
10.6653
 30
0.0
 10
25.1295
 20
10.5084
 30
0.0
 10
25.0779
 20
10.375
 30
0.0
 10
25.0779
 20
10.375
 30
0.0
 10
25.0272
 20
10.2405
 30
0.0
 10
25.0009
 20
10.0827
 30
0.0
 10
25.0009
 20
9.9025
 30
0.0
 10
25.0009
 20
9.9025
 30
0.0
 10
25.0009
 20
9.4855
 30
0.0
 10
25.1422
 20
9.1416
 30
0.0
 10
25.4247
 20
8.8689
 30
0.0
 10
25.4247
 20
8.8689
 30
0.0
 10
25.7072
 20
8.5971
 30
0.0
 10
26.129
 20
8.4607
 30
0.0
 10
26.6911
 20
8.4607
 30
0.0
 10
26.6911
 20
8.4607
 30
0.0
 10
26.9113
 20
8.4607
 30
0.0
 10
27.1071
 20
8.4821
 30
0.0
 10
27.2786
 20
8.524
 30
0.0
 10
27.2786
 20
8.524
 30
0.0
 10
27.4062
 20
8.5542
 30
0.0
 10
27.563
 20
8.6175
 30
0.0
 10
27.7491
 20
8.715
 30
0.0
 10
27.7491
 20
8.715
 30
0.0
 10
27.7491
 20
8.715
 30
0.0
 10
25.3662
 20
10.8445
 30
0.0
 10
25.3662
 20
10.8445
 30
0.0
  0
SPLINE
  5
64
330
1F
100
AcDbEntity
  8
DEFAULT_1
 62
   250
100
AcDbSpline
210
0.0
220
0.0
230
1.0
 70
    11
 71
     3
 72
    28
 73
    24
 74
     0
 42
0.0000000001
 43
0.0000000001
 40
0.0
 40
0.0
 40
0.0
 40
0.0
 40
0.1428571428571428
 40
0.1428571428571428
 40
0.1428571428571428
 40
0.1428571428571428
 40
0.2857142857142857
 40
0.2857142857142857
 40
0.2857142857142857
 40
0.2857142857142857
 40
0.4285714285714285
 40
0.4285714285714285
 40
0.4285714285714285
 40
0.4285714285714285
 40
0.5714285714285714
 40
0.5714285714285714
 40
0.5714285714285714
 40
0.5714285714285714
 40
0.7142857142857143
 40
0.7142857142857143
 40
0.7142857142857143
 40
0.7142857142857143
 40
1.0
 40
1.0
 40
1.0
 40
1.0
 10
25.6604
 20
11.0783
 30
0.0
 10
25.6604
 20
11.0783
 30
0.0
 10
28.0345
 20
8.9575
 30
0.0
 10
28.0345
 20
8.9575
 30
0.0
 10
28.0345
 20
8.9575
 30
0.0
 10
28.1544
 20
9.1037
 30
0.0
 10
28.2381
 20
9.2391
 30
0.0
 10
28.2859
 20
9.3628
 30
0.0
 10
28.2859
 20
9.3628
 30
0.0
 10
28.3492
 20
9.5245
 30
0.0
 10
28.3804
 20
9.6999
 30
0.0
 10
28.3804
 20
9.8879
 30
0.0
 10
28.3804
 20
9.8879
 30
0.0
 10
28.3804
 20
10.3029
 30
0.0
 10
28.2342
 20
10.6448
 30
0.0
 10
27.941
 20
10.9156
 30
0.0
 10
27.941
 20
10.9156
 30
0.0
 10
27.6478
 20
11.1855
 30
0.0
 10
27.2367
 20
11.3209
 30
0.0
 10
26.7077
 20
11.3209
 30
0.0
 10
26.7077
 20
11.3209
 30
0.0
 10
26.3122
 20
11.3209
 30
0.0
 10
25.9624
 20
11.24
 30
0.0
 10
25.6604
 20
11.0783
 30
0.0
  0
SPLINE
  5
65
330
1F
100
AcDbEntity
  8
DEFAULT_1
 62
   250
100
AcDbSpline
210
0.0
220
0.0
230
1.0
 70
    11
 71
     3
 72
    48
 73
    44
 74
     0
 42
0.0000000001
 43
0.0000000001
 40
0.0
 40
0.0
 40
0.0
 40
0.0
 40
0.0833333333333333
 40
0.0833333333333333
 40
0.0833333333333333
 40
0.0833333333333333
 40
0.1666666666666667
 40
0.1666666666666667
 40
0.1666666666666667
 40
0.1666666666666667
 40
0.25
 40
0.25
 40
0.25
 40
0.25
 40
0.3333333333333333
 40
0.3333333333333333
 40
0.3333333333333333
 40
0.3333333333333333
 40
0.4166666666666667
 40
0.4166666666666667
 40
0.4166666666666667
 40
0.4166666666666667
 40
0.5
 40
0.5
 40
0.5
 40
0.5
 40
0.5833333333333334
 40
0.5833333333333334
 40
0.5833333333333334
 40
0.5833333333333334
 40
0.6666666666666666
 40
0.6666666666666666
 40
0.6666666666666666
 40
0.6666666666666666
 40
0.75
 40
0.75
 40
0.75
 40
0.75
 40
0.8333333333333334
 40
0.8333333333333334
 40
0.8333333333333334
 40
0.8333333333333334
 40
1.0
 40
1.0
 40
1.0
 40
1.0
 10
28.7827
 20
14.0544
 30
0.0
 10
28.7827
 20
14.0544
 30
0.0
 10
27.7812
 20
14.0544
 30
0.0
 10
27.7812
 20
14.0544
 30
0.0
 10
27.7812
 20
14.0544
 30
0.0
 10
27.7812
 20
14.0544
 30
0.0
 10
27.7812
 20
12.2395
 30
0.0
 10
27.7812
 20
12.2395
 30
0.0
 10
27.7812
 20
12.2395
 30
0.0
 10
27.7812
 20
12.2395
 30
0.0
 10
27.3097
 20
12.2395
 30
0.0
 10
27.3097
 20
12.2395
 30
0.0
 10
27.3097
 20
12.2395
 30
0.0
 10
27.3097
 20
12.2395
 30
0.0
 10
24.5986
 20
14.1489
 30
0.0
 10
24.5986
 20
14.1489
 30
0.0
 10
24.5986
 20
14.1489
 30
0.0
 10
24.5986
 20
14.1489
 30
0.0
 10
24.5986
 20
14.5688
 30
0.0
 10
24.5986
 20
14.5688
 30
0.0
 10
24.5986
 20
14.5688
 30
0.0
 10
24.5986
 20
14.5688
 30
0.0
 10
27.3097
 20
14.5688
 30
0.0
 10
27.3097
 20
14.5688
 30
0.0
 10
27.3097
 20
14.5688
 30
0.0
 10
27.3097
 20
14.5688
 30
0.0
 10
27.3097
 20
15.1338
 30
0.0
 10
27.3097
 20
15.1338
 30
0.0
 10
27.3097
 20
15.1338
 30
0.0
 10
27.3097
 20
15.1338
 30
0.0
 10
27.7812
 20
15.1338
 30
0.0
 10
27.7812
 20
15.1338
 30
0.0
 10
27.7812
 20
15.1338
 30
0.0
 10
27.7812
 20
15.1338
 30
0.0
 10
27.7812
 20
14.5688
 30
0.0
 10
27.7812
 20
14.5688
 30
0.0
 10
27.7812
 20
14.5688
 30
0.0
 10
27.7812
 20
14.5688
 30
0.0
 10
28.7827
 20
14.5688
 30
0.0
 10
28.7827
 20
14.5688
 30
0.0
 10
28.7827
 20
14.5688
 30
0.0
 10
28.7827
 20
14.5688
 30
0.0
 10
28.7827
 20
14.0544
 30
0.0
 10
28.7827
 20
14.0544
 30
0.0
  0
SPLINE
  5
66
330
1F
100
AcDbEntity
  8
DEFAULT_1
 62
   250
100
AcDbSpline
210
0.0
220
0.0
230
1.0
 70
    11
 71
     3
 72
    16
 73
    12
 74
     0
 42
0.0000000001
 43
0.0000000001
 40
0.0
 40
0.0
 40
0.0
 40
0.0
 40
0.25
 40
0.25
 40
0.25
 40
0.25
 40
0.5
 40
0.5
 40
0.5
 40
0.5
 40
1.0
 40
1.0
 40
1.0
 40
1.0
 10
27.3097
 20
14.0544
 30
0.0
 10
27.3097
 20
14.0544
 30
0.0
 10
25.4237
 20
14.0544
 30
0.0
 10
25.4237
 20
14.0544
 30
0.0
 10
25.4237
 20
14.0544
 30
0.0
 10
25.4237
 20
14.0544
 30
0.0
 10
27.3097
 20
12.7451
 30
0.0
 10
27.3097
 20
12.7451
 30
0.0
 10
27.3097
 20
12.7451
 30
0.0
 10
27.3097
 20
12.7451
 30
0.0
 10
27.3097
 20
14.0544
 30
0.0
 10
27.3097
 20
14.0544
 30
0.0
  0
SPLINE
  5
67
330
1F
100
AcDbEntity
  8
DEFAULT_1
 62
   250
100
AcDbSpline
210
0.0
220
0.0
230
1.0
 70
    11
 71
     3
 72
    52
 73
    48
 74
     0
 42
0.0000000001
 43
0.0000000001
 40
0.0
 40
0.0
 40
0.0
 40
0.0
 40
0.0769230769230769
 40
0.0769230769230769
 40
0.0769230769230769
 40
0.0769230769230769
 40
0.1538461538461539
 40
0.1538461538461539
 40
0.1538461538461539
 40
0.1538461538461539
 40
0.2307692307692308
 40
0.2307692307692308
 40
0.2307692307692308
 40
0.2307692307692308
 40
0.3076923076923077
 40
0.3076923076923077
 40
0.3076923076923077
 40
0.3076923076923077
 40
0.3846153846153846
 40
0.3846153846153846
 40
0.3846153846153846
 40
0.3846153846153846
 40
0.4615384615384616
 40
0.4615384615384616
 40
0.4615384615384616
 40
0.4615384615384616
 40
0.5384615384615384
 40
0.5384615384615384
 40
0.5384615384615384
 40
0.5384615384615384
 40
0.6153846153846154
 40
0.6153846153846154
 40
0.6153846153846154
 40
0.6153846153846154
 40
0.6923076923076923
 40
0.6923076923076923
 40
0.6923076923076923
 40
0.6923076923076923
 40
0.7692307692307693
 40
0.7692307692307693
 40
0.7692307692307693
 40
0.7692307692307693
 40
0.8461538461538461
 40
0.8461538461538461
 40
0.8461538461538461
 40
0.8461538461538461
 40
1.0
 40
1.0
 40
1.0
 40
1.0
 10
26.7194
 20
15.6589
 30
0.0
 10
26.2245
 20
15.6589
 30
0.0
 10
25.8261
 20
15.7095
 30
0.0
 10
25.525
 20
15.8118
 30
0.0
 10
25.525
 20
15.8118
 30
0.0
 10
25.223
 20
15.9131
 30
0.0
 10
24.9902
 20
16.0651
 30
0.0
 10
24.8265
 20
16.2658
 30
0.0
 10
24.8265
 20
16.2658
 30
0.0
 10
24.6629
 20
16.4665
 30
0.0
 10
24.581
 20
16.7188
 30
0.0
 10
24.581
 20
17.0227
 30
0.0
 10
24.581
 20
17.0227
 30
0.0
 10
24.581
 20
17.2478
 30
0.0
 10
24.6268
 20
17.4445
 30
0.0
 10
24.7174
 20
17.6141
 30
0.0
 10
24.7174
 20
17.6141
 30
0.0
 10
24.8071
 20
17.7836
 30
0.0
 10
24.9376
 20
17.9229
 30
0.0
 10
25.1081
 20
18.0339
 30
0.0
 10
25.1081
 20
18.0339
 30
0.0
 10
25.2786
 20
18.144
 30
0.0
 10
25.4861
 20
18.2307
 30
0.0
 10
25.7306
 20
18.2931
 30
0.0
 10
25.7306
 20
18.2931
 30
0.0
 10
25.9751
 20
18.3564
 30
0.0
 10
26.3044
 20
18.3876
 30
0.0
 10
26.7194
 20
18.3876
 30
0.0
 10
26.7194
 20
18.3876
 30
0.0
 10
27.2104
 20
18.3876
 30
0.0
 10
27.6059
 20
18.3369
 30
0.0
 10
27.9079
 20
18.2366
 30
0.0
 10
27.9079
 20
18.2366
 30
0.0
 10
28.2099
 20
18.1352
 30
0.0
 10
28.4427
 20
17.9842
 30
0.0
 10
28.6073
 20
17.7836
 30
0.0
 10
28.6073
 20
17.7836
 30
0.0
 10
28.772
 20
17.5829
 30
0.0
 10
28.8538
 20
17.3296
 30
0.0
 10
28.8538
 20
17.0227
 30
0.0
 10
28.8538
 20
17.0227
 30
0.0
 10
28.8538
 20
16.6194
 30
0.0
 10
28.7096
 20
16.3028
 30
0.0
 10
28.4203
 20
16.0729
 30
0.0
 10
28.4203
 20
16.0729
 30
0.0
 10
28.0725
 20
15.7972
 30
0.0
 10
27.5046
 20
15.6589
 30
0.0
 10
26.7194
 20
15.6589
 30
0.0
  0
SPLINE
  5
68
330
1F
100
AcDbEntity
  8
DEFAULT_1
 62
   250
100
AcDbSpline
210
0.0
220
0.0
230
1.0
 70
    11
 71
     3
 72
    36
 73
    32
 74
     0
 42
0.0000000001
 43
0.0000000001
 40
0.0
 40
0.0
 40
0.0
 40
0.0
 40
0.1111111111111111
 40
0.1111111111111111
 40
0.1111111111111111
 40
0.1111111111111111
 40
0.2222222222222222
 40
0.2222222222222222
 40
0.2222222222222222
 40
0.2222222222222222
 40
0.3333333333333333
 40
0.3333333333333333
 40
0.3333333333333333
 40
0.3333333333333333
 40
0.4444444444444444
 40
0.4444444444444444
 40
0.4444444444444444
 40
0.4444444444444444
 40
0.5555555555555556
 40
0.5555555555555556
 40
0.5555555555555556
 40
0.5555555555555556
 40
0.6666666666666666
 40
0.6666666666666666
 40
0.6666666666666666
 40
0.6666666666666666
 40
0.7777777777777778
 40
0.7777777777777778
 40
0.7777777777777778
 40
0.7777777777777778
 40
1.0
 40
1.0
 40
1.0
 40
1.0
 10
26.7194
 20
16.1869
 30
0.0
 10
27.4062
 20
16.1869
 30
0.0
 10
27.8631
 20
16.2677
 30
0.0
 10
28.091
 20
16.4285
 30
0.0
 10
28.091
 20
16.4285
 30
0.0
 10
28.318
 20
16.5892
 30
0.0
 10
28.432
 20
16.787
 30
0.0
 10
28.432
 20
17.0227
 30
0.0
 10
28.432
 20
17.0227
 30
0.0
 10
28.432
 20
17.2595
 30
0.0
 10
28.317
 20
17.4572
 30
0.0
 10
28.0891
 20
17.618
 30
0.0
 10
28.0891
 20
17.618
 30
0.0
 10
27.8611
 20
17.7787
 30
0.0
 10
27.4042
 20
17.8596
 30
0.0
 10
26.7194
 20
17.8596
 30
0.0
 10
26.7194
 20
17.8596
 30
0.0
 10
26.0306
 20
17.8596
 30
0.0
 10
25.5728
 20
17.7787
 30
0.0
 10
25.3468
 20
17.618
 30
0.0
 10
25.3468
 20
17.618
 30
0.0
 10
25.1198
 20
17.4572
 30
0.0
 10
25.0068
 20
17.2575
 30
0.0
 10
25.0068
 20
17.0179
 30
0.0
 10
25.0068
 20
17.0179
 30
0.0
 10
25.0068
 20
16.7811
 30
0.0
 10
25.1071
 20
16.5931
 30
0.0
 10
25.3068
 20
16.4519
 30
0.0
 10
25.3068
 20
16.4519
 30
0.0
 10
25.5611
 20
16.2755
 30
0.0
 10
26.0326
 20
16.1869
 30
0.0
 10
26.7194
 20
16.1869
 30
0.0
  0
SPLINE
  5
69
330
1F
100
AcDbEntity
  8
DEFAULT_1
 62
   250
100
AcDbSpline
210
0.0
220
0.0
230
1.0
 70
    11
 71
     3
 72
    20
 73
    16
 74
     0
 42
0.0000000001
 43
0.0000000001
 40
0.0
 40
0.0
 40
0.0
 40
0.0
 40
0.2
 40
0.2
 40
0.2
 40
0.2
 40
0.4
 40
0.4
 40
0.4
 40
0.4
 40
0.6
 40
0.6
 40
0.6
 40
0.6
 40
1.0
 40
1.0
 40
1.0
 40
1.0
 10
30.6445
 20
4.7769
 30
0.0
 10
30.6445
 20
4.7769
 30
0.0
 10
31.5374
 20
10.8919
 30
0.0
 10
31.5374
 20
10.8919
 30
0.0
 10
31.5374
 20
10.8919
 30
0.0
 10
31.5374
 20
10.8919
 30
0.0
 10
29.5664
 20
10.8919
 30
0.0
 10
29.5664
 20
10.8919
 30
0.0
 10
29.5664
 20
10.8919
 30
0.0
 10
29.5664
 20
10.8919
 30
0.0
 10
30.6418
 20
4.7769
 30
0.0
 10
30.6418
 20
4.7769
 30
0.0
 10
30.6418
 20
4.7769
 30
0.0
 10
30.6418
 20
4.7769
 30
0.0
 10
30.6445
 20
4.7769
 30
0.0
 10
30.6445
 20
4.7769
 30
0.0
  0
SPLINE
  5
6A
330
1F
100
AcDbEntity
  8
DEFAULT_1
 62
   250
100
AcDbSpline
210
0.0
220
0.0
230
1.0
 70
    11
 71
     3
 72
    20
 73
    16
 74
     0
 42
0.0000000001
 43
0.0000000001
 40
0.0
 40
0.0
 40
0.0
 40
0.0
 40
0.2
 40
0.2
 40
0.2
 40
0.2
 40
0.4
 40
0.4
 40
0.4
 40
0.4
 40
0.6
 40
0.6
 40
0.6
 40
0.6
 40
1.0
 40
1.0
 40
1.0
 40
1.0
 10
30.6334
 20
-8.1348
 30
0.0
 10
30.6334
 20
-8.1348
 30
0.0
 10
29.7405
 20
-14.2498
 30
0.0
 10
29.7405
 20
-14.2498
 30
0.0
 10
29.7405
 20
-14.2498
 30
0.0
 10
29.7405
 20
-14.2498
 30
0.0
 10
31.7115
 20
-14.2498
 30
0.0
 10
31.7115
 20
-14.2498
 30
0.0
 10
31.7115
 20
-14.2498
 30
0.0
 10
31.7115
 20
-14.2498
 30
0.0
 10
30.6361
 20
-8.1348
 30
0.0
 10
30.6361
 20
-8.1348
 30
0.0
 10
30.6361
 20
-8.1348
 30
0.0
 10
30.6361
 20
-8.1348
 30
0.0
 10
30.6334
 20
-8.1348
 30
0.0
 10
30.6334
 20
-8.1348
 30
0.0
  0
SPLINE
  5
6B
330
1F
100
AcDbEntity
  8
DEFAULT_1
 62
   250
100
AcDbSpline
210
0.0
220
0.0
230
1.0
 70
    24
 71
     3
 72
     8
 73
     4
 74
     0
 42
0.0000000001
 43
0.0000000001
 40
0.0
 40
0.0
 40
0.0
 40
0.0
 40
1.0
 40
1.0
 40
1.0
 40
1.0
 10
30.6467
 20
18.0667
 30
0.0
 10
30.6467
 20
18.0667
 30
0.0
 10
30.6467
 20
-15.6702
 30
0.0
 10
30.6467
 20
-15.6702
 30
0.0
  0
SPLINE
  5
6C
330
1F
100
AcDbEntity
  8
DEFAULT_1
  6
NEW_LINE1
 62
   250
100
AcDbSpline
210
0.0
220
0.0
230
1.0
 70
    24
 71
     3
 72
     8
 73
     4
 74
     0
 42
0.0000000001
 43
0.0000000001
 40
0.0
 40
0.0
 40
0.0
 40
0.0
 40
1.0
 40
1.0
 40
1.0
 40
1.0
 10
-54.6466
 20
-1.5932
 30
0.0
 10
-54.6466
 20
-1.5932
 30
0.0
 10
56.997
 20
-1.5932
 30
0.0
 10
56.997
 20
-1.5932
 30
0.0
  0
SPLINE
  5
6E
330
1F
100
AcDbEntity
  8
DEFAULT_1
 62
   250
100
AcDbSpline
210
0.0
220
0.0
230
1.0
 70
    24
 71
     3
 72
     8
 73
     4
 74
     0
 42
0.0000000001
 43
0.0000000001
 40
0.0
 40
0.0
 40
0.0
 40
0.0
 40
1.0
 40
1.0
 40
1.0
 40
1.0
 10
-22.4542
 20
-7.2527
 30
0.0
 10
-22.4542
 20
-7.2527
 30
0.0
 10
-20.7324
 20
-7.2527
 30
0.0
 10
-20.7324
 20
-7.2527
 30
0.0
  0
SPLINE
  5
6F
330
1F
100
AcDbEntity
  8
DEFAULT_1
 62
   250
100
AcDbSpline
210
0.0
220
0.0
230
1.0
 70
    24
 71
     3
 72
     8
 73
     4
 74
     0
 42
0.0000000001
 43
0.0000000001
 40
0.0
 40
0.0
 40
0.0
 40
0.0
 40
1.0
 40
1.0
 40
1.0
 40
1.0
 10
-37.795
 20
-7.8791
 30
0.0
 10
-37.795
 20
-7.8791
 30
0.0
 10
-22.6108
 20
-7.8791
 30
0.0
 10
-22.6108
 20
-7.8791
 30
0.0
  0
SPLINE
  5
70
330
1F
100
AcDbEntity
  8
DEFAULT_1
 62
   250
100
AcDbSpline
210
0.0
220
0.0
230
1.0
 70
    24
 71
     3
 72
     8
 73
     4
 74
     0
 42
0.0000000001
 43
0.0000000001
 40
0.0
 40
0.0
 40
0.0
 40
0.0
 40
1.0
 40
1.0
 40
1.0
 40
1.0
 10
-37.795
 20
6.2095
 30
0.0
 10
-37.795
 20
6.2095
 30
0.0
 10
-53.449
 20
6.2095
 30
0.0
 10
-53.449
 20
6.2095
 30
0.0
  0
SPLINE
  5
71
330
1F
100
AcDbEntity
  8
DEFAULT_1
 62
   250
100
AcDbSpline
210
0.0
220
0.0
230
1.0
 70
    24
 71
     3
 72
     8
 73
     4
 74
     0
 42
0.0000000001
 43
0.0000000001
 40
0.0
 40
0.0
 40
0.0
 40
0.0
 40
1.0
 40
1.0
 40
1.0
 40
1.0
 10
-37.795
 20
-9.4444
 30
0.0
 10
-37.795
 20
-9.4444
 30
0.0
 10
-53.449
 20
-9.4444
 30
0.0
 10
-53.449
 20
-9.4444
 30
0.0
  0
SPLINE
  5
72
330
1F
100
AcDbEntity
  8
DEFAULT_1
 62
   250
100
AcDbSpline
210
0.0
220
0.0
230
1.0
 70
    24
 71
     3
 72
     8
 73
     4
 74
     0
 42
0.0000000001
 43
0.0000000001
 40
0.0
 40
0.0
 40
0.0
 40
0.0
 40
1.0
 40
1.0
 40
1.0
 40
1.0
 10
-37.795
 20
-9.4444
 30
0.0
 10
-37.795
 20
-9.4444
 30
0.0
 10
-37.795
 20
6.2095
 30
0.0
 10
-37.795
 20
6.2095
 30
0.0
  0
SPLINE
  5
73
330
1F
100
AcDbEntity
  8
DEFAULT_1
 62
   250
100
AcDbSpline
210
0.0
220
0.0
230
1.0
 70
    24
 71
     3
 72
     8
 73
     4
 74
     0
 42
0.0000000001
 43
0.0000000001
 40
0.0
 40
0.0
 40
0.0
 40
0.0
 40
1.0
 40
1.0
 40
1.0
 40
1.0
 10
-53.449
 20
-9.4444
 30
0.0
 10
-53.449
 20
-9.4444
 30
0.0
 10
-53.449
 20
6.2095
 30
0.0
 10
-53.449
 20
6.2095
 30
0.0
  0
SPLINE
  5
74
330
1F
100
AcDbEntity
  8
DEFAULT_1
 62
   250
100
AcDbSpline
210
0.0
220
0.0
230
1.0
 70
     8
 71
     3
 72
     8
 73
     4
 74
     0
 42
0.0000000001
 43
0.0000000001
 40
0.0
 40
0.0
 40
0.0
 40
0.0
 40
1.0
 40
1.0
 40
1.0
 40
1.0
 10
-22.4542
 20
4.4876
 30
0.0
 10
-22.4542
 20
4.574
 30
0.0
 10
-22.5244
 20
4.6441
 30
0.0
 10
-22.6108
 20
4.6441
 30
0.0
  0
SPLINE
  5
75
330
1F
100
AcDbEntity
  8
DEFAULT_1
 62
   250
100
AcDbSpline
210
0.0
220
0.0
230
1.0
 70
     8
 71
     3
 72
     8
 73
     4
 74
     0
 42
0.0000000001
 43
0.0000000001
 40
0.0
 40
0.0
 40
0.0
 40
0.0
 40
1.0
 40
1.0
 40
1.0
 40
1.0
 10
-20.5759
 20
3.8613
 30
0.0
 10
-20.5759
 20
3.9478
 30
0.0
 10
-20.6459
 20
4.0179
 30
0.0
 10
-20.7324
 20
4.0179
 30
0.0
  0
SPLINE
  5
76
330
1F
100
AcDbEntity
  8
DEFAULT_1
 62
   250
100
AcDbSpline
210
0.0
220
0.0
230
1.0
 70
     8
 71
     3
 72
     8
 73
     4
 74
     0
 42
0.0000000001
 43
0.0000000001
 40
0.0
 40
0.0
 40
0.0
 40
0.0
 40
1.0
 40
1.0
 40
1.0
 40
1.0
 10
-20.7324
 20
-7.2527
 30
0.0
 10
-20.6459
 20
-7.2527
 30
0.0
 10
-20.5759
 20
-7.1827
 30
0.0
 10
-20.5759
 20
-7.0962
 30
0.0
  0
SPLINE
  5
77
330
1F
100
AcDbEntity
  8
DEFAULT_1
 62
   250
100
AcDbSpline
210
0.0
220
0.0
230
1.0
 70
     8
 71
     3
 72
     8
 73
     4
 74
     0
 42
0.0000000001
 43
0.0000000001
 40
0.0
 40
0.0
 40
0.0
 40
0.0
 40
1.0
 40
1.0
 40
1.0
 40
1.0
 10
-22.6108
 20
-7.8791
 30
0.0
 10
-22.5244
 20
-7.8791
 30
0.0
 10
-22.4542
 20
-7.8088
 30
0.0
 10
-22.4542
 20
-7.7226
 30
0.0
  0
SPLINE
  5
78
330
1F
100
AcDbEntity
  8
DEFAULT_1
 62
   250
100
AcDbSpline
210
0.0
220
0.0
230
1.0
 70
    24
 71
     3
 72
     8
 73
     4
 74
     0
 42
0.0000000001
 43
0.0000000001
 40
0.0
 40
0.0
 40
0.0
 40
0.0
 40
1.0
 40
1.0
 40
1.0
 40
1.0
 10
-20.5759
 20
3.8613
 30
0.0
 10
-20.5759
 20
3.8613
 30
0.0
 10
-20.5759
 20
-7.0962
 30
0.0
 10
-20.5759
 20
-7.0962
 30
0.0
  0
SPLINE
  5
79
330
1F
100
AcDbEntity
  8
DEFAULT_1
 62
   250
100
AcDbSpline
210
0.0
220
0.0
230
1.0
 70
    24
 71
     3
 72
     8
 73
     4
 74
     0
 42
0.0000000001
 43
0.0000000001
 40
0.0
 40
0.0
 40
0.0
 40
0.0
 40
1.0
 40
1.0
 40
1.0
 40
1.0
 10
-22.4542
 20
4.4876
 30
0.0
 10
-22.4542
 20
4.4876
 30
0.0
 10
-22.4542
 20
-7.7226
 30
0.0
 10
-22.4542
 20
-7.7226
 30
0.0
  0
SPLINE
  5
7A
330
1F
100
AcDbEntity
  8
DEFAULT_1
 62
   250
100
AcDbSpline
210
0.0
220
0.0
230
1.0
 70
    24
 71
     3
 72
     8
 73
     4
 74
     0
 42
0.0000000001
 43
0.0000000001
 40
0.0
 40
0.0
 40
0.0
 40
0.0
 40
1.0
 40
1.0
 40
1.0
 40
1.0
 10
-37.795
 20
4.6441
 30
0.0
 10
-37.795
 20
4.6441
 30
0.0
 10
-22.6108
 20
4.6441
 30
0.0
 10
-22.6108
 20
4.6441
 30
0.0
  0
SPLINE
  5
7B
330
1F
100
AcDbEntity
  8
DEFAULT_1
 62
   250
100
AcDbSpline
210
0.0
220
0.0
230
1.0
 70
    24
 71
     3
 72
     8
 73
     4
 74
     0
 42
0.0000000001
 43
0.0000000001
 40
0.0
 40
0.0
 40
0.0
 40
0.0
 40
1.0
 40
1.0
 40
1.0
 40
1.0
 10
-22.4542
 20
4.0179
 30
0.0
 10
-22.4542
 20
4.0179
 30
0.0
 10
-20.7324
 20
4.0179
 30
0.0
 10
-20.7324
 20
4.0179
 30
0.0
  0
SPLINE
  5
7C
330
1F
100
AcDbEntity
  8
DEFAULT_1
 62
   250
100
AcDbSpline
210
0.0
220
0.0
230
1.0
 70
    11
 71
     3
 72
    84
 73
    80
 74
     0
 42
0.0000000001
 43
0.0000000001
 40
0.0
 40
0.0
 40
0.0
 40
0.0
 40
0.0476190476190476
 40
0.0476190476190476
 40
0.0476190476190476
 40
0.0476190476190476
 40
0.0952380952380952
 40
0.0952380952380952
 40
0.0952380952380952
 40
0.0952380952380952
 40
0.1428571428571428
 40
0.1428571428571428
 40
0.1428571428571428
 40
0.1428571428571428
 40
0.1904761904761905
 40
0.1904761904761905
 40
0.1904761904761905
 40
0.1904761904761905
 40
0.2380952380952381
 40
0.2380952380952381
 40
0.2380952380952381
 40
0.2380952380952381
 40
0.2857142857142857
 40
0.2857142857142857
 40
0.2857142857142857
 40
0.2857142857142857
 40
0.3333333333333333
 40
0.3333333333333333
 40
0.3333333333333333
 40
0.3333333333333333
 40
0.3809523809523809
 40
0.3809523809523809
 40
0.3809523809523809
 40
0.3809523809523809
 40
0.4285714285714285
 40
0.4285714285714285
 40
0.4285714285714285
 40
0.4285714285714285
 40
0.4761904761904762
 40
0.4761904761904762
 40
0.4761904761904762
 40
0.4761904761904762
 40
0.5238095238095238
 40
0.5238095238095238
 40
0.5238095238095238
 40
0.5238095238095238
 40
0.5714285714285714
 40
0.5714285714285714
 40
0.5714285714285714
 40
0.5714285714285714
 40
0.6190476190476191
 40
0.6190476190476191
 40
0.6190476190476191
 40
0.6190476190476191
 40
0.6666666666666666
 40
0.6666666666666666
 40
0.6666666666666666
 40
0.6666666666666666
 40
0.7142857142857143
 40
0.7142857142857143
 40
0.7142857142857143
 40
0.7142857142857143
 40
0.7619047619047619
 40
0.7619047619047619
 40
0.7619047619047619
 40
0.7619047619047619
 40
0.8095238095238095
 40
0.8095238095238095
 40
0.8095238095238095
 40
0.8095238095238095
 40
0.8571428571428571
 40
0.8571428571428571
 40
0.8571428571428571
 40
0.8571428571428571
 40
0.9047619047619048
 40
0.9047619047619048
 40
0.9047619047619048
 40
0.9047619047619048
 40
1.0
 40
1.0
 40
1.0
 40
1.0
 10
-62.6483
 20
-3.3901
 30
0.0
 10
-62.6483
 20
-3.3901
 30
0.0
 10
-63.185
 20
-2.9108
 30
0.0
 10
-63.185
 20
-2.9108
 30
0.0
 10
-63.185
 20
-2.9108
 30
0.0
 10
-63.185
 20
-2.9108
 30
0.0
 10
-62.9454
 20
-2.6283
 30
0.0
 10
-62.9454
 20
-2.6283
 30
0.0
 10
-62.9454
 20
-2.6283
 30
0.0
 10
-62.9454
 20
-2.6283
 30
0.0
 10
-62.3804
 20
-3.13
 30
0.0
 10
-62.3804
 20
-3.13
 30
0.0
 10
-62.3804
 20
-3.13
 30
0.0
 10
-62.1368
 20
-2.9664
 30
0.0
 10
-61.9235
 20
-2.8563
 30
0.0
 10
-61.7413
 20
-2.7988
 30
0.0
 10
-61.7413
 20
-2.7988
 30
0.0
 10
-61.5016
 20
-2.7228
 30
0.0
 10
-61.2328
 20
-2.6848
 30
0.0
 10
-60.9366
 20
-2.6848
 30
0.0
 10
-60.9366
 20
-2.6848
 30
0.0
 10
-60.508
 20
-2.6848
 30
0.0
 10
-60.1261
 20
-2.7715
 30
0.0
 10
-59.792
 20
-2.9449
 30
0.0
 10
-59.792
 20
-2.9449
 30
0.0
 10
-59.4568
 20
-3.1183
 30
0.0
 10
-59.2036
 20
-3.3609
 30
0.0
 10
-59.0321
 20
-3.6736
 30
0.0
 10
-59.0321
 20
-3.6736
 30
0.0
 10
-58.8616
 20
-3.9873
 30
0.0
 10
-58.7759
 20
-4.3195
 30
0.0
 10
-58.7759
 20
-4.6712
 30
0.0
 10
-58.7759
 20
-4.6712
 30
0.0
 10
-58.7759
 20
-4.9342
 30
0.0
 10
-58.8129
 20
-5.1719
 30
0.0
 10
-58.8869
 20
-5.3853
 30
0.0
 10
-58.8869
 20
-5.3853
 30
0.0
 10
-58.9444
 20
-5.5489
 30
0.0
 10
-59.0535
 20
-5.7399
 30
0.0
 10
-59.2152
 20
-5.9591
 30
0.0
 10
-59.2152
 20
-5.9591
 30
0.0
 10
-59.2152
 20
-5.9591
 30
0.0
 10
-58.6785
 20
-6.4384
 30
0.0
 10
-58.6785
 20
-6.4384
 30
0.0
 10
-58.6785
 20
-6.4384
 30
0.0
 10
-58.6785
 20
-6.4384
 30
0.0
 10
-58.9181
 20
-6.7209
 30
0.0
 10
-58.9181
 20
-6.7209
 30
0.0
 10
-58.9181
 20
-6.7209
 30
0.0
 10
-58.9181
 20
-6.7209
 30
0.0
 10
-59.4802
 20
-6.2182
 30
0.0
 10
-59.4802
 20
-6.2182
 30
0.0
 10
-59.4802
 20
-6.2182
 30
0.0
 10
-59.7637
 20
-6.4052
 30
0.0
 10
-60.0063
 20
-6.5299
 30
0.0
 10
-60.207
 20
-6.5923
 30
0.0
 10
-60.207
 20
-6.5923
 30
0.0
 10
-60.4076
 20
-6.6546
 30
0.0
 10
-60.6492
 20
-6.6868
 30
0.0
 10
-60.9308
 20
-6.6868
 30
0.0
 10
-60.9308
 20
-6.6868
 30
0.0
 10
-61.3604
 20
-6.6868
 30
0.0
 10
-61.7432
 20
-6.601
 30
0.0
 10
-62.0793
 20
-6.4296
 30
0.0
 10
-62.0793
 20
-6.4296
 30
0.0
 10
-62.4154
 20
-6.2581
 30
0.0
 10
-62.6697
 20
-6.0185
 30
0.0
 10
-62.8431
 20
-5.7087
 30
0.0
 10
-62.8431
 20
-5.7087
 30
0.0
 10
-63.0155
 20
-5.3999
 30
0.0
 10
-63.1022
 20
-5.056
 30
0.0
 10
-63.1022
 20
-4.677
 30
0.0
 10
-63.1022
 20
-4.677
 30
0.0
 10
-63.1022
 20
-4.4218
 30
0.0
 10
-63.0691
 20
-4.1987
 30
0.0
 10
-63.0009
 20
-4.0078
 30
0.0
 10
-63.0009
 20
-4.0078
 30
0.0
 10
-62.9337
 20
-3.8168
 30
0.0
 10
-62.8158
 20
-3.6103
 30
0.0
 10
-62.6483
 20
-3.3901
 30
0.0
  0
SPLINE
  5
7D
330
1F
100
AcDbEntity
  8
DEFAULT_1
 62
   250
100
AcDbSpline
210
0.0
220
0.0
230
1.0
 70
    11
 71
     3
 72
    32
 73
    28
 74
     0
 42
0.0000000001
 43
0.0000000001
 40
0.0
 40
0.0
 40
0.0
 40
0.0
 40
0.125
 40
0.125
 40
0.125
 40
0.125
 40
0.25
 40
0.25
 40
0.25
 40
0.25
 40
0.375
 40
0.375
 40
0.375
 40
0.375
 40
0.5
 40
0.5
 40
0.5
 40
0.5
 40
0.625
 40
0.625
 40
0.625
 40
0.625
 40
0.75
 40
0.75
 40
0.75
 40
0.75
 40
1.0
 40
1.0
 40
1.0
 40
1.0
 10
-62.2635
 20
-3.7321
 30
0.0
 10
-62.4037
 20
-3.9113
 30
0.0
 10
-62.5002
 20
-4.0682
 30
0.0
 10
-62.5518
 20
-4.2016
 30
0.0
 10
-62.5518
 20
-4.2016
 30
0.0
 10
-62.6025
 20
-4.3361
 30
0.0
 10
-62.6288
 20
-4.4939
 30
0.0
 10
-62.6288
 20
-4.6741
 30
0.0
 10
-62.6288
 20
-4.6741
 30
0.0
 10
-62.6288
 20
-5.0911
 30
0.0
 10
-62.4875
 20
-5.435
 30
0.0
 10
-62.205
 20
-5.7077
 30
0.0
 10
-62.205
 20
-5.7077
 30
0.0
 10
-61.9225
 20
-5.9795
 30
0.0
 10
-61.5007
 20
-6.1159
 30
0.0
 10
-60.9386
 20
-6.1159
 30
0.0
 10
-60.9386
 20
-6.1159
 30
0.0
 10
-60.7184
 20
-6.1159
 30
0.0
 10
-60.5226
 20
-6.0945
 30
0.0
 10
-60.3511
 20
-6.0526
 30
0.0
 10
-60.3511
 20
-6.0526
 30
0.0
 10
-60.2235
 20
-6.0224
 30
0.0
 10
-60.0667
 20
-5.9591
 30
0.0
 10
-59.8806
 20
-5.8616
 30
0.0
 10
-59.8806
 20
-5.8616
 30
0.0
 10
-59.8806
 20
-5.8616
 30
0.0
 10
-62.2635
 20
-3.7321
 30
0.0
 10
-62.2635
 20
-3.7321
 30
0.0
  0
SPLINE
  5
7E
330
1F
100
AcDbEntity
  8
DEFAULT_1
 62
   250
100
AcDbSpline
210
0.0
220
0.0
230
1.0
 70
    11
 71
     3
 72
    28
 73
    24
 74
     0
 42
0.0000000001
 43
0.0000000001
 40
0.0
 40
0.0
 40
0.0
 40
0.0
 40
0.1428571428571428
 40
0.1428571428571428
 40
0.1428571428571428
 40
0.1428571428571428
 40
0.2857142857142857
 40
0.2857142857142857
 40
0.2857142857142857
 40
0.2857142857142857
 40
0.4285714285714285
 40
0.4285714285714285
 40
0.4285714285714285
 40
0.4285714285714285
 40
0.5714285714285714
 40
0.5714285714285714
 40
0.5714285714285714
 40
0.5714285714285714
 40
0.7142857142857143
 40
0.7142857142857143
 40
0.7142857142857143
 40
0.7142857142857143
 40
1.0
 40
1.0
 40
1.0
 40
1.0
 10
-61.9693
 20
-3.4983
 30
0.0
 10
-61.9693
 20
-3.4983
 30
0.0
 10
-59.5952
 20
-5.6191
 30
0.0
 10
-59.5952
 20
-5.6191
 30
0.0
 10
-59.5952
 20
-5.6191
 30
0.0
 10
-59.4753
 20
-5.4729
 30
0.0
 10
-59.3916
 20
-5.3375
 30
0.0
 10
-59.3438
 20
-5.2138
 30
0.0
 10
-59.3438
 20
-5.2138
 30
0.0
 10
-59.2805
 20
-5.0521
 30
0.0
 10
-59.2493
 20
-4.8767
 30
0.0
 10
-59.2493
 20
-4.6887
 30
0.0
 10
-59.2493
 20
-4.6887
 30
0.0
 10
-59.2493
 20
-4.2737
 30
0.0
 10
-59.3955
 20
-3.9318
 30
0.0
 10
-59.6887
 20
-3.661
 30
0.0
 10
-59.6887
 20
-3.661
 30
0.0
 10
-59.9819
 20
-3.3911
 30
0.0
 10
-60.393
 20
-3.2557
 30
0.0
 10
-60.922
 20
-3.2557
 30
0.0
 10
-60.922
 20
-3.2557
 30
0.0
 10
-61.3175
 20
-3.2557
 30
0.0
 10
-61.6673
 20
-3.3366
 30
0.0
 10
-61.9693
 20
-3.4983
 30
0.0
  0
SPLINE
  5
7F
330
1F
100
AcDbEntity
  8
DEFAULT_1
 62
   250
100
AcDbSpline
210
0.0
220
0.0
230
1.0
 70
    11
 71
     3
 72
    92
 73
    88
 74
     0
 42
0.0000000001
 43
0.0000000001
 40
0.0
 40
0.0
 40
0.0
 40
0.0
 40
0.0434782608695652
 40
0.0434782608695652
 40
0.0434782608695652
 40
0.0434782608695652
 40
0.0869565217391304
 40
0.0869565217391304
 40
0.0869565217391304
 40
0.0869565217391304
 40
0.1304347826086956
 40
0.1304347826086956
 40
0.1304347826086956
 40
0.1304347826086956
 40
0.1739130434782609
 40
0.1739130434782609
 40
0.1739130434782609
 40
0.1739130434782609
 40
0.2173913043478261
 40
0.2173913043478261
 40
0.2173913043478261
 40
0.2173913043478261
 40
0.2608695652173913
 40
0.2608695652173913
 40
0.2608695652173913
 40
0.2608695652173913
 40
0.3043478260869565
 40
0.3043478260869565
 40
0.3043478260869565
 40
0.3043478260869565
 40
0.3478260869565217
 40
0.3478260869565217
 40
0.3478260869565217
 40
0.3478260869565217
 40
0.391304347826087
 40
0.391304347826087
 40
0.391304347826087
 40
0.391304347826087
 40
0.4347826086956522
 40
0.4347826086956522
 40
0.4347826086956522
 40
0.4347826086956522
 40
0.4782608695652174
 40
0.4782608695652174
 40
0.4782608695652174
 40
0.4782608695652174
 40
0.5217391304347826
 40
0.5217391304347826
 40
0.5217391304347826
 40
0.5217391304347826
 40
0.5652173913043478
 40
0.5652173913043478
 40
0.5652173913043478
 40
0.5652173913043478
 40
0.6086956521739131
 40
0.6086956521739131
 40
0.6086956521739131
 40
0.6086956521739131
 40
0.6521739130434783
 40
0.6521739130434783
 40
0.6521739130434783
 40
0.6521739130434783
 40
0.6956521739130435
 40
0.6956521739130435
 40
0.6956521739130435
 40
0.6956521739130435
 40
0.7391304347826086
 40
0.7391304347826086
 40
0.7391304347826086
 40
0.7391304347826086
 40
0.782608695652174
 40
0.782608695652174
 40
0.782608695652174
 40
0.782608695652174
 40
0.8260869565217391
 40
0.8260869565217391
 40
0.8260869565217391
 40
0.8260869565217391
 40
0.8695652173913043
 40
0.8695652173913043
 40
0.8695652173913043
 40
0.8695652173913043
 40
0.9130434782608695
 40
0.9130434782608695
 40
0.9130434782608695
 40
0.9130434782608695
 40
1.0
 40
1.0
 40
1.0
 40
1.0
 10
-59.943
 20
-2.1685
 30
0.0
 10
-59.943
 20
-2.1685
 30
0.0
 10
-59.9887
 20
-1.6288
 30
0.0
 10
-59.9887
 20
-1.6288
 30
0.0
 10
-59.9887
 20
-1.6288
 30
0.0
 10
-59.7257
 20
-1.5889
 30
0.0
 10
-59.5289
 20
-1.4963
 30
0.0
 10
-59.3964
 20
-1.3512
 30
0.0
 10
-59.3964
 20
-1.3512
 30
0.0
 10
-59.264
 20
-1.2051
 30
0.0
 10
-59.1977
 20
-1.0297
 30
0.0
 10
-59.1977
 20
-0.8242
 30
0.0
 10
-59.1977
 20
-0.8242
 30
0.0
 10
-59.1977
 20
-0.5767
 30
0.0
 10
-59.2912
 20
-0.3673
 30
0.0
 10
-59.4773
 20
-0.1968
 30
0.0
 10
-59.4773
 20
-0.1968
 30
0.0
 10
-59.6643
 20
-0.0253
 30
0.0
 10
-59.9118
 20
0.0604
 30
0.0
 10
-60.2196
 20
0.0604
 30
0.0
 10
-60.2196
 20
0.0604
 30
0.0
 10
-60.5129
 20
0.0604
 30
0.0
 10
-60.7437
 20
-0.0214
 30
0.0
 10
-60.9132
 20
-0.1861
 30
0.0
 10
-60.9132
 20
-0.1861
 30
0.0
 10
-61.0828
 20
-0.3507
 30
0.0
 10
-61.1675
 20
-0.566
 30
0.0
 10
-61.1675
 20
-0.8329
 30
0.0
 10
-61.1675
 20
-0.8329
 30
0.0
 10
-61.1675
 20
-0.9985
 30
0.0
 10
-61.1295
 20
-1.1476
 30
0.0
 10
-61.0545
 20
-1.281
 30
0.0
 10
-61.0545
 20
-1.281
 30
0.0
 10
-60.9795
 20
-1.4145
 30
0.0
 10
-60.8821
 20
-1.5187
 30
0.0
 10
-60.7622
 20
-1.5947
 30
0.0
 10
-60.7622
 20
-1.5947
 30
0.0
 10
-60.7622
 20
-1.5947
 30
0.0
 10
-60.8246
 20
-2.077
 30
0.0
 10
-60.8246
 20
-2.077
 30
0.0
 10
-60.8246
 20
-2.077
 30
0.0
 10
-60.8246
 20
-2.077
 30
0.0
 10
-62.9736
 20
-1.6717
 30
0.0
 10
-62.9736
 20
-1.6717
 30
0.0
 10
-62.9736
 20
-1.6717
 30
0.0
 10
-62.9736
 20
-1.6717
 30
0.0
 10
-62.9736
 20
0.4092
 30
0.0
 10
-62.9736
 20
0.4092
 30
0.0
 10
-62.9736
 20
0.4092
 30
0.0
 10
-62.9736
 20
0.4092
 30
0.0
 10
-62.4827
 20
0.4092
 30
0.0
 10
-62.4827
 20
0.4092
 30
0.0
 10
-62.4827
 20
0.4092
 30
0.0
 10
-62.4827
 20
0.4092
 30
0.0
 10
-62.4827
 20
-1.2606
 30
0.0
 10
-62.4827
 20
-1.2606
 30
0.0
 10
-62.4827
 20
-1.2606
 30
0.0
 10
-62.4827
 20
-1.2606
 30
0.0
 10
-61.3584
 20
-1.4866
 30
0.0
 10
-61.3584
 20
-1.4866
 30
0.0
 10
-61.3584
 20
-1.4866
 30
0.0
 10
-61.5338
 20
-1.2353
 30
0.0
 10
-61.6215
 20
-0.9713
 30
0.0
 10
-61.6215
 20
-0.6956
 30
0.0
 10
-61.6215
 20
-0.6956
 30
0.0
 10
-61.6215
 20
-0.3302
 30
0.0
 10
-61.4948
 20
-0.0224
 30
0.0
 10
-61.2415
 20
0.2289
 30
0.0
 10
-61.2415
 20
0.2289
 30
0.0
 10
-60.9883
 20
0.4803
 30
0.0
 10
-60.6629
 20
0.6059
 30
0.0
 10
-60.2654
 20
0.6059
 30
0.0
 10
-60.2654
 20
0.6059
 30
0.0
 10
-59.8865
 20
0.6059
 30
0.0
 10
-59.5591
 20
0.4949
 30
0.0
 10
-59.2834
 20
0.2747
 30
0.0
 10
-59.2834
 20
0.2747
 30
0.0
 10
-58.9454
 20
0.0058
 30
0.0
 10
-58.7759
 20
-0.3604
 30
0.0
 10
-58.7759
 20
-0.8242
 30
0.0
 10
-58.7759
 20
-0.8242
 30
0.0
 10
-58.7759
 20
-1.2051
 30
0.0
 10
-58.8821
 20
-1.5158
 30
0.0
 10
-59.0954
 20
-1.7564
 30
0.0
 10
-59.0954
 20
-1.7564
 30
0.0
 10
-59.3088
 20
-1.9971
 30
0.0
 10
-59.5913
 20
-2.1344
 30
0.0
 10
-59.943
 20
-2.1685
 30
0.0
  0
SPLINE
  5
80
330
1F
100
AcDbEntity
  8
DEFAULT_1
 62
   250
100
AcDbSpline
210
0.0
220
0.0
230
1.0
 70
    11
 71
     3
 72
    52
 73
    48
 74
     0
 42
0.0000000001
 43
0.0000000001
 40
0.0
 40
0.0
 40
0.0
 40
0.0
 40
0.0769230769230769
 40
0.0769230769230769
 40
0.0769230769230769
 40
0.0769230769230769
 40
0.1538461538461539
 40
0.1538461538461539
 40
0.1538461538461539
 40
0.1538461538461539
 40
0.2307692307692308
 40
0.2307692307692308
 40
0.2307692307692308
 40
0.2307692307692308
 40
0.3076923076923077
 40
0.3076923076923077
 40
0.3076923076923077
 40
0.3076923076923077
 40
0.3846153846153846
 40
0.3846153846153846
 40
0.3846153846153846
 40
0.3846153846153846
 40
0.4615384615384616
 40
0.4615384615384616
 40
0.4615384615384616
 40
0.4615384615384616
 40
0.5384615384615384
 40
0.5384615384615384
 40
0.5384615384615384
 40
0.5384615384615384
 40
0.6153846153846154
 40
0.6153846153846154
 40
0.6153846153846154
 40
0.6153846153846154
 40
0.6923076923076923
 40
0.6923076923076923
 40
0.6923076923076923
 40
0.6923076923076923
 40
0.7692307692307693
 40
0.7692307692307693
 40
0.7692307692307693
 40
0.7692307692307693
 40
0.8461538461538461
 40
0.8461538461538461
 40
0.8461538461538461
 40
0.8461538461538461
 40
1.0
 40
1.0
 40
1.0
 40
1.0
 10
-60.9103
 20
1.0823
 30
0.0
 10
-61.4052
 20
1.0823
 30
0.0
 10
-61.8036
 20
1.1329
 30
0.0
 10
-62.1047
 20
1.2352
 30
0.0
 10
-62.1047
 20
1.2352
 30
0.0
 10
-62.4067
 20
1.3365
 30
0.0
 10
-62.6395
 20
1.4885
 30
0.0
 10
-62.8032
 20
1.6892
 30
0.0
 10
-62.8032
 20
1.6892
 30
0.0
 10
-62.9668
 20
1.8899
 30
0.0
 10
-63.0487
 20
2.1422
 30
0.0
 10
-63.0487
 20
2.4461
 30
0.0
 10
-63.0487
 20
2.4461
 30
0.0
 10
-63.0487
 20
2.6712
 30
0.0
 10
-63.0029
 20
2.8679
 30
0.0
 10
-62.9123
 20
3.0375
 30
0.0
 10
-62.9123
 20
3.0375
 30
0.0
 10
-62.8226
 20
3.207
 30
0.0
 10
-62.6921
 20
3.3463
 30
0.0
 10
-62.5216
 20
3.4573
 30
0.0
 10
-62.5216
 20
3.4573
 30
0.0
 10
-62.3511
 20
3.5674
 30
0.0
 10
-62.1436
 20
3.6541
 30
0.0
 10
-61.8991
 20
3.7165
 30
0.0
 10
-61.8991
 20
3.7165
 30
0.0
 10
-61.6546
 20
3.7798
 30
0.0
 10
-61.3253
 20
3.811
 30
0.0
 10
-60.9103
 20
3.811
 30
0.0
 10
-60.9103
 20
3.811
 30
0.0
 10
-60.4193
 20
3.811
 30
0.0
 10
-60.0238
 20
3.7603
 30
0.0
 10
-59.7218
 20
3.66
 30
0.0
 10
-59.7218
 20
3.66
 30
0.0
 10
-59.4198
 20
3.5586
 30
0.0
 10
-59.187
 20
3.4076
 30
0.0
 10
-59.0224
 20
3.207
 30
0.0
 10
-59.0224
 20
3.207
 30
0.0
 10
-58.8577
 20
3.0063
 30
0.0
 10
-58.7759
 20
2.753
 30
0.0
 10
-58.7759
 20
2.4461
 30
0.0
 10
-58.7759
 20
2.4461
 30
0.0
 10
-58.7759
 20
2.0428
 30
0.0
 10
-58.9201
 20
1.7262
 30
0.0
 10
-59.2094
 20
1.4963
 30
0.0
 10
-59.2094
 20
1.4963
 30
0.0
 10
-59.5572
 20
1.2206
 30
0.0
 10
-60.1251
 20
1.0823
 30
0.0
 10
-60.9103
 20
1.0823
 30
0.0
  0
SPLINE
  5
81
330
1F
100
AcDbEntity
  8
DEFAULT_1
 62
   250
100
AcDbSpline
210
0.0
220
0.0
230
1.0
 70
    11
 71
     3
 72
    36
 73
    32
 74
     0
 42
0.0000000001
 43
0.0000000001
 40
0.0
 40
0.0
 40
0.0
 40
0.0
 40
0.1111111111111111
 40
0.1111111111111111
 40
0.1111111111111111
 40
0.1111111111111111
 40
0.2222222222222222
 40
0.2222222222222222
 40
0.2222222222222222
 40
0.2222222222222222
 40
0.3333333333333333
 40
0.3333333333333333
 40
0.3333333333333333
 40
0.3333333333333333
 40
0.4444444444444444
 40
0.4444444444444444
 40
0.4444444444444444
 40
0.4444444444444444
 40
0.5555555555555556
 40
0.5555555555555556
 40
0.5555555555555556
 40
0.5555555555555556
 40
0.6666666666666666
 40
0.6666666666666666
 40
0.6666666666666666
 40
0.6666666666666666
 40
0.7777777777777778
 40
0.7777777777777778
 40
0.7777777777777778
 40
0.7777777777777778
 40
1.0
 40
1.0
 40
1.0
 40
1.0
 10
-60.9103
 20
1.6103
 30
0.0
 10
-60.2235
 20
1.6103
 30
0.0
 10
-59.7666
 20
1.6911
 30
0.0
 10
-59.5387
 20
1.8519
 30
0.0
 10
-59.5387
 20
1.8519
 30
0.0
 10
-59.3117
 20
2.0126
 30
0.0
 10
-59.1977
 20
2.2104
 30
0.0
 10
-59.1977
 20
2.4461
 30
0.0
 10
-59.1977
 20
2.4461
 30
0.0
 10
-59.1977
 20
2.6829
 30
0.0
 10
-59.3127
 20
2.8806
 30
0.0
 10
-59.5406
 20
3.0414
 30
0.0
 10
-59.5406
 20
3.0414
 30
0.0
 10
-59.7686
 20
3.2021
 30
0.0
 10
-60.2255
 20
3.283
 30
0.0
 10
-60.9103
 20
3.283
 30
0.0
 10
-60.9103
 20
3.283
 30
0.0
 10
-61.5991
 20
3.283
 30
0.0
 10
-62.0569
 20
3.2021
 30
0.0
 10
-62.2829
 20
3.0414
 30
0.0
 10
-62.2829
 20
3.0414
 30
0.0
 10
-62.5099
 20
2.8806
 30
0.0
 10
-62.6229
 20
2.6809
 30
0.0
 10
-62.6229
 20
2.4413
 30
0.0
 10
-62.6229
 20
2.4413
 30
0.0
 10
-62.6229
 20
2.2045
 30
0.0
 10
-62.5226
 20
2.0165
 30
0.0
 10
-62.3229
 20
1.8753
 30
0.0
 10
-62.3229
 20
1.8753
 30
0.0
 10
-62.0686
 20
1.6989
 30
0.0
 10
-61.5971
 20
1.6103
 30
0.0
 10
-60.9103
 20
1.6103
 30
0.0
  0
SPLINE
  5
82
330
1F
100
AcDbEntity
  8
DEFAULT_1
 62
   250
100
AcDbSpline
210
0.0
220
0.0
230
1.0
 70
    11
 71
     3
 72
    20
 73
    16
 74
     0
 42
0.0000000001
 43
0.0000000001
 40
0.0
 40
0.0
 40
0.0
 40
0.0
 40
0.2
 40
0.2
 40
0.2
 40
0.2
 40
0.4
 40
0.4
 40
0.4
 40
0.4
 40
0.6
 40
0.6
 40
0.6
 40
0.6
 40
1.0
 40
1.0
 40
1.0
 40
1.0
 10
-58.167
 20
6.1452
 30
0.0
 10
-58.167
 20
6.1452
 30
0.0
 10
-57.2741
 20
12.2602
 30
0.0
 10
-57.2741
 20
12.2602
 30
0.0
 10
-57.2741
 20
12.2602
 30
0.0
 10
-57.2741
 20
12.2602
 30
0.0
 10
-59.2451
 20
12.2602
 30
0.0
 10
-59.2451
 20
12.2602
 30
0.0
 10
-59.2451
 20
12.2602
 30
0.0
 10
-59.2451
 20
12.2602
 30
0.0
 10
-58.1697
 20
6.1452
 30
0.0
 10
-58.1697
 20
6.1452
 30
0.0
 10
-58.1697
 20
6.1452
 30
0.0
 10
-58.1697
 20
6.1452
 30
0.0
 10
-58.167
 20
6.1452
 30
0.0
 10
-58.167
 20
6.1452
 30
0.0
  0
SPLINE
  5
83
330
1F
100
AcDbEntity
  8
DEFAULT_1
 62
   250
100
AcDbSpline
210
0.0
220
0.0
230
1.0
 70
    11
 71
     3
 72
    20
 73
    16
 74
     0
 42
0.0000000001
 43
0.0000000001
 40
0.0
 40
0.0
 40
0.0
 40
0.0
 40
0.2
 40
0.2
 40
0.2
 40
0.2
 40
0.4
 40
0.4
 40
0.4
 40
0.4
 40
0.6
 40
0.6
 40
0.6
 40
0.6
 40
1.0
 40
1.0
 40
1.0
 40
1.0
 10
-58.1816
 20
-9.4361
 30
0.0
 10
-58.1816
 20
-9.4361
 30
0.0
 10
-59.0745
 20
-15.5511
 30
0.0
 10
-59.0745
 20
-15.5511
 30
0.0
 10
-59.0745
 20
-15.5511
 30
0.0
 10
-59.0745
 20
-15.5511
 30
0.0
 10
-57.1035
 20
-15.5511
 30
0.0
 10
-57.1035
 20
-15.5511
 30
0.0
 10
-57.1035
 20
-15.5511
 30
0.0
 10
-57.1035
 20
-15.5511
 30
0.0
 10
-58.1789
 20
-9.4361
 30
0.0
 10
-58.1789
 20
-9.4361
 30
0.0
 10
-58.1789
 20
-9.4361
 30
0.0
 10
-58.1789
 20
-9.4361
 30
0.0
 10
-58.1816
 20
-9.4361
 30
0.0
 10
-58.1816
 20
-9.4361
 30
0.0
  0
SPLINE
  5
84
330
1F
100
AcDbEntity
  8
DEFAULT_1
 62
   250
100
AcDbSpline
210
0.0
220
0.0
230
1.0
 70
    24
 71
     3
 72
     8
 73
     4
 74
     0
 42
0.0000000001
 43
0.0000000001
 40
0.0
 40
0.0
 40
0.0
 40
0.0
 40
1.0
 40
1.0
 40
1.0
 40
1.0
 10
-58.1803
 20
14.6437
 30
0.0
 10
-58.1803
 20
14.6437
 30
0.0
 10
-58.1803
 20
-18.4187
 30
0.0
 10
-58.1803
 20
-18.4187
 30
0.0
  0
SPLINE
  5
85
330
1F
100
AcDbEntity
  8
DEFAULT_1
 62
   250
100
AcDbSpline
210
0.0
220
0.0
230
1.0
 70
    24
 71
     3
 72
     8
 73
     4
 74
     0
 42
0.0000000001
 43
0.0000000001
 40
0.0
 40
0.0
 40
0.0
 40
0.0
 40
1.0
 40
1.0
 40
1.0
 40
1.0
 10
39.4562
 20
4.5462
 30
0.0
 10
39.4562
 20
4.5462
 30
0.0
 10
24.2723
 20
4.5462
 30
0.0
 10
24.2723
 20
4.5462
 30
0.0
  0
SPLINE
  5
86
330
1F
100
AcDbEntity
  8
DEFAULT_1
 62
   250
100
AcDbSpline
210
0.0
220
0.0
230
1.0
 70
    24
 71
     3
 72
     8
 73
     4
 74
     0
 42
0.0000000001
 43
0.0000000001
 40
0.0
 40
0.0
 40
0.0
 40
0.0
 40
1.0
 40
1.0
 40
1.0
 40
1.0
 10
24.1155
 20
4.3898
 30
0.0
 10
24.1155
 20
4.3898
 30
0.0
 10
24.1155
 20
-7.8205
 30
0.0
 10
24.1155
 20
-7.8205
 30
0.0
  0
SPLINE
  5
87
330
1F
100
AcDbEntity
  8
DEFAULT_1
 62
   250
100
AcDbSpline
210
0.0
220
0.0
230
1.0
 70
     8
 71
     3
 72
     8
 73
     4
 74
     0
 42
0.0000000001
 43
0.0000000001
 40
0.0
 40
0.0
 40
0.0
 40
0.0
 40
1.0
 40
1.0
 40
1.0
 40
1.0
 10
24.2723
 20
-7.9768
 30
0.0
 10
24.1857
 20
-7.9768
 30
0.0
 10
24.1155
 20
-7.9066
 30
0.0
 10
24.1155
 20
-7.8205
 30
0.0
  0
SPLINE
  5
88
330
1F
100
AcDbEntity
  8
DEFAULT_1
 62
   250
100
AcDbSpline
210
0.0
220
0.0
230
1.0
 70
     8
 71
     3
 72
     8
 73
     4
 74
     0
 42
0.0000000001
 43
0.0000000001
 40
0.0
 40
0.0
 40
0.0
 40
0.0
 40
1.0
 40
1.0
 40
1.0
 40
1.0
 10
24.1155
 20
4.3898
 30
0.0
 10
24.1155
 20
4.4762
 30
0.0
 10
24.1857
 20
4.5462
 30
0.0
 10
24.2723
 20
4.5462
 30
0.0
  0
SPLINE
  5
89
330
1F
100
AcDbEntity
  8
DEFAULT_1
 62
   250
100
AcDbSpline
210
0.0
220
0.0
230
1.0
 70
    24
 71
     3
 72
     8
 73
     4
 74
     0
 42
0.0000000001
 43
0.0000000001
 40
0.0
 40
0.0
 40
0.0
 40
0.0
 40
1.0
 40
1.0
 40
1.0
 40
1.0
 10
55.1102
 20
-9.5422
 30
0.0
 10
55.1102
 20
-9.5422
 30
0.0
 10
55.1102
 20
6.1116
 30
0.0
 10
55.1102
 20
6.1116
 30
0.0
  0
SPLINE
  5
8A
330
1F
100
AcDbEntity
  8
DEFAULT_1
 62
   250
100
AcDbSpline
210
0.0
220
0.0
230
1.0
 70
    24
 71
     3
 72
     8
 73
     4
 74
     0
 42
0.0000000001
 43
0.0000000001
 40
0.0
 40
0.0
 40
0.0
 40
0.0
 40
1.0
 40
1.0
 40
1.0
 40
1.0
 10
39.4562
 20
-9.5422
 30
0.0
 10
39.4562
 20
-9.5422
 30
0.0
 10
39.4562
 20
6.1116
 30
0.0
 10
39.4562
 20
6.1116
 30
0.0
  0
SPLINE
  5
8B
330
1F
100
AcDbEntity
  8
DEFAULT_1
 62
   250
100
AcDbSpline
210
0.0
220
0.0
230
1.0
 70
    24
 71
     3
 72
     8
 73
     4
 74
     0
 42
0.0000000001
 43
0.0000000001
 40
0.0
 40
0.0
 40
0.0
 40
0.0
 40
1.0
 40
1.0
 40
1.0
 40
1.0
 10
39.4562
 20
-9.5422
 30
0.0
 10
39.4562
 20
-9.5422
 30
0.0
 10
55.1102
 20
-9.5422
 30
0.0
 10
55.1102
 20
-9.5422
 30
0.0
  0
SPLINE
  5
8C
330
1F
100
AcDbEntity
  8
DEFAULT_1
 62
   250
100
AcDbSpline
210
0.0
220
0.0
230
1.0
 70
    24
 71
     3
 72
     8
 73
     4
 74
     0
 42
0.0000000001
 43
0.0000000001
 40
0.0
 40
0.0
 40
0.0
 40
0.0
 40
1.0
 40
1.0
 40
1.0
 40
1.0
 10
39.4562
 20
6.1116
 30
0.0
 10
39.4562
 20
6.1116
 30
0.0
 10
55.1102
 20
6.1116
 30
0.0
 10
55.1102
 20
6.1116
 30
0.0
  0
SPLINE
  5
8D
330
1F
100
AcDbEntity
  8
DEFAULT_1
 62
   250
100
AcDbSpline
210
0.0
220
0.0
230
1.0
 70
    24
 71
     3
 72
     8
 73
     4
 74
     0
 42
0.0000000001
 43
0.0000000001
 40
0.0
 40
0.0
 40
0.0
 40
0.0
 40
1.0
 40
1.0
 40
1.0
 40
1.0
 10
39.4562
 20
-7.9768
 30
0.0
 10
39.4562
 20
-7.9768
 30
0.0
 10
24.2723
 20
-7.9768
 30
0.0
 10
24.2723
 20
-7.9768
 30
0.0
  0
SPLINE
  5
8E
330
1F
100
AcDbEntity
  8
DEFAULT_1
 62
   250
100
AcDbSpline
210
0.0
220
0.0
230
1.0
 70
    11
 71
     3
 72
    84
 73
    80
 74
     0
 42
0.0000000001
 43
0.0000000001
 40
0.0
 40
0.0
 40
0.0
 40
0.0
 40
0.0476190476190476
 40
0.0476190476190476
 40
0.0476190476190476
 40
0.0476190476190476
 40
0.0952380952380952
 40
0.0952380952380952
 40
0.0952380952380952
 40
0.0952380952380952
 40
0.1428571428571428
 40
0.1428571428571428
 40
0.1428571428571428
 40
0.1428571428571428
 40
0.1904761904761905
 40
0.1904761904761905
 40
0.1904761904761905
 40
0.1904761904761905
 40
0.2380952380952381
 40
0.2380952380952381
 40
0.2380952380952381
 40
0.2380952380952381
 40
0.2857142857142857
 40
0.2857142857142857
 40
0.2857142857142857
 40
0.2857142857142857
 40
0.3333333333333333
 40
0.3333333333333333
 40
0.3333333333333333
 40
0.3333333333333333
 40
0.3809523809523809
 40
0.3809523809523809
 40
0.3809523809523809
 40
0.3809523809523809
 40
0.4285714285714285
 40
0.4285714285714285
 40
0.4285714285714285
 40
0.4285714285714285
 40
0.4761904761904762
 40
0.4761904761904762
 40
0.4761904761904762
 40
0.4761904761904762
 40
0.5238095238095238
 40
0.5238095238095238
 40
0.5238095238095238
 40
0.5238095238095238
 40
0.5714285714285714
 40
0.5714285714285714
 40
0.5714285714285714
 40
0.5714285714285714
 40
0.6190476190476191
 40
0.6190476190476191
 40
0.6190476190476191
 40
0.6190476190476191
 40
0.6666666666666666
 40
0.6666666666666666
 40
0.6666666666666666
 40
0.6666666666666666
 40
0.7142857142857143
 40
0.7142857142857143
 40
0.7142857142857143
 40
0.7142857142857143
 40
0.7619047619047619
 40
0.7619047619047619
 40
0.7619047619047619
 40
0.7619047619047619
 40
0.8095238095238095
 40
0.8095238095238095
 40
0.8095238095238095
 40
0.8095238095238095
 40
0.8571428571428571
 40
0.8571428571428571
 40
0.8571428571428571
 40
0.8571428571428571
 40
0.9047619047619048
 40
0.9047619047619048
 40
0.9047619047619048
 40
0.9047619047619048
 40
1.0
 40
1.0
 40
1.0
 40
1.0
 10
57.5342
 20
-3.2899
 30
0.0
 10
57.5342
 20
-3.2899
 30
0.0
 10
56.9975
 20
-2.8106
 30
0.0
 10
56.9975
 20
-2.8106
 30
0.0
 10
56.9975
 20
-2.8106
 30
0.0
 10
56.9975
 20
-2.8106
 30
0.0
 10
57.2371
 20
-2.5281
 30
0.0
 10
57.2371
 20
-2.5281
 30
0.0
 10
57.2371
 20
-2.5281
 30
0.0
 10
57.2371
 20
-2.5281
 30
0.0
 10
57.8021
 20
-3.0298
 30
0.0
 10
57.8021
 20
-3.0298
 30
0.0
 10
57.8021
 20
-3.0298
 30
0.0
 10
58.0457
 20
-2.8662
 30
0.0
 10
58.259
 20
-2.7561
 30
0.0
 10
58.4412
 20
-2.6986
 30
0.0
 10
58.4412
 20
-2.6986
 30
0.0
 10
58.6809
 20
-2.6226
 30
0.0
 10
58.9497
 20
-2.5846
 30
0.0
 10
59.2459
 20
-2.5846
 30
0.0
 10
59.2459
 20
-2.5846
 30
0.0
 10
59.6745
 20
-2.5846
 30
0.0
 10
60.0564
 20
-2.6713
 30
0.0
 10
60.3905
 20
-2.8447
 30
0.0
 10
60.3905
 20
-2.8447
 30
0.0
 10
60.7257
 20
-3.0181
 30
0.0
 10
60.9789
 20
-3.2607
 30
0.0
 10
61.1504
 20
-3.5734
 30
0.0
 10
61.1504
 20
-3.5734
 30
0.0
 10
61.3209
 20
-3.8871
 30
0.0
 10
61.4066
 20
-4.2193
 30
0.0
 10
61.4066
 20
-4.571
 30
0.0
 10
61.4066
 20
-4.571
 30
0.0
 10
61.4066
 20
-4.834
 30
0.0
 10
61.3696
 20
-5.0717
 30
0.0
 10
61.2956
 20
-5.2851
 30
0.0
 10
61.2956
 20
-5.2851
 30
0.0
 10
61.2381
 20
-5.4487
 30
0.0
 10
61.129
 20
-5.6397
 30
0.0
 10
60.9673
 20
-5.8589
 30
0.0
 10
60.9673
 20
-5.8589
 30
0.0
 10
60.9673
 20
-5.8589
 30
0.0
 10
61.504
 20
-6.3382
 30
0.0
 10
61.504
 20
-6.3382
 30
0.0
 10
61.504
 20
-6.3382
 30
0.0
 10
61.504
 20
-6.3382
 30
0.0
 10
61.2644
 20
-6.6207
 30
0.0
 10
61.2644
 20
-6.6207
 30
0.0
 10
61.2644
 20
-6.6207
 30
0.0
 10
61.2644
 20
-6.6207
 30
0.0
 10
60.7023
 20
-6.118
 30
0.0
 10
60.7023
 20
-6.118
 30
0.0
 10
60.7023
 20
-6.118
 30
0.0
 10
60.4188
 20
-6.305
 30
0.0
 10
60.1762
 20
-6.4297
 30
0.0
 10
59.9755
 20
-6.4921
 30
0.0
 10
59.9755
 20
-6.4921
 30
0.0
 10
59.7749
 20
-6.5544
 30
0.0
 10
59.5333
 20
-6.5866
 30
0.0
 10
59.2517
 20
-6.5866
 30
0.0
 10
59.2517
 20
-6.5866
 30
0.0
 10
58.8221
 20
-6.5866
 30
0.0
 10
58.4393
 20
-6.5008
 30
0.0
 10
58.1032
 20
-6.3294
 30
0.0
 10
58.1032
 20
-6.3294
 30
0.0
 10
57.7671
 20
-6.1579
 30
0.0
 10
57.5128
 20
-5.9183
 30
0.0
 10
57.3394
 20
-5.6085
 30
0.0
 10
57.3394
 20
-5.6085
 30
0.0
 10
57.167
 20
-5.2997
 30
0.0
 10
57.0803
 20
-4.9558
 30
0.0
 10
57.0803
 20
-4.5768
 30
0.0
 10
57.0803
 20
-4.5768
 30
0.0
 10
57.0803
 20
-4.3216
 30
0.0
 10
57.1134
 20
-4.0985
 30
0.0
 10
57.1816
 20
-3.9076
 30
0.0
 10
57.1816
 20
-3.9076
 30
0.0
 10
57.2488
 20
-3.7166
 30
0.0
 10
57.3667
 20
-3.5101
 30
0.0
 10
57.5342
 20
-3.2899
 30
0.0
  0
SPLINE
  5
8F
330
1F
100
AcDbEntity
  8
DEFAULT_1
 62
   250
100
AcDbSpline
210
0.0
220
0.0
230
1.0
 70
    11
 71
     3
 72
    32
 73
    28
 74
     0
 42
0.0000000001
 43
0.0000000001
 40
0.0
 40
0.0
 40
0.0
 40
0.0
 40
0.125
 40
0.125
 40
0.125
 40
0.125
 40
0.25
 40
0.25
 40
0.25
 40
0.25
 40
0.375
 40
0.375
 40
0.375
 40
0.375
 40
0.5
 40
0.5
 40
0.5
 40
0.5
 40
0.625
 40
0.625
 40
0.625
 40
0.625
 40
0.75
 40
0.75
 40
0.75
 40
0.75
 40
1.0
 40
1.0
 40
1.0
 40
1.0
 10
57.919
 20
-3.6319
 30
0.0
 10
57.7788
 20
-3.8111
 30
0.0
 10
57.6823
 20
-3.968
 30
0.0
 10
57.6307
 20
-4.1014
 30
0.0
 10
57.6307
 20
-4.1014
 30
0.0
 10
57.58
 20
-4.2359
 30
0.0
 10
57.5537
 20
-4.3937
 30
0.0
 10
57.5537
 20
-4.5739
 30
0.0
 10
57.5537
 20
-4.5739
 30
0.0
 10
57.5537
 20
-4.9909
 30
0.0
 10
57.695
 20
-5.3348
 30
0.0
 10
57.9775
 20
-5.6075
 30
0.0
 10
57.9775
 20
-5.6075
 30
0.0
 10
58.26
 20
-5.8793
 30
0.0
 10
58.6818
 20
-6.0157
 30
0.0
 10
59.2439
 20
-6.0157
 30
0.0
 10
59.2439
 20
-6.0157
 30
0.0
 10
59.4641
 20
-6.0157
 30
0.0
 10
59.6599
 20
-5.9943
 30
0.0
 10
59.8314
 20
-5.9524
 30
0.0
 10
59.8314
 20
-5.9524
 30
0.0
 10
59.959
 20
-5.9222
 30
0.0
 10
60.1158
 20
-5.8589
 30
0.0
 10
60.3019
 20
-5.7614
 30
0.0
 10
60.3019
 20
-5.7614
 30
0.0
 10
60.3019
 20
-5.7614
 30
0.0
 10
57.919
 20
-3.6319
 30
0.0
 10
57.919
 20
-3.6319
 30
0.0
  0
SPLINE
  5
90
330
1F
100
AcDbEntity
  8
DEFAULT_1
 62
   250
100
AcDbSpline
210
0.0
220
0.0
230
1.0
 70
    11
 71
     3
 72
    28
 73
    24
 74
     0
 42
0.0000000001
 43
0.0000000001
 40
0.0
 40
0.0
 40
0.0
 40
0.0
 40
0.1428571428571428
 40
0.1428571428571428
 40
0.1428571428571428
 40
0.1428571428571428
 40
0.2857142857142857
 40
0.2857142857142857
 40
0.2857142857142857
 40
0.2857142857142857
 40
0.4285714285714285
 40
0.4285714285714285
 40
0.4285714285714285
 40
0.4285714285714285
 40
0.5714285714285714
 40
0.5714285714285714
 40
0.5714285714285714
 40
0.5714285714285714
 40
0.7142857142857143
 40
0.7142857142857143
 40
0.7142857142857143
 40
0.7142857142857143
 40
1.0
 40
1.0
 40
1.0
 40
1.0
 10
58.2132
 20
-3.3981
 30
0.0
 10
58.2132
 20
-3.3981
 30
0.0
 10
60.5873
 20
-5.5189
 30
0.0
 10
60.5873
 20
-5.5189
 30
0.0
 10
60.5873
 20
-5.5189
 30
0.0
 10
60.7072
 20
-5.3727
 30
0.0
 10
60.7909
 20
-5.2373
 30
0.0
 10
60.8387
 20
-5.1136
 30
0.0
 10
60.8387
 20
-5.1136
 30
0.0
 10
60.902
 20
-4.9519
 30
0.0
 10
60.9332
 20
-4.7765
 30
0.0
 10
60.9332
 20
-4.5885
 30
0.0
 10
60.9332
 20
-4.5885
 30
0.0
 10
60.9332
 20
-4.1735
 30
0.0
 10
60.787
 20
-3.8316
 30
0.0
 10
60.4938
 20
-3.5608
 30
0.0
 10
60.4938
 20
-3.5608
 30
0.0
 10
60.2006
 20
-3.2909
 30
0.0
 10
59.7895
 20
-3.1555
 30
0.0
 10
59.2605
 20
-3.1555
 30
0.0
 10
59.2605
 20
-3.1555
 30
0.0
 10
58.865
 20
-3.1555
 30
0.0
 10
58.5152
 20
-3.2364
 30
0.0
 10
58.2132
 20
-3.3981
 30
0.0
  0
SPLINE
  5
91
330
1F
100
AcDbEntity
  8
DEFAULT_1
 62
   250
100
AcDbSpline
210
0.0
220
0.0
230
1.0
 70
    11
 71
     3
 72
    92
 73
    88
 74
     0
 42
0.0000000001
 43
0.0000000001
 40
0.0
 40
0.0
 40
0.0
 40
0.0
 40
0.0434782608695652
 40
0.0434782608695652
 40
0.0434782608695652
 40
0.0434782608695652
 40
0.0869565217391304
 40
0.0869565217391304
 40
0.0869565217391304
 40
0.0869565217391304
 40
0.1304347826086956
 40
0.1304347826086956
 40
0.1304347826086956
 40
0.1304347826086956
 40
0.1739130434782609
 40
0.1739130434782609
 40
0.1739130434782609
 40
0.1739130434782609
 40
0.2173913043478261
 40
0.2173913043478261
 40
0.2173913043478261
 40
0.2173913043478261
 40
0.2608695652173913
 40
0.2608695652173913
 40
0.2608695652173913
 40
0.2608695652173913
 40
0.3043478260869565
 40
0.3043478260869565
 40
0.3043478260869565
 40
0.3043478260869565
 40
0.3478260869565217
 40
0.3478260869565217
 40
0.3478260869565217
 40
0.3478260869565217
 40
0.391304347826087
 40
0.391304347826087
 40
0.391304347826087
 40
0.391304347826087
 40
0.4347826086956522
 40
0.4347826086956522
 40
0.4347826086956522
 40
0.4347826086956522
 40
0.4782608695652174
 40
0.4782608695652174
 40
0.4782608695652174
 40
0.4782608695652174
 40
0.5217391304347826
 40
0.5217391304347826
 40
0.5217391304347826
 40
0.5217391304347826
 40
0.5652173913043478
 40
0.5652173913043478
 40
0.5652173913043478
 40
0.5652173913043478
 40
0.6086956521739131
 40
0.6086956521739131
 40
0.6086956521739131
 40
0.6086956521739131
 40
0.6521739130434783
 40
0.6521739130434783
 40
0.6521739130434783
 40
0.6521739130434783
 40
0.6956521739130435
 40
0.6956521739130435
 40
0.6956521739130435
 40
0.6956521739130435
 40
0.7391304347826086
 40
0.7391304347826086
 40
0.7391304347826086
 40
0.7391304347826086
 40
0.782608695652174
 40
0.782608695652174
 40
0.782608695652174
 40
0.782608695652174
 40
0.8260869565217391
 40
0.8260869565217391
 40
0.8260869565217391
 40
0.8260869565217391
 40
0.8695652173913043
 40
0.8695652173913043
 40
0.8695652173913043
 40
0.8695652173913043
 40
0.9130434782608695
 40
0.9130434782608695
 40
0.9130434782608695
 40
0.9130434782608695
 40
1.0
 40
1.0
 40
1.0
 40
1.0
 10
60.2395
 20
-2.0683
 30
0.0
 10
60.2395
 20
-2.0683
 30
0.0
 10
60.1938
 20
-1.5286
 30
0.0
 10
60.1938
 20
-1.5286
 30
0.0
 10
60.1938
 20
-1.5286
 30
0.0
 10
60.4568
 20
-1.4887
 30
0.0
 10
60.6536
 20
-1.3961
 30
0.0
 10
60.7861
 20
-1.251
 30
0.0
 10
60.7861
 20
-1.251
 30
0.0
 10
60.9185
 20
-1.1049
 30
0.0
 10
60.9848
 20
-0.9295
 30
0.0
 10
60.9848
 20
-0.724
 30
0.0
 10
60.9848
 20
-0.724
 30
0.0
 10
60.9848
 20
-0.4765
 30
0.0
 10
60.8913
 20
-0.2671
 30
0.0
 10
60.7052
 20
-0.0966
 30
0.0
 10
60.7052
 20
-0.0966
 30
0.0
 10
60.5182
 20
0.0749
 30
0.0
 10
60.2707
 20
0.1606
 30
0.0
 10
59.9629
 20
0.1606
 30
0.0
 10
59.9629
 20
0.1606
 30
0.0
 10
59.6696
 20
0.1606
 30
0.0
 10
59.4388
 20
0.0788
 30
0.0
 10
59.2693
 20
-0.0859
 30
0.0
 10
59.2693
 20
-0.0859
 30
0.0
 10
59.0997
 20
-0.2505
 30
0.0
 10
59.015
 20
-0.4658
 30
0.0
 10
59.015
 20
-0.7327
 30
0.0
 10
59.015
 20
-0.7327
 30
0.0
 10
59.015
 20
-0.8983
 30
0.0
 10
59.053
 20
-1.0474
 30
0.0
 10
59.128
 20
-1.1808
 30
0.0
 10
59.128
 20
-1.1808
 30
0.0
 10
59.203
 20
-1.3143
 30
0.0
 10
59.3004
 20
-1.4185
 30
0.0
 10
59.4203
 20
-1.4945
 30
0.0
 10
59.4203
 20
-1.4945
 30
0.0
 10
59.4203
 20
-1.4945
 30
0.0
 10
59.3579
 20
-1.9768
 30
0.0
 10
59.3579
 20
-1.9768
 30
0.0
 10
59.3579
 20
-1.9768
 30
0.0
 10
59.3579
 20
-1.9768
 30
0.0
 10
57.2089
 20
-1.5715
 30
0.0
 10
57.2089
 20
-1.5715
 30
0.0
 10
57.2089
 20
-1.5715
 30
0.0
 10
57.2089
 20
-1.5715
 30
0.0
 10
57.2089
 20
0.5094
 30
0.0
 10
57.2089
 20
0.5094
 30
0.0
 10
57.2089
 20
0.5094
 30
0.0
 10
57.2089
 20
0.5094
 30
0.0
 10
57.6998
 20
0.5094
 30
0.0
 10
57.6998
 20
0.5094
 30
0.0
 10
57.6998
 20
0.5094
 30
0.0
 10
57.6998
 20
0.5094
 30
0.0
 10
57.6998
 20
-1.1604
 30
0.0
 10
57.6998
 20
-1.1604
 30
0.0
 10
57.6998
 20
-1.1604
 30
0.0
 10
57.6998
 20
-1.1604
 30
0.0
 10
58.8241
 20
-1.3864
 30
0.0
 10
58.8241
 20
-1.3864
 30
0.0
 10
58.8241
 20
-1.3864
 30
0.0
 10
58.6487
 20
-1.1351
 30
0.0
 10
58.561
 20
-0.8711
 30
0.0
 10
58.561
 20
-0.5954
 30
0.0
 10
58.561
 20
-0.5954
 30
0.0
 10
58.561
 20
-0.23
 30
0.0
 10
58.6877
 20
0.0778
 30
0.0
 10
58.941
 20
0.3291
 30
0.0
 10
58.941
 20
0.3291
 30
0.0
 10
59.1942
 20
0.5805
 30
0.0
 10
59.5196
 20
0.7061
 30
0.0
 10
59.9171
 20
0.7061
 30
0.0
 10
59.9171
 20
0.7061
 30
0.0
 10
60.296
 20
0.7061
 30
0.0
 10
60.6234
 20
0.5951
 30
0.0
 10
60.8991
 20
0.3749
 30
0.0
 10
60.8991
 20
0.3749
 30
0.0
 10
61.2371
 20
0.106
 30
0.0
 10
61.4066
 20
-0.2602
 30
0.0
 10
61.4066
 20
-0.724
 30
0.0
 10
61.4066
 20
-0.724
 30
0.0
 10
61.4066
 20
-1.1049
 30
0.0
 10
61.3004
 20
-1.4156
 30
0.0
 10
61.0871
 20
-1.6562
 30
0.0
 10
61.0871
 20
-1.6562
 30
0.0
 10
60.8737
 20
-1.8969
 30
0.0
 10
60.5912
 20
-2.0342
 30
0.0
 10
60.2395
 20
-2.0683
 30
0.0
  0
SPLINE
  5
92
330
1F
100
AcDbEntity
  8
DEFAULT_1
 62
   250
100
AcDbSpline
210
0.0
220
0.0
230
1.0
 70
    11
 71
     3
 72
    52
 73
    48
 74
     0
 42
0.0000000001
 43
0.0000000001
 40
0.0
 40
0.0
 40
0.0
 40
0.0
 40
0.0769230769230769
 40
0.0769230769230769
 40
0.0769230769230769
 40
0.0769230769230769
 40
0.1538461538461539
 40
0.1538461538461539
 40
0.1538461538461539
 40
0.1538461538461539
 40
0.2307692307692308
 40
0.2307692307692308
 40
0.2307692307692308
 40
0.2307692307692308
 40
0.3076923076923077
 40
0.3076923076923077
 40
0.3076923076923077
 40
0.3076923076923077
 40
0.3846153846153846
 40
0.3846153846153846
 40
0.3846153846153846
 40
0.3846153846153846
 40
0.4615384615384616
 40
0.4615384615384616
 40
0.4615384615384616
 40
0.4615384615384616
 40
0.5384615384615384
 40
0.5384615384615384
 40
0.5384615384615384
 40
0.5384615384615384
 40
0.6153846153846154
 40
0.6153846153846154
 40
0.6153846153846154
 40
0.6153846153846154
 40
0.6923076923076923
 40
0.6923076923076923
 40
0.6923076923076923
 40
0.6923076923076923
 40
0.7692307692307693
 40
0.7692307692307693
 40
0.7692307692307693
 40
0.7692307692307693
 40
0.8461538461538461
 40
0.8461538461538461
 40
0.8461538461538461
 40
0.8461538461538461
 40
1.0
 40
1.0
 40
1.0
 40
1.0
 10
59.2722
 20
1.1825
 30
0.0
 10
58.7773
 20
1.1825
 30
0.0
 10
58.3789
 20
1.2331
 30
0.0
 10
58.0778
 20
1.3354
 30
0.0
 10
58.0778
 20
1.3354
 30
0.0
 10
57.7758
 20
1.4367
 30
0.0
 10
57.543
 20
1.5887
 30
0.0
 10
57.3793
 20
1.7894
 30
0.0
 10
57.3793
 20
1.7894
 30
0.0
 10
57.2157
 20
1.9901
 30
0.0
 10
57.1338
 20
2.2424
 30
0.0
 10
57.1338
 20
2.5463
 30
0.0
 10
57.1338
 20
2.5463
 30
0.0
 10
57.1338
 20
2.7714
 30
0.0
 10
57.1796
 20
2.9681
 30
0.0
 10
57.2702
 20
3.1377
 30
0.0
 10
57.2702
 20
3.1377
 30
0.0
 10
57.3599
 20
3.3072
 30
0.0
 10
57.4904
 20
3.4465
 30
0.0
 10
57.6609
 20
3.5575
 30
0.0
 10
57.6609
 20
3.5575
 30
0.0
 10
57.8314
 20
3.6676
 30
0.0
 10
58.0389
 20
3.7543
 30
0.0
 10
58.2834
 20
3.8167
 30
0.0
 10
58.2834
 20
3.8167
 30
0.0
 10
58.5279
 20
3.88
 30
0.0
 10
58.8572
 20
3.9112
 30
0.0
 10
59.2722
 20
3.9112
 30
0.0
 10
59.2722
 20
3.9112
 30
0.0
 10
59.7632
 20
3.9112
 30
0.0
 10
60.1587
 20
3.8605
 30
0.0
 10
60.4607
 20
3.7602
 30
0.0
 10
60.4607
 20
3.7602
 30
0.0
 10
60.7627
 20
3.6588
 30
0.0
 10
60.9955
 20
3.5078
 30
0.0
 10
61.1601
 20
3.3072
 30
0.0
 10
61.1601
 20
3.3072
 30
0.0
 10
61.3248
 20
3.1065
 30
0.0
 10
61.4066
 20
2.8532
 30
0.0
 10
61.4066
 20
2.5463
 30
0.0
 10
61.4066
 20
2.5463
 30
0.0
 10
61.4066
 20
2.143
 30
0.0
 10
61.2624
 20
1.8264
 30
0.0
 10
60.9731
 20
1.5965
 30
0.0
 10
60.9731
 20
1.5965
 30
0.0
 10
60.6253
 20
1.3208
 30
0.0
 10
60.0574
 20
1.1825
 30
0.0
 10
59.2722
 20
1.1825
 30
0.0
  0
SPLINE
  5
93
330
1F
100
AcDbEntity
  8
DEFAULT_1
 62
   250
100
AcDbSpline
210
0.0
220
0.0
230
1.0
 70
    11
 71
     3
 72
    36
 73
    32
 74
     0
 42
0.0000000001
 43
0.0000000001
 40
0.0
 40
0.0
 40
0.0
 40
0.0
 40
0.1111111111111111
 40
0.1111111111111111
 40
0.1111111111111111
 40
0.1111111111111111
 40
0.2222222222222222
 40
0.2222222222222222
 40
0.2222222222222222
 40
0.2222222222222222
 40
0.3333333333333333
 40
0.3333333333333333
 40
0.3333333333333333
 40
0.3333333333333333
 40
0.4444444444444444
 40
0.4444444444444444
 40
0.4444444444444444
 40
0.4444444444444444
 40
0.5555555555555556
 40
0.5555555555555556
 40
0.5555555555555556
 40
0.5555555555555556
 40
0.6666666666666666
 40
0.6666666666666666
 40
0.6666666666666666
 40
0.6666666666666666
 40
0.7777777777777778
 40
0.7777777777777778
 40
0.7777777777777778
 40
0.7777777777777778
 40
1.0
 40
1.0
 40
1.0
 40
1.0
 10
59.2722
 20
1.7105
 30
0.0
 10
59.959
 20
1.7105
 30
0.0
 10
60.4159
 20
1.7913
 30
0.0
 10
60.6438
 20
1.9521
 30
0.0
 10
60.6438
 20
1.9521
 30
0.0
 10
60.8708
 20
2.1128
 30
0.0
 10
60.9848
 20
2.3106
 30
0.0
 10
60.9848
 20
2.5463
 30
0.0
 10
60.9848
 20
2.5463
 30
0.0
 10
60.9848
 20
2.7831
 30
0.0
 10
60.8698
 20
2.9808
 30
0.0
 10
60.6419
 20
3.1416
 30
0.0
 10
60.6419
 20
3.1416
 30
0.0
 10
60.4139
 20
3.3023
 30
0.0
 10
59.957
 20
3.3832
 30
0.0
 10
59.2722
 20
3.3832
 30
0.0
 10
59.2722
 20
3.3832
 30
0.0
 10
58.5834
 20
3.3832
 30
0.0
 10
58.1256
 20
3.3023
 30
0.0
 10
57.8996
 20
3.1416
 30
0.0
 10
57.8996
 20
3.1416
 30
0.0
 10
57.6726
 20
2.9808
 30
0.0
 10
57.5596
 20
2.7811
 30
0.0
 10
57.5596
 20
2.5415
 30
0.0
 10
57.5596
 20
2.5415
 30
0.0
 10
57.5596
 20
2.3047
 30
0.0
 10
57.6599
 20
2.1167
 30
0.0
 10
57.8596
 20
1.9755
 30
0.0
 10
57.8596
 20
1.9755
 30
0.0
 10
58.1139
 20
1.7991
 30
0.0
 10
58.5854
 20
1.7105
 30
0.0
 10
59.2722
 20
1.7105
 30
0.0
  0
SPLINE
  5
94
330
1F
100
AcDbEntity
  8
DEFAULT_1
 62
   250
100
AcDbSpline
210
0.0
220
0.0
230
1.0
 70
    11
 71
     3
 72
    20
 73
    16
 74
     0
 42
0.0000000001
 43
0.0000000001
 40
0.0
 40
0.0
 40
0.0
 40
0.0
 40
0.2
 40
0.2
 40
0.2
 40
0.2
 40
0.4
 40
0.4
 40
0.4
 40
0.4
 40
0.6
 40
0.6
 40
0.6
 40
0.6
 40
1.0
 40
1.0
 40
1.0
 40
1.0
 10
62.2214
 20
6.3294
 30
0.0
 10
62.2214
 20
6.3294
 30
0.0
 10
63.1143
 20
12.4444
 30
0.0
 10
63.1143
 20
12.4444
 30
0.0
 10
63.1143
 20
12.4444
 30
0.0
 10
63.1143
 20
12.4444
 30
0.0
 10
61.1433
 20
12.4444
 30
0.0
 10
61.1433
 20
12.4444
 30
0.0
 10
61.1433
 20
12.4444
 30
0.0
 10
61.1433
 20
12.4444
 30
0.0
 10
62.2187
 20
6.3294
 30
0.0
 10
62.2187
 20
6.3294
 30
0.0
 10
62.2187
 20
6.3294
 30
0.0
 10
62.2187
 20
6.3294
 30
0.0
 10
62.2214
 20
6.3294
 30
0.0
 10
62.2214
 20
6.3294
 30
0.0
  0
SPLINE
  5
95
330
1F
100
AcDbEntity
  8
DEFAULT_1
 62
   250
100
AcDbSpline
210
0.0
220
0.0
230
1.0
 70
    11
 71
     3
 72
    20
 73
    16
 74
     0
 42
0.0000000001
 43
0.0000000001
 40
0.0
 40
0.0
 40
0.0
 40
0.0
 40
0.2
 40
0.2
 40
0.2
 40
0.2
 40
0.4
 40
0.4
 40
0.4
 40
0.4
 40
0.6
 40
0.6
 40
0.6
 40
0.6
 40
1.0
 40
1.0
 40
1.0
 40
1.0
 10
62.1069
 20
-9.6438
 30
0.0
 10
62.1069
 20
-9.6438
 30
0.0
 10
61.214
 20
-15.7588
 30
0.0
 10
61.214
 20
-15.7588
 30
0.0
 10
61.214
 20
-15.7588
 30
0.0
 10
61.214
 20
-15.7588
 30
0.0
 10
63.185
 20
-15.7588
 30
0.0
 10
63.185
 20
-15.7588
 30
0.0
 10
63.185
 20
-15.7588
 30
0.0
 10
63.185
 20
-15.7588
 30
0.0
 10
62.1096
 20
-9.6438
 30
0.0
 10
62.1096
 20
-9.6438
 30
0.0
 10
62.1096
 20
-9.6438
 30
0.0
 10
62.1096
 20
-9.6438
 30
0.0
 10
62.1069
 20
-9.6438
 30
0.0
 10
62.1069
 20
-9.6438
 30
0.0
  0
SPLINE
  5
96
330
1F
100
AcDbEntity
  8
DEFAULT_1
 62
   250
100
AcDbSpline
210
0.0
220
0.0
230
1.0
 70
    24
 71
     3
 72
     8
 73
     4
 74
     0
 42
0.0000000001
 43
0.0000000001
 40
0.0
 40
0.0
 40
0.0
 40
0.0
 40
1.0
 40
1.0
 40
1.0
 40
1.0
 10
62.153
 20
14.1701
 30
0.0
 10
62.153
 20
14.1701
 30
0.0
 10
62.153
 20
-18.5042
 30
0.0
 10
62.153
 20
-18.5042
 30
0.0
  0
SPLINE
  5
97
330
1F
100
AcDbEntity
  8
DEFAULT_1
 62
   250
100
AcDbSpline
210
0.0
220
0.0
230
1.0
 70
    24
 71
     3
 72
     8
 73
     4
 74
     0
 42
0.0000000001
 43
0.0000000001
 40
0.0
 40
0.0
 40
0.0
 40
0.0
 40
1.0
 40
1.0
 40
1.0
 40
1.0
 10
-18.5275
 20
-6.7029
 30
0.0
 10
-18.5275
 20
-6.7029
 30
0.0
 10
-18.5275
 20
3.6612
 30
0.0
 10
-18.5275
 20
3.6612
 30
0.0
  0
SPLINE
  5
98
330
1F
100
AcDbEntity
  8
DEFAULT_1
 62
   250
100
AcDbSpline
210
0.0
220
0.0
230
1.0
 70
    24
 71
     3
 72
     8
 73
     4
 74
     0
 42
0.0000000001
 43
0.0000000001
 40
0.0
 40
0.0
 40
0.0
 40
0.0
 40
1.0
 40
1.0
 40
1.0
 40
1.0
 10
-18.3039
 20
4.9284
 30
0.0
 10
-18.3039
 20
4.9284
 30
0.0
 10
-18.5275
 20
3.6612
 30
0.0
 10
-18.5275
 20
3.6612
 30
0.0
  0
SPLINE
  5
99
330
1F
100
AcDbEntity
  8
DEFAULT_1
 62
   250
100
AcDbSpline
210
0.0
220
0.0
230
1.0
 70
    24
 71
     3
 72
     8
 73
     4
 74
     0
 42
0.0000000001
 43
0.0000000001
 40
0.0
 40
0.0
 40
0.0
 40
0.0
 40
1.0
 40
1.0
 40
1.0
 40
1.0
 10
-18.3039
 20
-7.9703
 30
0.0
 10
-18.3039
 20
-7.9703
 30
0.0
 10
-18.5275
 20
-6.7029
 30
0.0
 10
-18.5275
 20
-6.7029
 30
0.0
  0
SPLINE
  5
9A
330
1F
100
AcDbEntity
  8
DEFAULT_1
 62
   250
100
AcDbSpline
210
0.0
220
0.0
230
1.0
 70
    24
 71
     3
 72
     8
 73
     4
 74
     0
 42
0.0000000001
 43
0.0000000001
 40
0.0
 40
0.0
 40
0.0
 40
0.0
 40
1.0
 40
1.0
 40
1.0
 40
1.0
 10
-17.5211
 20
-6.7029
 30
0.0
 10
-17.5211
 20
-6.7029
 30
0.0
 10
-17.9922
 20
-7.9976
 30
0.0
 10
-17.9922
 20
-7.9976
 30
0.0
  0
SPLINE
  5
9B
330
1F
100
AcDbEntity
  8
DEFAULT_1
 62
   250
100
AcDbSpline
210
0.0
220
0.0
230
1.0
 70
    24
 71
     3
 72
     8
 73
     4
 74
     0
 42
0.0000000001
 43
0.0000000001
 40
0.0
 40
0.0
 40
0.0
 40
0.0
 40
1.0
 40
1.0
 40
1.0
 40
1.0
 10
-17.5211
 20
3.6612
 30
0.0
 10
-17.5211
 20
3.6612
 30
0.0
 10
-17.9922
 20
4.9559
 30
0.0
 10
-17.9922
 20
4.9559
 30
0.0
  0
SPLINE
  5
9C
330
1F
100
AcDbEntity
  8
DEFAULT_1
 62
   250
100
AcDbSpline
210
0.0
220
0.0
230
1.0
 70
    24
 71
     3
 72
     8
 73
     4
 74
     0
 42
0.0000000001
 43
0.0000000001
 40
0.0
 40
0.0
 40
0.0
 40
0.0
 40
1.0
 40
1.0
 40
1.0
 40
1.0
 10
-18.5275
 20
-6.7029
 30
0.0
 10
-18.5275
 20
-6.7029
 30
0.0
 10
-20.4707
 20
-6.7029
 30
0.0
 10
-20.4707
 20
-6.7029
 30
0.0
  0
SPLINE
  5
9D
330
1F
100
AcDbEntity
  8
DEFAULT_1
 62
   250
100
AcDbSpline
210
0.0
220
0.0
230
1.0
 70
    24
 71
     3
 72
     8
 73
     4
 74
     0
 42
0.0000000001
 43
0.0000000001
 40
0.0
 40
0.0
 40
0.0
 40
0.0
 40
1.0
 40
1.0
 40
1.0
 40
1.0
 10
-18.5275
 20
3.6612
 30
0.0
 10
-18.5275
 20
3.6612
 30
0.0
 10
-20.4707
 20
3.6612
 30
0.0
 10
-20.4707
 20
3.6612
 30
0.0
  0
SPLINE
  5
9E
330
1F
100
AcDbEntity
  8
DEFAULT_1
 62
   250
100
AcDbSpline
210
0.0
220
0.0
230
1.0
 70
     8
 71
     3
 72
    12
 73
     8
 74
     0
 42
0.0000000001
 43
0.0000000001
 40
0.0
 40
0.0
 40
0.0
 40
0.0
 40
0.3333333333333333
 40
0.3333333333333333
 40
0.3333333333333333
 40
0.3333333333333333
 40
1.0
 40
1.0
 40
1.0
 40
1.0
 10
-18.3039
 20
-7.9703
 30
0.0
 10
-18.2913
 20
-8.0425
 30
0.0
 10
-18.2315
 20
-8.097
 30
0.0
 10
-18.1586
 20
-8.1034
 30
0.0
 10
-18.1586
 20
-8.1034
 30
0.0
 10
-18.0854
 20
-8.1098
 30
0.0
 10
-18.0175
 20
-8.0663
 30
0.0
 10
-17.9922
 20
-7.9976
 30
0.0
  0
SPLINE
  5
9F
330
1F
100
AcDbEntity
  8
DEFAULT_1
 62
   250
100
AcDbSpline
210
0.0
220
0.0
230
1.0
 70
     8
 71
     3
 72
    12
 73
     8
 74
     0
 42
0.0000000001
 43
0.0000000001
 40
0.0
 40
0.0
 40
0.0
 40
0.0
 40
0.3333333333333333
 40
0.3333333333333333
 40
0.3333333333333333
 40
0.3333333333333333
 40
1.0
 40
1.0
 40
1.0
 40
1.0
 10
-17.9922
 20
4.9559
 30
0.0
 10
-18.0175
 20
5.0244
 30
0.0
 10
-18.0854
 20
5.0681
 30
0.0
 10
-18.1586
 20
5.0617
 30
0.0
 10
-18.1586
 20
5.0617
 30
0.0
 10
-18.2315
 20
5.0553
 30
0.0
 10
-18.2913
 20
5.0008
 30
0.0
 10
-18.3039
 20
4.9284
 30
0.0
  0
SPLINE
  5
A0
330
1F
100
AcDbEntity
  8
DEFAULT_1
 62
   250
100
AcDbSpline
210
0.0
220
0.0
230
1.0
 70
     8
 71
     3
 72
    40
 73
    36
 74
     0
 42
0.0000000001
 43
0.0000000001
 40
0.0
 40
0.0
 40
0.0
 40
0.0
 40
0.1
 40
0.1
 40
0.1
 40
0.1
 40
0.2
 40
0.2
 40
0.2
 40
0.2
 40
0.3
 40
0.3
 40
0.3
 40
0.3
 40
0.4
 40
0.4
 40
0.4
 40
0.4
 40
0.5
 40
0.5
 40
0.5
 40
0.5
 40
0.6
 40
0.6
 40
0.6
 40
0.6
 40
0.7
 40
0.7
 40
0.7
 40
0.7
 40
0.8
 40
0.8
 40
0.8
 40
0.8
 40
1.0
 40
1.0
 40
1.0
 40
1.0
 10
-17.5211
 20
3.6612
 30
0.0
 10
-17.5211
 20
3.6612
 30
0.0
 10
-17.358
 20
4.9766
 30
0.0
 10
-17.358
 20
4.9766
 30
0.0
 10
-17.358
 20
4.9766
 30
0.0
 10
-17.358
 20
4.9766
 30
0.0
 10
-17.2496
 20
5.1153
 30
0.0
 10
-17.2496
 20
5.1153
 30
0.0
 10
-17.2496
 20
5.1153
 30
0.0
 10
-17.2496
 20
5.1153
 30
0.0
 10
-17.0728
 20
5.1534
 30
0.0
 10
-17.0728
 20
5.1534
 30
0.0
 10
-17.0728
 20
5.1534
 30
0.0
 10
-17.0728
 20
5.1534
 30
0.0
 10
-16.8329
 20
5.1534
 30
0.0
 10
-16.8329
 20
5.1534
 30
0.0
 10
-16.8329
 20
5.1534
 30
0.0
 10
-16.8329
 20
5.1534
 30
0.0
 10
-16.6689
 20
5.1407
 30
0.0
 10
-16.6689
 20
5.1407
 30
0.0
 10
-16.6689
 20
5.1407
 30
0.0
 10
-16.6689
 20
5.1407
 30
0.0
 10
-16.5174
 20
5.1281
 30
0.0
 10
-16.5174
 20
5.1281
 30
0.0
 10
-16.5174
 20
5.1281
 30
0.0
 10
-16.5174
 20
5.1281
 30
0.0
 10
-16.429
 20
4.9636
 30
0.0
 10
-16.429
 20
4.9636
 30
0.0
 10
-16.429
 20
4.9636
 30
0.0
 10
-16.429
 20
4.9636
 30
0.0
 10
-16.3659
 20
4.7611
 30
0.0
 10
-16.3659
 20
4.7611
 30
0.0
 10
-16.3659
 20
4.7611
 30
0.0
 10
-16.3659
 20
4.7611
 30
0.0
 10
-16.2395
 20
3.6399
 30
0.0
 10
-16.2395
 20
3.6399
 30
0.0
  0
SPLINE
  5
A1
330
1F
100
AcDbEntity
  8
DEFAULT_1
 62
   250
100
AcDbSpline
210
0.0
220
0.0
230
1.0
 70
    24
 71
     3
 72
     8
 73
     4
 74
     0
 42
0.0000000001
 43
0.0000000001
 40
0.0
 40
0.0
 40
0.0
 40
0.0
 40
1.0
 40
1.0
 40
1.0
 40
1.0
 10
-17.5211
 20
-6.7029
 30
0.0
 10
-17.5211
 20
-6.7029
 30
0.0
 10
-17.5211
 20
3.6612
 30
0.0
 10
-17.5211
 20
3.6612
 30
0.0
  0
SPLINE
  5
A2
330
1F
100
AcDbEntity
  8
DEFAULT_1
 62
   250
100
AcDbSpline
210
0.0
220
0.0
230
1.0
 70
    24
 71
     3
 72
     8
 73
     4
 74
     0
 42
0.0000000001
 43
0.0000000001
 40
0.0
 40
0.0
 40
0.0
 40
0.0
 40
1.0
 40
1.0
 40
1.0
 40
1.0
 10
-16.2254
 20
-6.7029
 30
0.0
 10
-16.2254
 20
-6.7029
 30
0.0
 10
-16.2254
 20
3.6612
 30
0.0
 10
-16.2254
 20
3.6612
 30
0.0
  0
SPLINE
  5
A3
330
1F
100
AcDbEntity
  8
DEFAULT_1
 62
   250
100
AcDbSpline
210
0.0
220
0.0
230
1.0
 70
    24
 71
     3
 72
     8
 73
     4
 74
     0
 42
0.0000000001
 43
0.0000000001
 40
0.0
 40
0.0
 40
0.0
 40
0.0
 40
1.0
 40
1.0
 40
1.0
 40
1.0
 10
-14.9298
 20
-6.7029
 30
0.0
 10
-14.9298
 20
-6.7029
 30
0.0
 10
-14.9298
 20
3.6612
 30
0.0
 10
-14.9298
 20
3.6612
 30
0.0
  0
SPLINE
  5
A4
330
1F
100
AcDbEntity
  8
DEFAULT_1
 62
   250
100
AcDbSpline
210
0.0
220
0.0
230
1.0
 70
    24
 71
     3
 72
     8
 73
     4
 74
     0
 42
0.0000000001
 43
0.0000000001
 40
0.0
 40
0.0
 40
0.0
 40
0.0
 40
1.0
 40
1.0
 40
1.0
 40
1.0
 10
-13.6343
 20
-6.7029
 30
0.0
 10
-13.6343
 20
-6.7029
 30
0.0
 10
-13.6343
 20
3.6612
 30
0.0
 10
-13.6343
 20
3.6612
 30
0.0
  0
SPLINE
  5
A5
330
1F
100
AcDbEntity
  8
DEFAULT_1
 62
   250
100
AcDbSpline
210
0.0
220
0.0
230
1.0
 70
    24
 71
     3
 72
     8
 73
     4
 74
     0
 42
0.0000000001
 43
0.0000000001
 40
0.0
 40
0.0
 40
0.0
 40
0.0
 40
1.0
 40
1.0
 40
1.0
 40
1.0
 10
-12.3388
 20
-6.7029
 30
0.0
 10
-12.3388
 20
-6.7029
 30
0.0
 10
-12.3388
 20
3.6612
 30
0.0
 10
-12.3388
 20
3.6612
 30
0.0
  0
SPLINE
  5
A6
330
1F
100
AcDbEntity
  8
DEFAULT_1
 62
   250
100
AcDbSpline
210
0.0
220
0.0
230
1.0
 70
    24
 71
     3
 72
     8
 73
     4
 74
     0
 42
0.0000000001
 43
0.0000000001
 40
0.0
 40
0.0
 40
0.0
 40
0.0
 40
1.0
 40
1.0
 40
1.0
 40
1.0
 10
-11.0434
 20
-6.7029
 30
0.0
 10
-11.0434
 20
-6.7029
 30
0.0
 10
-11.0434
 20
3.6612
 30
0.0
 10
-11.0434
 20
3.6612
 30
0.0
  0
SPLINE
  5
A7
330
1F
100
AcDbEntity
  8
DEFAULT_1
 62
   250
100
AcDbSpline
210
0.0
220
0.0
230
1.0
 70
    24
 71
     3
 72
     8
 73
     4
 74
     0
 42
0.0000000001
 43
0.0000000001
 40
0.0
 40
0.0
 40
0.0
 40
0.0
 40
1.0
 40
1.0
 40
1.0
 40
1.0
 10
-9.7475
 20
-6.7029
 30
0.0
 10
-9.7475
 20
-6.7029
 30
0.0
 10
-9.7475
 20
3.6612
 30
0.0
 10
-9.7475
 20
3.6612
 30
0.0
  0
SPLINE
  5
A8
330
1F
100
AcDbEntity
  8
DEFAULT_1
 62
   250
100
AcDbSpline
210
0.0
220
0.0
230
1.0
 70
    24
 71
     3
 72
     8
 73
     4
 74
     0
 42
0.0000000001
 43
0.0000000001
 40
0.0
 40
0.0
 40
0.0
 40
0.0
 40
1.0
 40
1.0
 40
1.0
 40
1.0
 10
-8.4519
 20
-6.7029
 30
0.0
 10
-8.4519
 20
-6.7029
 30
0.0
 10
-8.4519
 20
3.6612
 30
0.0
 10
-8.4519
 20
3.6612
 30
0.0
  0
SPLINE
  5
A9
330
1F
100
AcDbEntity
  8
DEFAULT_1
 62
   250
100
AcDbSpline
210
0.0
220
0.0
230
1.0
 70
    24
 71
     3
 72
     8
 73
     4
 74
     0
 42
0.0000000001
 43
0.0000000001
 40
0.0
 40
0.0
 40
0.0
 40
0.0
 40
1.0
 40
1.0
 40
1.0
 40
1.0
 10
-7.1564
 20
-6.7029
 30
0.0
 10
-7.1564
 20
-6.7029
 30
0.0
 10
-7.1564
 20
3.6612
 30
0.0
 10
-7.1564
 20
3.6612
 30
0.0
  0
SPLINE
  5
AA
330
1F
100
AcDbEntity
  8
DEFAULT_1
 62
   250
100
AcDbSpline
210
0.0
220
0.0
230
1.0
 70
    24
 71
     3
 72
     8
 73
     4
 74
     0
 42
0.0000000001
 43
0.0000000001
 40
0.0
 40
0.0
 40
0.0
 40
0.0
 40
1.0
 40
1.0
 40
1.0
 40
1.0
 10
-5.8609
 20
-6.7029
 30
0.0
 10
-5.8609
 20
-6.7029
 30
0.0
 10
-5.8609
 20
3.6612
 30
0.0
 10
-5.8609
 20
3.6612
 30
0.0
  0
SPLINE
  5
AB
330
1F
100
AcDbEntity
  8
DEFAULT_1
 62
   250
100
AcDbSpline
210
0.0
220
0.0
230
1.0
 70
    24
 71
     3
 72
     8
 73
     4
 74
     0
 42
0.0000000001
 43
0.0000000001
 40
0.0
 40
0.0
 40
0.0
 40
0.0
 40
1.0
 40
1.0
 40
1.0
 40
1.0
 10
-4.5653
 20
-6.7029
 30
0.0
 10
-4.5653
 20
-6.7029
 30
0.0
 10
-4.5653
 20
3.6612
 30
0.0
 10
-4.5653
 20
3.6612
 30
0.0
  0
SPLINE
  5
AC
330
1F
100
AcDbEntity
  8
DEFAULT_1
 62
   250
100
AcDbSpline
210
0.0
220
0.0
230
1.0
 70
    24
 71
     3
 72
     8
 73
     4
 74
     0
 42
0.0000000001
 43
0.0000000001
 40
0.0
 40
0.0
 40
0.0
 40
0.0
 40
1.0
 40
1.0
 40
1.0
 40
1.0
 10
-3.2696
 20
-6.7029
 30
0.0
 10
-3.2696
 20
-6.7029
 30
0.0
 10
-3.2696
 20
3.6612
 30
0.0
 10
-3.2696
 20
3.6612
 30
0.0
  0
SPLINE
  5
AD
330
1F
100
AcDbEntity
  8
DEFAULT_1
 62
   250
100
AcDbSpline
210
0.0
220
0.0
230
1.0
 70
    24
 71
     3
 72
     8
 73
     4
 74
     0
 42
0.0000000001
 43
0.0000000001
 40
0.0
 40
0.0
 40
0.0
 40
0.0
 40
1.0
 40
1.0
 40
1.0
 40
1.0
 10
-1.9744
 20
-6.7029
 30
0.0
 10
-1.9744
 20
-6.7029
 30
0.0
 10
-1.9744
 20
3.6612
 30
0.0
 10
-1.9744
 20
3.6612
 30
0.0
  0
SPLINE
  5
AE
330
1F
100
AcDbEntity
  8
DEFAULT_1
 62
   250
100
AcDbSpline
210
0.0
220
0.0
230
1.0
 70
    24
 71
     3
 72
     8
 73
     4
 74
     0
 42
0.0000000001
 43
0.0000000001
 40
0.0
 40
0.0
 40
0.0
 40
0.0
 40
1.0
 40
1.0
 40
1.0
 40
1.0
 10
-0.6785
 20
-6.7029
 30
0.0
 10
-0.6785
 20
-6.7029
 30
0.0
 10
-0.6785
 20
3.6612
 30
0.0
 10
-0.6785
 20
3.6612
 30
0.0
  0
SPLINE
  5
AF
330
1F
100
AcDbEntity
  8
DEFAULT_1
 62
   250
100
AcDbSpline
210
0.0
220
0.0
230
1.0
 70
    24
 71
     3
 72
     8
 73
     4
 74
     0
 42
0.0000000001
 43
0.0000000001
 40
0.0
 40
0.0
 40
0.0
 40
0.0
 40
1.0
 40
1.0
 40
1.0
 40
1.0
 10
0.6169
 20
-6.7029
 30
0.0
 10
0.6169
 20
-6.7029
 30
0.0
 10
0.6169
 20
3.6612
 30
0.0
 10
0.6169
 20
3.6612
 30
0.0
  0
SPLINE
  5
B0
330
1F
100
AcDbEntity
  8
DEFAULT_1
 62
   250
100
AcDbSpline
210
0.0
220
0.0
230
1.0
 70
     8
 71
     3
 72
    96
 73
    92
 74
     0
 42
0.0000000001
 43
0.0000000001
 40
0.0
 40
0.0
 40
0.0
 40
0.0
 40
0.0416666666666667
 40
0.0416666666666667
 40
0.0416666666666667
 40
0.0416666666666667
 40
0.0833333333333333
 40
0.0833333333333333
 40
0.0833333333333333
 40
0.0833333333333333
 40
0.125
 40
0.125
 40
0.125
 40
0.125
 40
0.1666666666666667
 40
0.1666666666666667
 40
0.1666666666666667
 40
0.1666666666666667
 40
0.2083333333333333
 40
0.2083333333333333
 40
0.2083333333333333
 40
0.2083333333333333
 40
0.25
 40
0.25
 40
0.25
 40
0.25
 40
0.2916666666666667
 40
0.2916666666666667
 40
0.2916666666666667
 40
0.2916666666666667
 40
0.3333333333333333
 40
0.3333333333333333
 40
0.3333333333333333
 40
0.3333333333333333
 40
0.375
 40
0.375
 40
0.375
 40
0.375
 40
0.4166666666666667
 40
0.4166666666666667
 40
0.4166666666666667
 40
0.4166666666666667
 40
0.4583333333333333
 40
0.4583333333333333
 40
0.4583333333333333
 40
0.4583333333333333
 40
0.5
 40
0.5
 40
0.5
 40
0.5
 40
0.5416666666666666
 40
0.5416666666666666
 40
0.5416666666666666
 40
0.5416666666666666
 40
0.5833333333333334
 40
0.5833333333333334
 40
0.5833333333333334
 40
0.5833333333333334
 40
0.625
 40
0.625
 40
0.625
 40
0.625
 40
0.6666666666666666
 40
0.6666666666666666
 40
0.6666666666666666
 40
0.6666666666666666
 40
0.7083333333333334
 40
0.7083333333333334
 40
0.7083333333333334
 40
0.7083333333333334
 40
0.75
 40
0.75
 40
0.75
 40
0.75
 40
0.7916666666666666
 40
0.7916666666666666
 40
0.7916666666666666
 40
0.7916666666666666
 40
0.8333333333333334
 40
0.8333333333333334
 40
0.8333333333333334
 40
0.8333333333333334
 40
0.875
 40
0.875
 40
0.875
 40
0.875
 40
0.9166666666666666
 40
0.9166666666666666
 40
0.9166666666666666
 40
0.9166666666666666
 40
1.0
 40
1.0
 40
1.0
 40
1.0
 10
0.6169
 20
3.6612
 30
0.0
 10
0.6169
 20
3.6612
 30
0.0
 10
0.7798
 20
4.9766
 30
0.0
 10
0.7798
 20
4.9766
 30
0.0
 10
0.7798
 20
4.9766
 30
0.0
 10
0.7901
 20
5.058
 30
0.0
 10
0.8592
 20
5.1188
 30
0.0
 10
0.941
 20
5.1188
 30
0.0
 10
0.941
 20
5.1188
 30
0.0
 10
1.0227
 20
5.1188
 30
0.0
 10
1.0915
 20
5.058
 30
0.0
 10
1.1016
 20
4.9766
 30
0.0
 10
1.1016
 20
4.9766
 30
0.0
 10
1.1016
 20
4.9766
 30
0.0
 10
1.2645
 20
3.6612
 30
0.0
 10
1.2645
 20
3.6612
 30
0.0
 10
1.2645
 20
3.6612
 30
0.0
 10
1.2645
 20
3.6612
 30
0.0
 10
1.4626
 20
2.72
 30
0.0
 10
1.4626
 20
2.72
 30
0.0
 10
1.4626
 20
2.72
 30
0.0
 10
1.4626
 20
2.72
 30
0.0
 10
1.6249
 20
2.1388
 30
0.0
 10
1.6249
 20
2.1388
 30
0.0
 10
1.6249
 20
2.1388
 30
0.0
 10
1.6249
 20
2.1388
 30
0.0
 10
1.741
 20
1.2088
 30
0.0
 10
1.741
 20
1.2088
 30
0.0
 10
1.741
 20
1.2088
 30
0.0
 10
1.741
 20
1.2088
 30
0.0
 10
1.8337
 20
0.3953
 30
0.0
 10
1.8337
 20
0.3953
 30
0.0
 10
1.8337
 20
0.3953
 30
0.0
 10
1.8337
 20
0.3953
 30
0.0
 10
1.8569
 20
-0.3718
 30
0.0
 10
1.8569
 20
-0.3718
 30
0.0
 10
1.8569
 20
-0.3718
 30
0.0
 10
1.8569
 20
-0.3718
 30
0.0
 10
1.8569
 20
-1.1157
 30
0.0
 10
1.8569
 20
-1.1157
 30
0.0
 10
1.8569
 20
-1.1157
 30
0.0
 10
1.8569
 20
-1.1157
 30
0.0
 10
1.8337
 20
-1.8828
 30
0.0
 10
1.8337
 20
-1.8828
 30
0.0
 10
1.8337
 20
-1.8828
 30
0.0
 10
1.8337
 20
-1.8828
 30
0.0
 10
1.6481
 20
-3.1614
 30
0.0
 10
1.6481
 20
-3.1614
 30
0.0
 10
1.6481
 20
-3.1614
 30
0.0
 10
1.6481
 20
-3.1614
 30
0.0
 10
1.1188
 20
-7.9095
 30
0.0
 10
1.1188
 20
-7.9095
 30
0.0
 10
1.1188
 20
-7.9095
 30
0.0
 10
1.1188
 20
-7.9095
 30
0.0
 10
1.1029
 20
-8.0107
 30
0.0
 10
1.1029
 20
-8.0107
 30
0.0
 10
1.1029
 20
-8.0107
 30
0.0
 10
1.1029
 20
-8.0107
 30
0.0
 10
1.0745
 20
-8.0899
 30
0.0
 10
1.0745
 20
-8.0899
 30
0.0
 10
1.0745
 20
-8.0899
 30
0.0
 10
1.0745
 20
-8.0899
 30
0.0
 10
1.0176
 20
-8.1436
 30
0.0
 10
1.0176
 20
-8.1436
 30
0.0
 10
1.0176
 20
-8.1436
 30
0.0
 10
1.0176
 20
-8.1436
 30
0.0
 10
0.964
 20
-8.1467
 30
0.0
 10
0.964
 20
-8.1467
 30
0.0
 10
0.964
 20
-8.1467
 30
0.0
 10
0.964
 20
-8.1467
 30
0.0
 10
0.9072
 20
-8.1467
 30
0.0
 10
0.9072
 20
-8.1467
 30
0.0
 10
0.9072
 20
-8.1467
 30
0.0
 10
0.9072
 20
-8.1467
 30
0.0
 10
0.8599
 20
-8.1214
 30
0.0
 10
0.8599
 20
-8.1214
 30
0.0
 10
0.8599
 20
-8.1214
 30
0.0
 10
0.8599
 20
-8.1214
 30
0.0
 10
0.8187
 20
-8.074
 30
0.0
 10
0.8187
 20
-8.074
 30
0.0
 10
0.8187
 20
-8.074
 30
0.0
 10
0.8187
 20
-8.074
 30
0.0
 10
0.7872
 20
-8.014
 30
0.0
 10
0.7872
 20
-8.014
 30
0.0
 10
0.7872
 20
-8.014
 30
0.0
 10
0.7872
 20
-8.014
 30
0.0
 10
0.7715
 20
-7.9349
 30
0.0
 10
0.7715
 20
-7.9349
 30
0.0
 10
0.7715
 20
-7.9349
 30
0.0
 10
0.7715
 20
-7.9349
 30
0.0
 10
0.6168
 20
-6.6888
 30
0.0
 10
0.6168
 20
-6.6888
 30
0.0
  0
SPLINE
  5
B1
330
1F
100
AcDbEntity
  8
DEFAULT_1
 62
   250
100
AcDbSpline
210
0.0
220
0.0
230
1.0
 70
    24
 71
     3
 72
     8
 73
     4
 74
     0
 42
0.0000000001
 43
0.0000000001
 40
0.0
 40
0.0
 40
0.0
 40
0.0
 40
1.0
 40
1.0
 40
1.0
 40
1.0
 10
21.8725
 20
4.8638
 30
0.0
 10
21.8725
 20
4.8638
 30
0.0
 10
22.1047
 20
3.5966
 30
0.0
 10
22.1047
 20
3.5966
 30
0.0
  0
SPLINE
  5
B2
330
1F
100
AcDbEntity
  8
DEFAULT_1
 62
   250
100
AcDbSpline
210
0.0
220
0.0
230
1.0
 70
    24
 71
     3
 72
     8
 73
     4
 74
     0
 42
0.0000000001
 43
0.0000000001
 40
0.0
 40
0.0
 40
0.0
 40
0.0
 40
1.0
 40
1.0
 40
1.0
 40
1.0
 10
21.8725
 20
-8.0349
 30
0.0
 10
21.8725
 20
-8.0349
 30
0.0
 10
22.1047
 20
-6.7675
 30
0.0
 10
22.1047
 20
-6.7675
 30
0.0
  0
SPLINE
  5
B3
330
1F
100
AcDbEntity
  8
DEFAULT_1
 62
   250
100
AcDbSpline
210
0.0
220
0.0
230
1.0
 70
    24
 71
     3
 72
     8
 73
     4
 74
     0
 42
0.0000000001
 43
0.0000000001
 40
0.0
 40
0.0
 40
0.0
 40
0.0
 40
1.0
 40
1.0
 40
1.0
 40
1.0
 10
21.06
 20
-6.7675
 30
0.0
 10
21.06
 20
-6.7675
 30
0.0
 10
21.5488
 20
-8.0622
 30
0.0
 10
21.5488
 20
-8.0622
 30
0.0
  0
SPLINE
  5
B4
330
1F
100
AcDbEntity
  8
DEFAULT_1
 62
   250
100
AcDbSpline
210
0.0
220
0.0
230
1.0
 70
    24
 71
     3
 72
     8
 73
     4
 74
     0
 42
0.0000000001
 43
0.0000000001
 40
0.0
 40
0.0
 40
0.0
 40
0.0
 40
1.0
 40
1.0
 40
1.0
 40
1.0
 10
21.06
 20
3.5966
 30
0.0
 10
21.06
 20
3.5966
 30
0.0
 10
21.5488
 20
4.8911
 30
0.0
 10
21.5488
 20
4.8911
 30
0.0
  0
SPLINE
  5
B5
330
1F
100
AcDbEntity
  8
DEFAULT_1
 62
   250
100
AcDbSpline
210
0.0
220
0.0
230
1.0
 70
    24
 71
     3
 72
     8
 73
     4
 74
     0
 42
0.0000000001
 43
0.0000000001
 40
0.0
 40
0.0
 40
0.0
 40
0.0
 40
1.0
 40
1.0
 40
1.0
 40
1.0
 10
22.1047
 20
-6.7675
 30
0.0
 10
22.1047
 20
-6.7675
 30
0.0
 10
24.1224
 20
-6.7675
 30
0.0
 10
24.1224
 20
-6.7675
 30
0.0
  0
SPLINE
  5
B6
330
1F
100
AcDbEntity
  8
DEFAULT_1
 62
   250
100
AcDbSpline
210
0.0
220
0.0
230
1.0
 70
    24
 71
     3
 72
     8
 73
     4
 74
     0
 42
0.0000000001
 43
0.0000000001
 40
0.0
 40
0.0
 40
0.0
 40
0.0
 40
1.0
 40
1.0
 40
1.0
 40
1.0
 10
22.1047
 20
3.5966
 30
0.0
 10
22.1047
 20
3.5966
 30
0.0
 10
24.1224
 20
3.5966
 30
0.0
 10
24.1224
 20
3.5966
 30
0.0
  0
SPLINE
  5
B7
330
1F
100
AcDbEntity
  8
DEFAULT_1
 62
   250
100
AcDbSpline
210
0.0
220
0.0
230
1.0
 70
     8
 71
     3
 72
    12
 73
     8
 74
     0
 42
0.0000000001
 43
0.0000000001
 40
0.0
 40
0.0
 40
0.0
 40
0.0
 40
0.3333333333333333
 40
0.3333333333333333
 40
0.3333333333333333
 40
0.3333333333333333
 40
1.0
 40
1.0
 40
1.0
 40
1.0
 10
21.8725
 20
-8.0349
 30
0.0
 10
21.8596
 20
-8.1071
 30
0.0
 10
21.7975
 20
-8.1616
 30
0.0
 10
21.7218
 20
-8.168
 30
0.0
 10
21.7218
 20
-8.168
 30
0.0
 10
21.6458
 20
-8.1744
 30
0.0
 10
21.5754
 20
-8.1309
 30
0.0
 10
21.5488
 20
-8.0622
 30
0.0
  0
SPLINE
  5
B8
330
1F
100
AcDbEntity
  8
DEFAULT_1
 62
   250
100
AcDbSpline
210
0.0
220
0.0
230
1.0
 70
     8
 71
     3
 72
    12
 73
     8
 74
     0
 42
0.0000000001
 43
0.0000000001
 40
0.0
 40
0.0
 40
0.0
 40
0.0
 40
0.3333333333333333
 40
0.3333333333333333
 40
0.3333333333333333
 40
0.3333333333333333
 40
1.0
 40
1.0
 40
1.0
 40
1.0
 10
21.5488
 20
4.8911
 30
0.0
 10
21.5754
 20
4.9598
 30
0.0
 10
21.6458
 20
5.0035
 30
0.0
 10
21.7218
 20
4.9971
 30
0.0
 10
21.7218
 20
4.9971
 30
0.0
 10
21.7975
 20
4.9907
 30
0.0
 10
21.8596
 20
4.9362
 30
0.0
 10
21.8725
 20
4.8638
 30
0.0
  0
SPLINE
  5
B9
330
1F
100
AcDbEntity
  8
DEFAULT_1
 62
   250
100
AcDbSpline
210
0.0
220
0.0
230
1.0
 70
    24
 71
     3
 72
     8
 73
     4
 74
     0
 42
0.0000000001
 43
0.0000000001
 40
0.0
 40
0.0
 40
0.0
 40
0.0
 40
1.0
 40
1.0
 40
1.0
 40
1.0
 10
20.8905
 20
4.912
 30
0.0
 10
20.8905
 20
4.912
 30
0.0
 10
21.06
 20
3.5966
 30
0.0
 10
21.06
 20
3.5966
 30
0.0
  0
SPLINE
  5
BA
330
1F
100
AcDbEntity
  8
DEFAULT_1
 62
   250
100
AcDbSpline
210
0.0
220
0.0
230
1.0
 70
    24
 71
     3
 72
     8
 73
     4
 74
     0
 42
0.0000000001
 43
0.0000000001
 40
0.0
 40
0.0
 40
0.0
 40
0.0
 40
1.0
 40
1.0
 40
1.0
 40
1.0
 10
21.06
 20
-6.7675
 30
0.0
 10
21.06
 20
-6.7675
 30
0.0
 10
21.06
 20
3.5966
 30
0.0
 10
21.06
 20
3.5966
 30
0.0
  0
SPLINE
  5
BB
330
1F
100
AcDbEntity
  8
DEFAULT_1
 62
   250
100
AcDbSpline
210
0.0
220
0.0
230
1.0
 70
    24
 71
     3
 72
     8
 73
     4
 74
     0
 42
0.0000000001
 43
0.0000000001
 40
0.0
 40
0.0
 40
0.0
 40
0.0
 40
1.0
 40
1.0
 40
1.0
 40
1.0
 10
19.0964
 20
-7.1239
 30
0.0
 10
19.0964
 20
-7.1239
 30
0.0
 10
19.0964
 20
3.6529
 30
0.0
 10
19.0964
 20
3.6529
 30
0.0
  0
SPLINE
  5
BC
330
1F
100
AcDbEntity
  8
DEFAULT_1
 62
   250
100
AcDbSpline
210
0.0
220
0.0
230
1.0
 70
    24
 71
     3
 72
     8
 73
     4
 74
     0
 42
0.0000000001
 43
0.0000000001
 40
0.0
 40
0.0
 40
0.0
 40
0.0
 40
1.0
 40
1.0
 40
1.0
 40
1.0
 10
17.8074
 20
-6.8987
 30
0.0
 10
17.8074
 20
-6.8987
 30
0.0
 10
17.8074
 20
3.9909
 30
0.0
 10
17.8074
 20
3.9909
 30
0.0
  0
SPLINE
  5
BD
330
1F
100
AcDbEntity
  8
DEFAULT_1
 62
   250
100
AcDbSpline
210
0.0
220
0.0
230
1.0
 70
    24
 71
     3
 72
     8
 73
     4
 74
     0
 42
0.0000000001
 43
0.0000000001
 40
0.0
 40
0.0
 40
0.0
 40
0.0
 40
1.0
 40
1.0
 40
1.0
 40
1.0
 10
20.3873
 20
3.5966
 30
0.0
 10
20.3873
 20
3.5966
 30
0.0
 10
20.5565
 20
4.912
 30
0.0
 10
20.5565
 20
4.912
 30
0.0
  0
SPLINE
  5
BE
330
1F
100
AcDbEntity
  8
DEFAULT_1
 62
   250
100
AcDbSpline
210
0.0
220
0.0
230
1.0
 70
    24
 71
     3
 72
     8
 73
     4
 74
     0
 42
0.0000000001
 43
0.0000000001
 40
0.0
 40
0.0
 40
0.0
 40
0.0
 40
1.0
 40
1.0
 40
1.0
 40
1.0
 10
16.5189
 20
-7.1521
 30
0.0
 10
16.5189
 20
-7.1521
 30
0.0
 10
16.5189
 20
3.7657
 30
0.0
 10
16.5189
 20
3.7657
 30
0.0
  0
SPLINE
  5
BF
330
1F
100
AcDbEntity
  8
DEFAULT_1
 62
   250
100
AcDbSpline
210
0.0
220
0.0
230
1.0
 70
    24
 71
     3
 72
     8
 73
     4
 74
     0
 42
0.0000000001
 43
0.0000000001
 40
0.0
 40
0.0
 40
0.0
 40
0.0
 40
1.0
 40
1.0
 40
1.0
 40
1.0
 10
15.1735
 20
-6.955
 30
0.0
 10
15.1735
 20
-6.955
 30
0.0
 10
15.1735
 20
3.7374
 30
0.0
 10
15.1735
 20
3.7374
 30
0.0
  0
SPLINE
  5
C0
330
1F
100
AcDbEntity
  8
DEFAULT_1
 62
   250
100
AcDbSpline
210
0.0
220
0.0
230
1.0
 70
    24
 71
     3
 72
     8
 73
     4
 74
     0
 42
0.0000000001
 43
0.0000000001
 40
0.0
 40
0.0
 40
0.0
 40
0.0
 40
1.0
 40
1.0
 40
1.0
 40
1.0
 10
13.8846
 20
-6.983
 30
0.0
 10
13.8846
 20
-6.983
 30
0.0
 10
13.8846
 20
3.7372
 30
0.0
 10
13.8846
 20
3.7372
 30
0.0
  0
SPLINE
  5
C1
330
1F
100
AcDbEntity
  8
DEFAULT_1
 62
   250
100
AcDbSpline
210
0.0
220
0.0
230
1.0
 70
    24
 71
     3
 72
     8
 73
     4
 74
     0
 42
0.0000000001
 43
0.0000000001
 40
0.0
 40
0.0
 40
0.0
 40
0.0
 40
1.0
 40
1.0
 40
1.0
 40
1.0
 10
12.5953
 20
-6.983
 30
0.0
 10
12.5953
 20
-6.983
 30
0.0
 10
12.5953
 20
3.7655
 30
0.0
 10
12.5953
 20
3.7655
 30
0.0
  0
SPLINE
  5
C2
330
1F
100
AcDbEntity
  8
DEFAULT_1
 62
   250
100
AcDbSpline
210
0.0
220
0.0
230
1.0
 70
    24
 71
     3
 72
     8
 73
     4
 74
     0
 42
0.0000000001
 43
0.0000000001
 40
0.0
 40
0.0
 40
0.0
 40
0.0
 40
1.0
 40
1.0
 40
1.0
 40
1.0
 10
11.3065
 20
-6.7394
 30
0.0
 10
11.3065
 20
-6.7394
 30
0.0
 10
11.3065
 20
3.6246
 30
0.0
 10
11.3065
 20
3.6246
 30
0.0
  0
SPLINE
  5
C3
330
1F
100
AcDbEntity
  8
DEFAULT_1
 62
   250
100
AcDbSpline
210
0.0
220
0.0
230
1.0
 70
    24
 71
     3
 72
     8
 73
     4
 74
     0
 42
0.0000000001
 43
0.0000000001
 40
0.0
 40
0.0
 40
0.0
 40
0.0
 40
1.0
 40
1.0
 40
1.0
 40
1.0
 10
10.0454
 20
-7.0676
 30
0.0
 10
10.0454
 20
-7.0676
 30
0.0
 10
10.0454
 20
3.7372
 30
0.0
 10
10.0454
 20
3.7372
 30
0.0
  0
SPLINE
  5
C4
330
1F
100
AcDbEntity
  8
DEFAULT_1
 62
   250
100
AcDbSpline
210
0.0
220
0.0
230
1.0
 70
    24
 71
     3
 72
     8
 73
     4
 74
     0
 42
0.0000000001
 43
0.0000000001
 40
0.0
 40
0.0
 40
0.0
 40
0.0
 40
1.0
 40
1.0
 40
1.0
 40
1.0
 10
8.7012
 20
-6.8987
 30
0.0
 10
8.7012
 20
-6.8987
 30
0.0
 10
8.7012
 20
3.7657
 30
0.0
 10
8.7012
 20
3.7657
 30
0.0
  0
SPLINE
  5
C5
330
1F
100
AcDbEntity
  8
DEFAULT_1
 62
   250
100
AcDbSpline
210
0.0
220
0.0
230
1.0
 70
    24
 71
     3
 72
     8
 73
     4
 74
     0
 42
0.0000000001
 43
0.0000000001
 40
0.0
 40
0.0
 40
0.0
 40
0.0
 40
1.0
 40
1.0
 40
1.0
 40
1.0
 10
7.4115
 20
-6.955
 30
0.0
 10
7.4115
 20
-6.955
 30
0.0
 10
7.4115
 20
3.7374
 30
0.0
 10
7.4115
 20
3.7374
 30
0.0
  0
SPLINE
  5
C6
330
1F
100
AcDbEntity
  8
DEFAULT_1
 62
   250
100
AcDbSpline
210
0.0
220
0.0
230
1.0
 70
    24
 71
     3
 72
     8
 73
     4
 74
     0
 42
0.0000000001
 43
0.0000000001
 40
0.0
 40
0.0
 40
0.0
 40
0.0
 40
1.0
 40
1.0
 40
1.0
 40
1.0
 10
6.0981
 20
-7.0204
 30
0.0
 10
6.0981
 20
-7.0204
 30
0.0
 10
6.0981
 20
3.7382
 30
0.0
 10
6.0981
 20
3.7382
 30
0.0
  0
SPLINE
  5
C7
330
1F
100
AcDbEntity
  8
DEFAULT_1
 62
   250
100
AcDbSpline
210
0.0
220
0.0
230
1.0
 70
    24
 71
     3
 72
     8
 73
     4
 74
     0
 42
0.0000000001
 43
0.0000000001
 40
0.0
 40
0.0
 40
0.0
 40
0.0
 40
1.0
 40
1.0
 40
1.0
 40
1.0
 10
4.8239
 20
-6.7675
 30
0.0
 10
4.8239
 20
-6.7675
 30
0.0
 10
4.8239
 20
3.8694
 30
0.0
 10
4.8239
 20
3.8694
 30
0.0
  0
SPLINE
  5
C8
330
1F
100
AcDbEntity
  8
DEFAULT_1
 62
   250
100
AcDbSpline
210
0.0
220
0.0
230
1.0
 70
    24
 71
     3
 72
     8
 73
     4
 74
     0
 42
0.0000000001
 43
0.0000000001
 40
0.0
 40
0.0
 40
0.0
 40
0.0
 40
1.0
 40
1.0
 40
1.0
 40
1.0
 10
3.559
 20
-7.0163
 30
0.0
 10
3.559
 20
-7.0163
 30
0.0
 10
3.559
 20
3.6479
 30
0.0
 10
3.559
 20
3.6479
 30
0.0
  0
SPLINE
  5
C9
330
1F
100
AcDbEntity
  8
DEFAULT_1
 62
   250
100
AcDbSpline
210
0.0
220
0.0
230
1.0
 70
    24
 71
     3
 72
     8
 73
     4
 74
     0
 42
0.0000000001
 43
0.0000000001
 40
0.0
 40
0.0
 40
0.0
 40
0.0
 40
1.0
 40
1.0
 40
1.0
 40
1.0
 10
2.2276
 20
-6.7675
 30
0.0
 10
2.2276
 20
-6.7675
 30
0.0
 10
2.2276
 20
-5.176
 30
0.0
 10
2.2276
 20
-5.176
 30
0.0
  0
SPLINE
  5
CA
330
1F
100
AcDbEntity
  8
DEFAULT_1
 62
   250
100
AcDbSpline
210
0.0
220
0.0
230
1.0
 70
     8
 71
     3
 72
    12
 73
     8
 74
     0
 42
0.0000000001
 43
0.0000000001
 40
0.0
 40
0.0
 40
0.0
 40
0.0
 40
0.3333333333333333
 40
0.3333333333333333
 40
0.3333333333333333
 40
0.3333333333333333
 40
1.0
 40
1.0
 40
1.0
 40
1.0
 10
20.5565
 20
4.912
 30
0.0
 10
20.5672
 20
4.9934
 30
0.0
 10
20.6386
 20
5.0542
 30
0.0
 10
20.7235
 20
5.0542
 30
0.0
 10
20.7235
 20
5.0542
 30
0.0
 10
20.8084
 20
5.0542
 30
0.0
 10
20.8798
 20
4.9934
 30
0.0
 10
20.8905
 20
4.912
 30
0.0
  0
SPLINE
  5
CB
330
1F
100
AcDbEntity
  8
DEFAULT_1
 62
   250
100
AcDbSpline
210
0.0
220
0.0
230
1.0
 70
     8
 71
     3
 72
    36
 73
    32
 74
     0
 42
0.0000000001
 43
0.0000000001
 40
0.0
 40
0.0
 40
0.0
 40
0.0
 40
0.1111111111111111
 40
0.1111111111111111
 40
0.1111111111111111
 40
0.1111111111111111
 40
0.2222222222222222
 40
0.2222222222222222
 40
0.2222222222222222
 40
0.2222222222222222
 40
0.3333333333333333
 40
0.3333333333333333
 40
0.3333333333333333
 40
0.3333333333333333
 40
0.4444444444444444
 40
0.4444444444444444
 40
0.4444444444444444
 40
0.4444444444444444
 40
0.5555555555555556
 40
0.5555555555555556
 40
0.5555555555555556
 40
0.5555555555555556
 40
0.6666666666666666
 40
0.6666666666666666
 40
0.6666666666666666
 40
0.6666666666666666
 40
0.7777777777777778
 40
0.7777777777777778
 40
0.7777777777777778
 40
0.7777777777777778
 40
1.0
 40
1.0
 40
1.0
 40
1.0
 10
2.1926
 20
2.6648
 30
0.0
 10
2.1926
 20
2.6648
 30
0.0
 10
2.3189
 20
2.0837
 30
0.0
 10
2.3189
 20
2.0837
 30
0.0
 10
2.3189
 20
2.0837
 30
0.0
 10
2.3189
 20
2.0837
 30
0.0
 10
2.4092
 20
1.1539
 30
0.0
 10
2.4092
 20
1.1539
 30
0.0
 10
2.4092
 20
1.1539
 30
0.0
 10
2.4092
 20
1.1539
 30
0.0
 10
2.4816
 20
0.3401
 30
0.0
 10
2.4816
 20
0.3401
 30
0.0
 10
2.4816
 20
0.3401
 30
0.0
 10
2.4816
 20
0.3401
 30
0.0
 10
2.4996
 20
-0.427
 30
0.0
 10
2.4996
 20
-0.427
 30
0.0
 10
2.4996
 20
-0.427
 30
0.0
 10
2.4996
 20
-0.427
 30
0.0
 10
2.4996
 20
-1.1709
 30
0.0
 10
2.4996
 20
-1.1709
 30
0.0
 10
2.4996
 20
-1.1709
 30
0.0
 10
2.4996
 20
-1.1709
 30
0.0
 10
2.4816
 20
-1.938
 30
0.0
 10
2.4816
 20
-1.938
 30
0.0
 10
2.4816
 20
-1.938
 30
0.0
 10
2.4816
 20
-1.938
 30
0.0
 10
2.3371
 20
-3.2166
 30
0.0
 10
2.3371
 20
-3.2166
 30
0.0
 10
2.3371
 20
-3.2166
 30
0.0
 10
2.3371
 20
-3.2166
 30
0.0
 10
2.1655
 20
-5.1911
 30
0.0
 10
2.1655
 20
-5.1911
 30
0.0
  0
SPLINE
  5
CC
330
1F
100
AcDbEntity
  8
DEFAULT_1
 62
   250
100
AcDbSpline
210
0.0
220
0.0
230
1.0
 70
    24
 71
     3
 72
     8
 73
     4
 74
     0
 42
0.0000000001
 43
0.0000000001
 40
0.0
 40
0.0
 40
0.0
 40
0.0
 40
1.0
 40
1.0
 40
1.0
 40
1.0
 10
2.2262
 20
2.6919
 30
0.0
 10
2.2262
 20
2.6919
 30
0.0
 10
2.2262
 20
3.6463
 30
0.0
 10
2.2262
 20
3.6463
 30
0.0
  0
SPLINE
  5
CD
330
1F
100
AcDbEntity
  8
DEFAULT_1
 62
   250
100
AcDbSpline
210
0.0
220
0.0
230
1.0
 70
    24
 71
     3
 72
     8
 73
     4
 74
     0
 42
0.0000000001
 43
0.0000000001
 40
0.0
 40
0.0
 40
0.0
 40
0.0
 40
1.0
 40
1.0
 40
1.0
 40
1.0
 10
22.1047
 20
-6.7675
 30
0.0
 10
22.1047
 20
-6.7675
 30
0.0
 10
22.1047
 20
3.5966
 30
0.0
 10
22.1047
 20
3.5966
 30
0.0
  0
SPLINE
  5
CE
330
1F
100
AcDbEntity
  8
DEFAULT_1
 62
   250
100
AcDbSpline
210
0.0
220
0.0
230
1.0
 70
     8
 71
     3
 72
    40
 73
    36
 74
     0
 42
0.0000000001
 43
0.0000000001
 40
0.0
 40
0.0
 40
0.0
 40
0.0
 40
0.1
 40
0.1
 40
0.1
 40
0.1
 40
0.2
 40
0.2
 40
0.2
 40
0.2
 40
0.3
 40
0.3
 40
0.3
 40
0.3
 40
0.4
 40
0.4
 40
0.4
 40
0.4
 40
0.5
 40
0.5
 40
0.5
 40
0.5
 40
0.6
 40
0.6
 40
0.6
 40
0.6
 40
0.7
 40
0.7
 40
0.7
 40
0.7
 40
0.8
 40
0.8
 40
0.8
 40
0.8
 40
1.0
 40
1.0
 40
1.0
 40
1.0
 10
-16.2235
 20
3.667
 30
0.0
 10
-16.2235
 20
3.667
 30
0.0
 10
-16.0604
 20
4.9824
 30
0.0
 10
-16.0604
 20
4.9824
 30
0.0
 10
-16.0604
 20
4.9824
 30
0.0
 10
-16.0604
 20
4.9824
 30
0.0
 10
-15.9521
 20
5.1211
 30
0.0
 10
-15.9521
 20
5.1211
 30
0.0
 10
-15.9521
 20
5.1211
 30
0.0
 10
-15.9521
 20
5.1211
 30
0.0
 10
-15.7752
 20
5.1592
 30
0.0
 10
-15.7752
 20
5.1592
 30
0.0
 10
-15.7752
 20
5.1592
 30
0.0
 10
-15.7752
 20
5.1592
 30
0.0
 10
-15.5353
 20
5.1592
 30
0.0
 10
-15.5353
 20
5.1592
 30
0.0
 10
-15.5353
 20
5.1592
 30
0.0
 10
-15.5353
 20
5.1592
 30
0.0
 10
-15.3713
 20
5.1465
 30
0.0
 10
-15.3713
 20
5.1465
 30
0.0
 10
-15.3713
 20
5.1465
 30
0.0
 10
-15.3713
 20
5.1465
 30
0.0
 10
-15.2198
 20
5.1339
 30
0.0
 10
-15.2198
 20
5.1339
 30
0.0
 10
-15.2198
 20
5.1339
 30
0.0
 10
-15.2198
 20
5.1339
 30
0.0
 10
-15.1314
 20
4.9694
 30
0.0
 10
-15.1314
 20
4.9694
 30
0.0
 10
-15.1314
 20
4.9694
 30
0.0
 10
-15.1314
 20
4.9694
 30
0.0
 10
-15.0683
 20
4.7669
 30
0.0
 10
-15.0683
 20
4.7669
 30
0.0
 10
-15.0683
 20
4.7669
 30
0.0
 10
-15.0683
 20
4.7669
 30
0.0
 10
-14.942
 20
3.6341
 30
0.0
 10
-14.942
 20
3.6341
 30
0.0
  0
SPLINE
  5
CF
330
1F
100
AcDbEntity
  8
DEFAULT_1
 62
   250
100
AcDbSpline
210
0.0
220
0.0
230
1.0
 70
     8
 71
     3
 72
    40
 73
    36
 74
     0
 42
0.0000000001
 43
0.0000000001
 40
0.0
 40
0.0
 40
0.0
 40
0.0
 40
0.1
 40
0.1
 40
0.1
 40
0.1
 40
0.2
 40
0.2
 40
0.2
 40
0.2
 40
0.3
 40
0.3
 40
0.3
 40
0.3
 40
0.4
 40
0.4
 40
0.4
 40
0.4
 40
0.5
 40
0.5
 40
0.5
 40
0.5
 40
0.6
 40
0.6
 40
0.6
 40
0.6
 40
0.7
 40
0.7
 40
0.7
 40
0.7
 40
0.8
 40
0.8
 40
0.8
 40
0.8
 40
1.0
 40
1.0
 40
1.0
 40
1.0
 10
-14.9193
 20
3.6612
 30
0.0
 10
-14.9193
 20
3.6612
 30
0.0
 10
-14.7562
 20
4.9766
 30
0.0
 10
-14.7562
 20
4.9766
 30
0.0
 10
-14.7562
 20
4.9766
 30
0.0
 10
-14.7562
 20
4.9766
 30
0.0
 10
-14.6479
 20
5.1153
 30
0.0
 10
-14.6479
 20
5.1153
 30
0.0
 10
-14.6479
 20
5.1153
 30
0.0
 10
-14.6479
 20
5.1153
 30
0.0
 10
-14.4711
 20
5.1534
 30
0.0
 10
-14.4711
 20
5.1534
 30
0.0
 10
-14.4711
 20
5.1534
 30
0.0
 10
-14.4711
 20
5.1534
 30
0.0
 10
-14.2312
 20
5.1534
 30
0.0
 10
-14.2312
 20
5.1534
 30
0.0
 10
-14.2312
 20
5.1534
 30
0.0
 10
-14.2312
 20
5.1534
 30
0.0
 10
-14.0671
 20
5.1407
 30
0.0
 10
-14.0671
 20
5.1407
 30
0.0
 10
-14.0671
 20
5.1407
 30
0.0
 10
-14.0671
 20
5.1407
 30
0.0
 10
-13.9156
 20
5.1281
 30
0.0
 10
-13.9156
 20
5.1281
 30
0.0
 10
-13.9156
 20
5.1281
 30
0.0
 10
-13.9156
 20
5.1281
 30
0.0
 10
-13.8272
 20
4.9636
 30
0.0
 10
-13.8272
 20
4.9636
 30
0.0
 10
-13.8272
 20
4.9636
 30
0.0
 10
-13.8272
 20
4.9636
 30
0.0
 10
-13.7641
 20
4.7611
 30
0.0
 10
-13.7641
 20
4.7611
 30
0.0
 10
-13.7641
 20
4.7611
 30
0.0
 10
-13.7641
 20
4.7611
 30
0.0
 10
-13.6378
 20
3.6399
 30
0.0
 10
-13.6378
 20
3.6399
 30
0.0
  0
SPLINE
  5
D0
330
1F
100
AcDbEntity
  8
DEFAULT_1
 62
   250
100
AcDbSpline
210
0.0
220
0.0
230
1.0
 70
     8
 71
     3
 72
    40
 73
    36
 74
     0
 42
0.0000000001
 43
0.0000000001
 40
0.0
 40
0.0
 40
0.0
 40
0.0
 40
0.1
 40
0.1
 40
0.1
 40
0.1
 40
0.2
 40
0.2
 40
0.2
 40
0.2
 40
0.3
 40
0.3
 40
0.3
 40
0.3
 40
0.4
 40
0.4
 40
0.4
 40
0.4
 40
0.5
 40
0.5
 40
0.5
 40
0.5
 40
0.6
 40
0.6
 40
0.6
 40
0.6
 40
0.7
 40
0.7
 40
0.7
 40
0.7
 40
0.8
 40
0.8
 40
0.8
 40
0.8
 40
1.0
 40
1.0
 40
1.0
 40
1.0
 10
-13.6217
 20
3.667
 30
0.0
 10
-13.6217
 20
3.667
 30
0.0
 10
-13.4586
 20
4.9824
 30
0.0
 10
-13.4586
 20
4.9824
 30
0.0
 10
-13.4586
 20
4.9824
 30
0.0
 10
-13.4586
 20
4.9824
 30
0.0
 10
-13.3503
 20
5.1211
 30
0.0
 10
-13.3503
 20
5.1211
 30
0.0
 10
-13.3503
 20
5.1211
 30
0.0
 10
-13.3503
 20
5.1211
 30
0.0
 10
-13.1735
 20
5.1592
 30
0.0
 10
-13.1735
 20
5.1592
 30
0.0
 10
-13.1735
 20
5.1592
 30
0.0
 10
-13.1735
 20
5.1592
 30
0.0
 10
-12.9336
 20
5.1592
 30
0.0
 10
-12.9336
 20
5.1592
 30
0.0
 10
-12.9336
 20
5.1592
 30
0.0
 10
-12.9336
 20
5.1592
 30
0.0
 10
-12.7695
 20
5.1465
 30
0.0
 10
-12.7695
 20
5.1465
 30
0.0
 10
-12.7695
 20
5.1465
 30
0.0
 10
-12.7695
 20
5.1465
 30
0.0
 10
-12.618
 20
5.1339
 30
0.0
 10
-12.618
 20
5.1339
 30
0.0
 10
-12.618
 20
5.1339
 30
0.0
 10
-12.618
 20
5.1339
 30
0.0
 10
-12.5296
 20
4.9694
 30
0.0
 10
-12.5296
 20
4.9694
 30
0.0
 10
-12.5296
 20
4.9694
 30
0.0
 10
-12.5296
 20
4.9694
 30
0.0
 10
-12.4665
 20
4.7669
 30
0.0
 10
-12.4665
 20
4.7669
 30
0.0
 10
-12.4665
 20
4.7669
 30
0.0
 10
-12.4665
 20
4.7669
 30
0.0
 10
-12.3402
 20
3.6341
 30
0.0
 10
-12.3402
 20
3.6341
 30
0.0
  0
SPLINE
  5
D1
330
1F
100
AcDbEntity
  8
DEFAULT_1
 62
   250
100
AcDbSpline
210
0.0
220
0.0
230
1.0
 70
     8
 71
     3
 72
    40
 73
    36
 74
     0
 42
0.0000000001
 43
0.0000000001
 40
0.0
 40
0.0
 40
0.0
 40
0.0
 40
0.1
 40
0.1
 40
0.1
 40
0.1
 40
0.2
 40
0.2
 40
0.2
 40
0.2
 40
0.3
 40
0.3
 40
0.3
 40
0.3
 40
0.4
 40
0.4
 40
0.4
 40
0.4
 40
0.5
 40
0.5
 40
0.5
 40
0.5
 40
0.6
 40
0.6
 40
0.6
 40
0.6
 40
0.7
 40
0.7
 40
0.7
 40
0.7
 40
0.8
 40
0.8
 40
0.8
 40
0.8
 40
1.0
 40
1.0
 40
1.0
 40
1.0
 10
-12.3332
 20
3.6419
 30
0.0
 10
-12.3332
 20
3.6419
 30
0.0
 10
-12.1701
 20
4.9573
 30
0.0
 10
-12.1701
 20
4.9573
 30
0.0
 10
-12.1701
 20
4.9573
 30
0.0
 10
-12.1701
 20
4.9573
 30
0.0
 10
-12.0618
 20
5.096
 30
0.0
 10
-12.0618
 20
5.096
 30
0.0
 10
-12.0618
 20
5.096
 30
0.0
 10
-12.0618
 20
5.096
 30
0.0
 10
-11.885
 20
5.1341
 30
0.0
 10
-11.885
 20
5.1341
 30
0.0
 10
-11.885
 20
5.1341
 30
0.0
 10
-11.885
 20
5.1341
 30
0.0
 10
-11.6451
 20
5.1341
 30
0.0
 10
-11.6451
 20
5.1341
 30
0.0
 10
-11.6451
 20
5.1341
 30
0.0
 10
-11.6451
 20
5.1341
 30
0.0
 10
-11.481
 20
5.1213
 30
0.0
 10
-11.481
 20
5.1213
 30
0.0
 10
-11.481
 20
5.1213
 30
0.0
 10
-11.481
 20
5.1213
 30
0.0
 10
-11.3295
 20
5.1087
 30
0.0
 10
-11.3295
 20
5.1087
 30
0.0
 10
-11.3295
 20
5.1087
 30
0.0
 10
-11.3295
 20
5.1087
 30
0.0
 10
-11.2411
 20
4.9443
 30
0.0
 10
-11.2411
 20
4.9443
 30
0.0
 10
-11.2411
 20
4.9443
 30
0.0
 10
-11.2411
 20
4.9443
 30
0.0
 10
-11.178
 20
4.7417
 30
0.0
 10
-11.178
 20
4.7417
 30
0.0
 10
-11.178
 20
4.7417
 30
0.0
 10
-11.178
 20
4.7417
 30
0.0
 10
-11.0517
 20
3.6206
 30
0.0
 10
-11.0517
 20
3.6206
 30
0.0
  0
SPLINE
  5
D2
330
1F
100
AcDbEntity
  8
DEFAULT_1
 62
   250
100
AcDbSpline
210
0.0
220
0.0
230
1.0
 70
     8
 71
     3
 72
    40
 73
    36
 74
     0
 42
0.0000000001
 43
0.0000000001
 40
0.0
 40
0.0
 40
0.0
 40
0.0
 40
0.1
 40
0.1
 40
0.1
 40
0.1
 40
0.2
 40
0.2
 40
0.2
 40
0.2
 40
0.3
 40
0.3
 40
0.3
 40
0.3
 40
0.4
 40
0.4
 40
0.4
 40
0.4
 40
0.5
 40
0.5
 40
0.5
 40
0.5
 40
0.6
 40
0.6
 40
0.6
 40
0.6
 40
0.7
 40
0.7
 40
0.7
 40
0.7
 40
0.8
 40
0.8
 40
0.8
 40
0.8
 40
1.0
 40
1.0
 40
1.0
 40
1.0
 10
-11.0356
 20
3.6477
 30
0.0
 10
-11.0356
 20
3.6477
 30
0.0
 10
-10.8725
 20
4.9631
 30
0.0
 10
-10.8725
 20
4.9631
 30
0.0
 10
-10.8725
 20
4.9631
 30
0.0
 10
-10.8725
 20
4.9631
 30
0.0
 10
-10.7642
 20
5.1018
 30
0.0
 10
-10.7642
 20
5.1018
 30
0.0
 10
-10.7642
 20
5.1018
 30
0.0
 10
-10.7642
 20
5.1018
 30
0.0
 10
-10.5874
 20
5.1399
 30
0.0
 10
-10.5874
 20
5.1399
 30
0.0
 10
-10.5874
 20
5.1399
 30
0.0
 10
-10.5874
 20
5.1399
 30
0.0
 10
-10.3475
 20
5.1399
 30
0.0
 10
-10.3475
 20
5.1399
 30
0.0
 10
-10.3475
 20
5.1399
 30
0.0
 10
-10.3475
 20
5.1399
 30
0.0
 10
-10.1834
 20
5.1271
 30
0.0
 10
-10.1834
 20
5.1271
 30
0.0
 10
-10.1834
 20
5.1271
 30
0.0
 10
-10.1834
 20
5.1271
 30
0.0
 10
-10.0319
 20
5.1145
 30
0.0
 10
-10.0319
 20
5.1145
 30
0.0
 10
-10.0319
 20
5.1145
 30
0.0
 10
-10.0319
 20
5.1145
 30
0.0
 10
-9.9435
 20
4.9501
 30
0.0
 10
-9.9435
 20
4.9501
 30
0.0
 10
-9.9435
 20
4.9501
 30
0.0
 10
-9.9435
 20
4.9501
 30
0.0
 10
-9.8804
 20
4.7475
 30
0.0
 10
-9.8804
 20
4.7475
 30
0.0
 10
-9.8804
 20
4.7475
 30
0.0
 10
-9.8804
 20
4.7475
 30
0.0
 10
-9.7541
 20
3.6148
 30
0.0
 10
-9.7541
 20
3.6148
 30
0.0
  0
SPLINE
  5
D3
330
1F
100
AcDbEntity
  8
DEFAULT_1
 62
   250
100
AcDbSpline
210
0.0
220
0.0
230
1.0
 70
     8
 71
     3
 72
    40
 73
    36
 74
     0
 42
0.0000000001
 43
0.0000000001
 40
0.0
 40
0.0
 40
0.0
 40
0.0
 40
0.1
 40
0.1
 40
0.1
 40
0.1
 40
0.2
 40
0.2
 40
0.2
 40
0.2
 40
0.3
 40
0.3
 40
0.3
 40
0.3
 40
0.4
 40
0.4
 40
0.4
 40
0.4
 40
0.5
 40
0.5
 40
0.5
 40
0.5
 40
0.6
 40
0.6
 40
0.6
 40
0.6
 40
0.7
 40
0.7
 40
0.7
 40
0.7
 40
0.8
 40
0.8
 40
0.8
 40
0.8
 40
1.0
 40
1.0
 40
1.0
 40
1.0
 10
-9.7315
 20
3.6419
 30
0.0
 10
-9.7315
 20
3.6419
 30
0.0
 10
-9.5684
 20
4.9573
 30
0.0
 10
-9.5684
 20
4.9573
 30
0.0
 10
-9.5684
 20
4.9573
 30
0.0
 10
-9.5684
 20
4.9573
 30
0.0
 10
-9.46
 20
5.096
 30
0.0
 10
-9.46
 20
5.096
 30
0.0
 10
-9.46
 20
5.096
 30
0.0
 10
-9.46
 20
5.096
 30
0.0
 10
-9.2832
 20
5.1341
 30
0.0
 10
-9.2832
 20
5.1341
 30
0.0
 10
-9.2832
 20
5.1341
 30
0.0
 10
-9.2832
 20
5.1341
 30
0.0
 10
-9.0433
 20
5.1341
 30
0.0
 10
-9.0433
 20
5.1341
 30
0.0
 10
-9.0433
 20
5.1341
 30
0.0
 10
-9.0433
 20
5.1341
 30
0.0
 10
-8.8792
 20
5.1213
 30
0.0
 10
-8.8792
 20
5.1213
 30
0.0
 10
-8.8792
 20
5.1213
 30
0.0
 10
-8.8792
 20
5.1213
 30
0.0
 10
-8.7278
 20
5.1087
 30
0.0
 10
-8.7278
 20
5.1087
 30
0.0
 10
-8.7278
 20
5.1087
 30
0.0
 10
-8.7278
 20
5.1087
 30
0.0
 10
-8.6393
 20
4.9443
 30
0.0
 10
-8.6393
 20
4.9443
 30
0.0
 10
-8.6393
 20
4.9443
 30
0.0
 10
-8.6393
 20
4.9443
 30
0.0
 10
-8.5763
 20
4.7417
 30
0.0
 10
-8.5763
 20
4.7417
 30
0.0
 10
-8.5763
 20
4.7417
 30
0.0
 10
-8.5763
 20
4.7417
 30
0.0
 10
-8.4499
 20
3.6206
 30
0.0
 10
-8.4499
 20
3.6206
 30
0.0
  0
SPLINE
  5
D4
330
1F
100
AcDbEntity
  8
DEFAULT_1
 62
   250
100
AcDbSpline
210
0.0
220
0.0
230
1.0
 70
     8
 71
     3
 72
    40
 73
    36
 74
     0
 42
0.0000000001
 43
0.0000000001
 40
0.0
 40
0.0
 40
0.0
 40
0.0
 40
0.1
 40
0.1
 40
0.1
 40
0.1
 40
0.2
 40
0.2
 40
0.2
 40
0.2
 40
0.3
 40
0.3
 40
0.3
 40
0.3
 40
0.4
 40
0.4
 40
0.4
 40
0.4
 40
0.5
 40
0.5
 40
0.5
 40
0.5
 40
0.6
 40
0.6
 40
0.6
 40
0.6
 40
0.7
 40
0.7
 40
0.7
 40
0.7
 40
0.8
 40
0.8
 40
0.8
 40
0.8
 40
1.0
 40
1.0
 40
1.0
 40
1.0
 10
-8.4339
 20
3.6477
 30
0.0
 10
-8.4339
 20
3.6477
 30
0.0
 10
-8.2708
 20
4.9631
 30
0.0
 10
-8.2708
 20
4.9631
 30
0.0
 10
-8.2708
 20
4.9631
 30
0.0
 10
-8.2708
 20
4.9631
 30
0.0
 10
-8.1624
 20
5.1018
 30
0.0
 10
-8.1624
 20
5.1018
 30
0.0
 10
-8.1624
 20
5.1018
 30
0.0
 10
-8.1624
 20
5.1018
 30
0.0
 10
-7.9856
 20
5.1399
 30
0.0
 10
-7.9856
 20
5.1399
 30
0.0
 10
-7.9856
 20
5.1399
 30
0.0
 10
-7.9856
 20
5.1399
 30
0.0
 10
-7.7457
 20
5.1399
 30
0.0
 10
-7.7457
 20
5.1399
 30
0.0
 10
-7.7457
 20
5.1399
 30
0.0
 10
-7.7457
 20
5.1399
 30
0.0
 10
-7.5817
 20
5.1271
 30
0.0
 10
-7.5817
 20
5.1271
 30
0.0
 10
-7.5817
 20
5.1271
 30
0.0
 10
-7.5817
 20
5.1271
 30
0.0
 10
-7.4302
 20
5.1145
 30
0.0
 10
-7.4302
 20
5.1145
 30
0.0
 10
-7.4302
 20
5.1145
 30
0.0
 10
-7.4302
 20
5.1145
 30
0.0
 10
-7.3418
 20
4.9501
 30
0.0
 10
-7.3418
 20
4.9501
 30
0.0
 10
-7.3418
 20
4.9501
 30
0.0
 10
-7.3418
 20
4.9501
 30
0.0
 10
-7.2787
 20
4.7475
 30
0.0
 10
-7.2787
 20
4.7475
 30
0.0
 10
-7.2787
 20
4.7475
 30
0.0
 10
-7.2787
 20
4.7475
 30
0.0
 10
-7.1523
 20
3.6148
 30
0.0
 10
-7.1523
 20
3.6148
 30
0.0
  0
SPLINE
  5
D5
330
1F
100
AcDbEntity
  8
DEFAULT_1
 62
   250
100
AcDbSpline
210
0.0
220
0.0
230
1.0
 70
     8
 71
     3
 72
    40
 73
    36
 74
     0
 42
0.0000000001
 43
0.0000000001
 40
0.0
 40
0.0
 40
0.0
 40
0.0
 40
0.1
 40
0.1
 40
0.1
 40
0.1
 40
0.2
 40
0.2
 40
0.2
 40
0.2
 40
0.3
 40
0.3
 40
0.3
 40
0.3
 40
0.4
 40
0.4
 40
0.4
 40
0.4
 40
0.5
 40
0.5
 40
0.5
 40
0.5
 40
0.6
 40
0.6
 40
0.6
 40
0.6
 40
0.7
 40
0.7
 40
0.7
 40
0.7
 40
0.8
 40
0.8
 40
0.8
 40
0.8
 40
1.0
 40
1.0
 40
1.0
 40
1.0
 10
-7.1539
 20
3.6612
 30
0.0
 10
-7.1539
 20
3.6612
 30
0.0
 10
-6.9908
 20
4.9766
 30
0.0
 10
-6.9908
 20
4.9766
 30
0.0
 10
-6.9908
 20
4.9766
 30
0.0
 10
-6.9908
 20
4.9766
 30
0.0
 10
-6.8825
 20
5.1153
 30
0.0
 10
-6.8825
 20
5.1153
 30
0.0
 10
-6.8825
 20
5.1153
 30
0.0
 10
-6.8825
 20
5.1153
 30
0.0
 10
-6.7056
 20
5.1534
 30
0.0
 10
-6.7056
 20
5.1534
 30
0.0
 10
-6.7056
 20
5.1534
 30
0.0
 10
-6.7056
 20
5.1534
 30
0.0
 10
-6.4657
 20
5.1534
 30
0.0
 10
-6.4657
 20
5.1534
 30
0.0
 10
-6.4657
 20
5.1534
 30
0.0
 10
-6.4657
 20
5.1534
 30
0.0
 10
-6.3017
 20
5.1407
 30
0.0
 10
-6.3017
 20
5.1407
 30
0.0
 10
-6.3017
 20
5.1407
 30
0.0
 10
-6.3017
 20
5.1407
 30
0.0
 10
-6.1502
 20
5.1281
 30
0.0
 10
-6.1502
 20
5.1281
 30
0.0
 10
-6.1502
 20
5.1281
 30
0.0
 10
-6.1502
 20
5.1281
 30
0.0
 10
-6.0618
 20
4.9636
 30
0.0
 10
-6.0618
 20
4.9636
 30
0.0
 10
-6.0618
 20
4.9636
 30
0.0
 10
-6.0618
 20
4.9636
 30
0.0
 10
-5.9987
 20
4.7611
 30
0.0
 10
-5.9987
 20
4.7611
 30
0.0
 10
-5.9987
 20
4.7611
 30
0.0
 10
-5.9987
 20
4.7611
 30
0.0
 10
-5.8724
 20
3.6399
 30
0.0
 10
-5.8724
 20
3.6399
 30
0.0
  0
SPLINE
  5
D6
330
1F
100
AcDbEntity
  8
DEFAULT_1
 62
   250
100
AcDbSpline
210
0.0
220
0.0
230
1.0
 70
     8
 71
     3
 72
    40
 73
    36
 74
     0
 42
0.0000000001
 43
0.0000000001
 40
0.0
 40
0.0
 40
0.0
 40
0.0
 40
0.1
 40
0.1
 40
0.1
 40
0.1
 40
0.2
 40
0.2
 40
0.2
 40
0.2
 40
0.3
 40
0.3
 40
0.3
 40
0.3
 40
0.4
 40
0.4
 40
0.4
 40
0.4
 40
0.5
 40
0.5
 40
0.5
 40
0.5
 40
0.6
 40
0.6
 40
0.6
 40
0.6
 40
0.7
 40
0.7
 40
0.7
 40
0.7
 40
0.8
 40
0.8
 40
0.8
 40
0.8
 40
1.0
 40
1.0
 40
1.0
 40
1.0
 10
-5.8563
 20
3.667
 30
0.0
 10
-5.8563
 20
3.667
 30
0.0
 10
-5.6932
 20
4.9824
 30
0.0
 10
-5.6932
 20
4.9824
 30
0.0
 10
-5.6932
 20
4.9824
 30
0.0
 10
-5.6932
 20
4.9824
 30
0.0
 10
-5.5849
 20
5.1211
 30
0.0
 10
-5.5849
 20
5.1211
 30
0.0
 10
-5.5849
 20
5.1211
 30
0.0
 10
-5.5849
 20
5.1211
 30
0.0
 10
-5.408
 20
5.1592
 30
0.0
 10
-5.408
 20
5.1592
 30
0.0
 10
-5.408
 20
5.1592
 30
0.0
 10
-5.408
 20
5.1592
 30
0.0
 10
-5.1681
 20
5.1592
 30
0.0
 10
-5.1681
 20
5.1592
 30
0.0
 10
-5.1681
 20
5.1592
 30
0.0
 10
-5.1681
 20
5.1592
 30
0.0
 10
-5.0041
 20
5.1465
 30
0.0
 10
-5.0041
 20
5.1465
 30
0.0
 10
-5.0041
 20
5.1465
 30
0.0
 10
-5.0041
 20
5.1465
 30
0.0
 10
-4.8526
 20
5.1339
 30
0.0
 10
-4.8526
 20
5.1339
 30
0.0
 10
-4.8526
 20
5.1339
 30
0.0
 10
-4.8526
 20
5.1339
 30
0.0
 10
-4.7642
 20
4.9694
 30
0.0
 10
-4.7642
 20
4.9694
 30
0.0
 10
-4.7642
 20
4.9694
 30
0.0
 10
-4.7642
 20
4.9694
 30
0.0
 10
-4.7011
 20
4.7669
 30
0.0
 10
-4.7011
 20
4.7669
 30
0.0
 10
-4.7011
 20
4.7669
 30
0.0
 10
-4.7011
 20
4.7669
 30
0.0
 10
-4.5748
 20
3.6341
 30
0.0
 10
-4.5748
 20
3.6341
 30
0.0
  0
SPLINE
  5
D7
330
1F
100
AcDbEntity
  8
DEFAULT_1
 62
   250
100
AcDbSpline
210
0.0
220
0.0
230
1.0
 70
     8
 71
     3
 72
    40
 73
    36
 74
     0
 42
0.0000000001
 43
0.0000000001
 40
0.0
 40
0.0
 40
0.0
 40
0.0
 40
0.1
 40
0.1
 40
0.1
 40
0.1
 40
0.2
 40
0.2
 40
0.2
 40
0.2
 40
0.3
 40
0.3
 40
0.3
 40
0.3
 40
0.4
 40
0.4
 40
0.4
 40
0.4
 40
0.5
 40
0.5
 40
0.5
 40
0.5
 40
0.6
 40
0.6
 40
0.6
 40
0.6
 40
0.7
 40
0.7
 40
0.7
 40
0.7
 40
0.8
 40
0.8
 40
0.8
 40
0.8
 40
1.0
 40
1.0
 40
1.0
 40
1.0
 10
-4.5678
 20
3.6419
 30
0.0
 10
-4.5678
 20
3.6419
 30
0.0
 10
-4.4047
 20
4.9573
 30
0.0
 10
-4.4047
 20
4.9573
 30
0.0
 10
-4.4047
 20
4.9573
 30
0.0
 10
-4.4047
 20
4.9573
 30
0.0
 10
-4.2964
 20
5.096
 30
0.0
 10
-4.2964
 20
5.096
 30
0.0
 10
-4.2964
 20
5.096
 30
0.0
 10
-4.2964
 20
5.096
 30
0.0
 10
-4.1195
 20
5.1341
 30
0.0
 10
-4.1195
 20
5.1341
 30
0.0
 10
-4.1195
 20
5.1341
 30
0.0
 10
-4.1195
 20
5.1341
 30
0.0
 10
-3.8796
 20
5.1341
 30
0.0
 10
-3.8796
 20
5.1341
 30
0.0
 10
-3.8796
 20
5.1341
 30
0.0
 10
-3.8796
 20
5.1341
 30
0.0
 10
-3.7156
 20
5.1213
 30
0.0
 10
-3.7156
 20
5.1213
 30
0.0
 10
-3.7156
 20
5.1213
 30
0.0
 10
-3.7156
 20
5.1213
 30
0.0
 10
-3.5641
 20
5.1087
 30
0.0
 10
-3.5641
 20
5.1087
 30
0.0
 10
-3.5641
 20
5.1087
 30
0.0
 10
-3.5641
 20
5.1087
 30
0.0
 10
-3.4757
 20
4.9443
 30
0.0
 10
-3.4757
 20
4.9443
 30
0.0
 10
-3.4757
 20
4.9443
 30
0.0
 10
-3.4757
 20
4.9443
 30
0.0
 10
-3.4126
 20
4.7417
 30
0.0
 10
-3.4126
 20
4.7417
 30
0.0
 10
-3.4126
 20
4.7417
 30
0.0
 10
-3.4126
 20
4.7417
 30
0.0
 10
-3.2863
 20
3.6206
 30
0.0
 10
-3.2863
 20
3.6206
 30
0.0
  0
SPLINE
  5
D8
330
1F
100
AcDbEntity
  8
DEFAULT_1
 62
   250
100
AcDbSpline
210
0.0
220
0.0
230
1.0
 70
     8
 71
     3
 72
    40
 73
    36
 74
     0
 42
0.0000000001
 43
0.0000000001
 40
0.0
 40
0.0
 40
0.0
 40
0.0
 40
0.1
 40
0.1
 40
0.1
 40
0.1
 40
0.2
 40
0.2
 40
0.2
 40
0.2
 40
0.3
 40
0.3
 40
0.3
 40
0.3
 40
0.4
 40
0.4
 40
0.4
 40
0.4
 40
0.5
 40
0.5
 40
0.5
 40
0.5
 40
0.6
 40
0.6
 40
0.6
 40
0.6
 40
0.7
 40
0.7
 40
0.7
 40
0.7
 40
0.8
 40
0.8
 40
0.8
 40
0.8
 40
1.0
 40
1.0
 40
1.0
 40
1.0
 10
-3.2702
 20
3.6477
 30
0.0
 10
-3.2702
 20
3.6477
 30
0.0
 10
-3.1071
 20
4.9631
 30
0.0
 10
-3.1071
 20
4.9631
 30
0.0
 10
-3.1071
 20
4.9631
 30
0.0
 10
-3.1071
 20
4.9631
 30
0.0
 10
-2.9988
 20
5.1018
 30
0.0
 10
-2.9988
 20
5.1018
 30
0.0
 10
-2.9988
 20
5.1018
 30
0.0
 10
-2.9988
 20
5.1018
 30
0.0
 10
-2.8219
 20
5.1399
 30
0.0
 10
-2.8219
 20
5.1399
 30
0.0
 10
-2.8219
 20
5.1399
 30
0.0
 10
-2.8219
 20
5.1399
 30
0.0
 10
-2.582
 20
5.1399
 30
0.0
 10
-2.582
 20
5.1399
 30
0.0
 10
-2.582
 20
5.1399
 30
0.0
 10
-2.582
 20
5.1399
 30
0.0
 10
-2.418
 20
5.1271
 30
0.0
 10
-2.418
 20
5.1271
 30
0.0
 10
-2.418
 20
5.1271
 30
0.0
 10
-2.418
 20
5.1271
 30
0.0
 10
-2.2665
 20
5.1145
 30
0.0
 10
-2.2665
 20
5.1145
 30
0.0
 10
-2.2665
 20
5.1145
 30
0.0
 10
-2.2665
 20
5.1145
 30
0.0
 10
-2.1781
 20
4.9501
 30
0.0
 10
-2.1781
 20
4.9501
 30
0.0
 10
-2.1781
 20
4.9501
 30
0.0
 10
-2.1781
 20
4.9501
 30
0.0
 10
-2.115
 20
4.7475
 30
0.0
 10
-2.115
 20
4.7475
 30
0.0
 10
-2.115
 20
4.7475
 30
0.0
 10
-2.115
 20
4.7475
 30
0.0
 10
-1.9887
 20
3.6148
 30
0.0
 10
-1.9887
 20
3.6148
 30
0.0
  0
SPLINE
  5
D9
330
1F
100
AcDbEntity
  8
DEFAULT_1
 62
   250
100
AcDbSpline
210
0.0
220
0.0
230
1.0
 70
     8
 71
     3
 72
    40
 73
    36
 74
     0
 42
0.0000000001
 43
0.0000000001
 40
0.0
 40
0.0
 40
0.0
 40
0.0
 40
0.1
 40
0.1
 40
0.1
 40
0.1
 40
0.2
 40
0.2
 40
0.2
 40
0.2
 40
0.3
 40
0.3
 40
0.3
 40
0.3
 40
0.4
 40
0.4
 40
0.4
 40
0.4
 40
0.5
 40
0.5
 40
0.5
 40
0.5
 40
0.6
 40
0.6
 40
0.6
 40
0.6
 40
0.7
 40
0.7
 40
0.7
 40
0.7
 40
0.8
 40
0.8
 40
0.8
 40
0.8
 40
1.0
 40
1.0
 40
1.0
 40
1.0
 10
-1.966
 20
3.6419
 30
0.0
 10
-1.966
 20
3.6419
 30
0.0
 10
-1.803
 20
4.9573
 30
0.0
 10
-1.803
 20
4.9573
 30
0.0
 10
-1.803
 20
4.9573
 30
0.0
 10
-1.803
 20
4.9573
 30
0.0
 10
-1.6946
 20
5.096
 30
0.0
 10
-1.6946
 20
5.096
 30
0.0
 10
-1.6946
 20
5.096
 30
0.0
 10
-1.6946
 20
5.096
 30
0.0
 10
-1.5178
 20
5.1341
 30
0.0
 10
-1.5178
 20
5.1341
 30
0.0
 10
-1.5178
 20
5.1341
 30
0.0
 10
-1.5178
 20
5.1341
 30
0.0
 10
-1.2779
 20
5.1341
 30
0.0
 10
-1.2779
 20
5.1341
 30
0.0
 10
-1.2779
 20
5.1341
 30
0.0
 10
-1.2779
 20
5.1341
 30
0.0
 10
-1.1138
 20
5.1213
 30
0.0
 10
-1.1138
 20
5.1213
 30
0.0
 10
-1.1138
 20
5.1213
 30
0.0
 10
-1.1138
 20
5.1213
 30
0.0
 10
-0.9623
 20
5.1087
 30
0.0
 10
-0.9623
 20
5.1087
 30
0.0
 10
-0.9623
 20
5.1087
 30
0.0
 10
-0.9623
 20
5.1087
 30
0.0
 10
-0.8739
 20
4.9443
 30
0.0
 10
-0.8739
 20
4.9443
 30
0.0
 10
-0.8739
 20
4.9443
 30
0.0
 10
-0.8739
 20
4.9443
 30
0.0
 10
-0.8108
 20
4.7417
 30
0.0
 10
-0.8108
 20
4.7417
 30
0.0
 10
-0.8108
 20
4.7417
 30
0.0
 10
-0.8108
 20
4.7417
 30
0.0
 10
-0.6845
 20
3.6206
 30
0.0
 10
-0.6845
 20
3.6206
 30
0.0
  0
SPLINE
  5
DA
330
1F
100
AcDbEntity
  8
DEFAULT_1
 62
   250
100
AcDbSpline
210
0.0
220
0.0
230
1.0
 70
     8
 71
     3
 72
    40
 73
    36
 74
     0
 42
0.0000000001
 43
0.0000000001
 40
0.0
 40
0.0
 40
0.0
 40
0.0
 40
0.1
 40
0.1
 40
0.1
 40
0.1
 40
0.2
 40
0.2
 40
0.2
 40
0.2
 40
0.3
 40
0.3
 40
0.3
 40
0.3
 40
0.4
 40
0.4
 40
0.4
 40
0.4
 40
0.5
 40
0.5
 40
0.5
 40
0.5
 40
0.6
 40
0.6
 40
0.6
 40
0.6
 40
0.7
 40
0.7
 40
0.7
 40
0.7
 40
0.8
 40
0.8
 40
0.8
 40
0.8
 40
1.0
 40
1.0
 40
1.0
 40
1.0
 10
-0.6685
 20
3.6477
 30
0.0
 10
-0.6685
 20
3.6477
 30
0.0
 10
-0.5054
 20
4.9631
 30
0.0
 10
-0.5054
 20
4.9631
 30
0.0
 10
-0.5054
 20
4.9631
 30
0.0
 10
-0.5054
 20
4.9631
 30
0.0
 10
-0.397
 20
5.1018
 30
0.0
 10
-0.397
 20
5.1018
 30
0.0
 10
-0.397
 20
5.1018
 30
0.0
 10
-0.397
 20
5.1018
 30
0.0
 10
-0.2202
 20
5.1399
 30
0.0
 10
-0.2202
 20
5.1399
 30
0.0
 10
-0.2202
 20
5.1399
 30
0.0
 10
-0.2202
 20
5.1399
 30
0.0
 10
0.0197
 20
5.1399
 30
0.0
 10
0.0197
 20
5.1399
 30
0.0
 10
0.0197
 20
5.1399
 30
0.0
 10
0.0197
 20
5.1399
 30
0.0
 10
0.1838
 20
5.1271
 30
0.0
 10
0.1838
 20
5.1271
 30
0.0
 10
0.1838
 20
5.1271
 30
0.0
 10
0.1838
 20
5.1271
 30
0.0
 10
0.3353
 20
5.1145
 30
0.0
 10
0.3353
 20
5.1145
 30
0.0
 10
0.3353
 20
5.1145
 30
0.0
 10
0.3353
 20
5.1145
 30
0.0
 10
0.4237
 20
4.9501
 30
0.0
 10
0.4237
 20
4.9501
 30
0.0
 10
0.4237
 20
4.9501
 30
0.0
 10
0.4237
 20
4.9501
 30
0.0
 10
0.4867
 20
4.7475
 30
0.0
 10
0.4867
 20
4.7475
 30
0.0
 10
0.4867
 20
4.7475
 30
0.0
 10
0.4867
 20
4.7475
 30
0.0
 10
0.6131
 20
3.6148
 30
0.0
 10
0.6131
 20
3.6148
 30
0.0
  0
SPLINE
  5
DB
330
1F
100
AcDbEntity
  8
DEFAULT_1
 62
   250
100
AcDbSpline
210
0.0
220
0.0
230
1.0
 70
     8
 71
     3
 72
    40
 73
    36
 74
     0
 42
0.0000000001
 43
0.0000000001
 40
0.0
 40
0.0
 40
0.0
 40
0.0
 40
0.1
 40
0.1
 40
0.1
 40
0.1
 40
0.2
 40
0.2
 40
0.2
 40
0.2
 40
0.3
 40
0.3
 40
0.3
 40
0.3
 40
0.4
 40
0.4
 40
0.4
 40
0.4
 40
0.5
 40
0.5
 40
0.5
 40
0.5
 40
0.6
 40
0.6
 40
0.6
 40
0.6
 40
0.7
 40
0.7
 40
0.7
 40
0.7
 40
0.8
 40
0.8
 40
0.8
 40
0.8
 40
1.0
 40
1.0
 40
1.0
 40
1.0
 10
-17.5211
 20
-6.7286
 30
0.0
 10
-17.5211
 20
-6.7286
 30
0.0
 10
-17.358
 20
-8.044
 30
0.0
 10
-17.358
 20
-8.044
 30
0.0
 10
-17.358
 20
-8.044
 30
0.0
 10
-17.358
 20
-8.044
 30
0.0
 10
-17.2496
 20
-8.1827
 30
0.0
 10
-17.2496
 20
-8.1827
 30
0.0
 10
-17.2496
 20
-8.1827
 30
0.0
 10
-17.2496
 20
-8.1827
 30
0.0
 10
-17.0728
 20
-8.2208
 30
0.0
 10
-17.0728
 20
-8.2208
 30
0.0
 10
-17.0728
 20
-8.2208
 30
0.0
 10
-17.0728
 20
-8.2208
 30
0.0
 10
-16.8329
 20
-8.2208
 30
0.0
 10
-16.8329
 20
-8.2208
 30
0.0
 10
-16.8329
 20
-8.2208
 30
0.0
 10
-16.8329
 20
-8.2208
 30
0.0
 10
-16.6689
 20
-8.2081
 30
0.0
 10
-16.6689
 20
-8.2081
 30
0.0
 10
-16.6689
 20
-8.2081
 30
0.0
 10
-16.6689
 20
-8.2081
 30
0.0
 10
-16.5174
 20
-8.1955
 30
0.0
 10
-16.5174
 20
-8.1955
 30
0.0
 10
-16.5174
 20
-8.1955
 30
0.0
 10
-16.5174
 20
-8.1955
 30
0.0
 10
-16.429
 20
-8.031
 30
0.0
 10
-16.429
 20
-8.031
 30
0.0
 10
-16.429
 20
-8.031
 30
0.0
 10
-16.429
 20
-8.031
 30
0.0
 10
-16.3659
 20
-7.8285
 30
0.0
 10
-16.3659
 20
-7.8285
 30
0.0
 10
-16.3659
 20
-7.8285
 30
0.0
 10
-16.3659
 20
-7.8285
 30
0.0
 10
-16.2395
 20
-6.7073
 30
0.0
 10
-16.2395
 20
-6.7073
 30
0.0
  0
SPLINE
  5
DC
330
1F
100
AcDbEntity
  8
DEFAULT_1
 62
   250
100
AcDbSpline
210
0.0
220
0.0
230
1.0
 70
     8
 71
     3
 72
    40
 73
    36
 74
     0
 42
0.0000000001
 43
0.0000000001
 40
0.0
 40
0.0
 40
0.0
 40
0.0
 40
0.1
 40
0.1
 40
0.1
 40
0.1
 40
0.2
 40
0.2
 40
0.2
 40
0.2
 40
0.3
 40
0.3
 40
0.3
 40
0.3
 40
0.4
 40
0.4
 40
0.4
 40
0.4
 40
0.5
 40
0.5
 40
0.5
 40
0.5
 40
0.6
 40
0.6
 40
0.6
 40
0.6
 40
0.7
 40
0.7
 40
0.7
 40
0.7
 40
0.8
 40
0.8
 40
0.8
 40
0.8
 40
1.0
 40
1.0
 40
1.0
 40
1.0
 10
-16.2235
 20
-6.7344
 30
0.0
 10
-16.2235
 20
-6.7344
 30
0.0
 10
-16.0604
 20
-8.0498
 30
0.0
 10
-16.0604
 20
-8.0498
 30
0.0
 10
-16.0604
 20
-8.0498
 30
0.0
 10
-16.0604
 20
-8.0498
 30
0.0
 10
-15.9521
 20
-8.1885
 30
0.0
 10
-15.9521
 20
-8.1885
 30
0.0
 10
-15.9521
 20
-8.1885
 30
0.0
 10
-15.9521
 20
-8.1885
 30
0.0
 10
-15.7752
 20
-8.2266
 30
0.0
 10
-15.7752
 20
-8.2266
 30
0.0
 10
-15.7752
 20
-8.2266
 30
0.0
 10
-15.7752
 20
-8.2266
 30
0.0
 10
-15.5353
 20
-8.2266
 30
0.0
 10
-15.5353
 20
-8.2266
 30
0.0
 10
-15.5353
 20
-8.2266
 30
0.0
 10
-15.5353
 20
-8.2266
 30
0.0
 10
-15.3713
 20
-8.2139
 30
0.0
 10
-15.3713
 20
-8.2139
 30
0.0
 10
-15.3713
 20
-8.2139
 30
0.0
 10
-15.3713
 20
-8.2139
 30
0.0
 10
-15.2198
 20
-8.2013
 30
0.0
 10
-15.2198
 20
-8.2013
 30
0.0
 10
-15.2198
 20
-8.2013
 30
0.0
 10
-15.2198
 20
-8.2013
 30
0.0
 10
-15.1314
 20
-8.0368
 30
0.0
 10
-15.1314
 20
-8.0368
 30
0.0
 10
-15.1314
 20
-8.0368
 30
0.0
 10
-15.1314
 20
-8.0368
 30
0.0
 10
-15.0683
 20
-7.8343
 30
0.0
 10
-15.0683
 20
-7.8343
 30
0.0
 10
-15.0683
 20
-7.8343
 30
0.0
 10
-15.0683
 20
-7.8343
 30
0.0
 10
-14.942
 20
-6.7015
 30
0.0
 10
-14.942
 20
-6.7015
 30
0.0
  0
SPLINE
  5
DD
330
1F
100
AcDbEntity
  8
DEFAULT_1
 62
   250
100
AcDbSpline
210
0.0
220
0.0
230
1.0
 70
     8
 71
     3
 72
    40
 73
    36
 74
     0
 42
0.0000000001
 43
0.0000000001
 40
0.0
 40
0.0
 40
0.0
 40
0.0
 40
0.1
 40
0.1
 40
0.1
 40
0.1
 40
0.2
 40
0.2
 40
0.2
 40
0.2
 40
0.3
 40
0.3
 40
0.3
 40
0.3
 40
0.4
 40
0.4
 40
0.4
 40
0.4
 40
0.5
 40
0.5
 40
0.5
 40
0.5
 40
0.6
 40
0.6
 40
0.6
 40
0.6
 40
0.7
 40
0.7
 40
0.7
 40
0.7
 40
0.8
 40
0.8
 40
0.8
 40
0.8
 40
1.0
 40
1.0
 40
1.0
 40
1.0
 10
-14.9193
 20
-6.7286
 30
0.0
 10
-14.9193
 20
-6.7286
 30
0.0
 10
-14.7562
 20
-8.044
 30
0.0
 10
-14.7562
 20
-8.044
 30
0.0
 10
-14.7562
 20
-8.044
 30
0.0
 10
-14.7562
 20
-8.044
 30
0.0
 10
-14.6479
 20
-8.1827
 30
0.0
 10
-14.6479
 20
-8.1827
 30
0.0
 10
-14.6479
 20
-8.1827
 30
0.0
 10
-14.6479
 20
-8.1827
 30
0.0
 10
-14.4711
 20
-8.2208
 30
0.0
 10
-14.4711
 20
-8.2208
 30
0.0
 10
-14.4711
 20
-8.2208
 30
0.0
 10
-14.4711
 20
-8.2208
 30
0.0
 10
-14.2312
 20
-8.2208
 30
0.0
 10
-14.2312
 20
-8.2208
 30
0.0
 10
-14.2312
 20
-8.2208
 30
0.0
 10
-14.2312
 20
-8.2208
 30
0.0
 10
-14.0671
 20
-8.2081
 30
0.0
 10
-14.0671
 20
-8.2081
 30
0.0
 10
-14.0671
 20
-8.2081
 30
0.0
 10
-14.0671
 20
-8.2081
 30
0.0
 10
-13.9156
 20
-8.1955
 30
0.0
 10
-13.9156
 20
-8.1955
 30
0.0
 10
-13.9156
 20
-8.1955
 30
0.0
 10
-13.9156
 20
-8.1955
 30
0.0
 10
-13.8272
 20
-8.031
 30
0.0
 10
-13.8272
 20
-8.031
 30
0.0
 10
-13.8272
 20
-8.031
 30
0.0
 10
-13.8272
 20
-8.031
 30
0.0
 10
-13.7641
 20
-7.8285
 30
0.0
 10
-13.7641
 20
-7.8285
 30
0.0
 10
-13.7641
 20
-7.8285
 30
0.0
 10
-13.7641
 20
-7.8285
 30
0.0
 10
-13.6378
 20
-6.7073
 30
0.0
 10
-13.6378
 20
-6.7073
 30
0.0
  0
SPLINE
  5
DE
330
1F
100
AcDbEntity
  8
DEFAULT_1
 62
   250
100
AcDbSpline
210
0.0
220
0.0
230
1.0
 70
     8
 71
     3
 72
    40
 73
    36
 74
     0
 42
0.0000000001
 43
0.0000000001
 40
0.0
 40
0.0
 40
0.0
 40
0.0
 40
0.1
 40
0.1
 40
0.1
 40
0.1
 40
0.2
 40
0.2
 40
0.2
 40
0.2
 40
0.3
 40
0.3
 40
0.3
 40
0.3
 40
0.4
 40
0.4
 40
0.4
 40
0.4
 40
0.5
 40
0.5
 40
0.5
 40
0.5
 40
0.6
 40
0.6
 40
0.6
 40
0.6
 40
0.7
 40
0.7
 40
0.7
 40
0.7
 40
0.8
 40
0.8
 40
0.8
 40
0.8
 40
1.0
 40
1.0
 40
1.0
 40
1.0
 10
-13.6217
 20
-6.7344
 30
0.0
 10
-13.6217
 20
-6.7344
 30
0.0
 10
-13.4586
 20
-8.0498
 30
0.0
 10
-13.4586
 20
-8.0498
 30
0.0
 10
-13.4586
 20
-8.0498
 30
0.0
 10
-13.4586
 20
-8.0498
 30
0.0
 10
-13.3503
 20
-8.1885
 30
0.0
 10
-13.3503
 20
-8.1885
 30
0.0
 10
-13.3503
 20
-8.1885
 30
0.0
 10
-13.3503
 20
-8.1885
 30
0.0
 10
-13.1735
 20
-8.2266
 30
0.0
 10
-13.1735
 20
-8.2266
 30
0.0
 10
-13.1735
 20
-8.2266
 30
0.0
 10
-13.1735
 20
-8.2266
 30
0.0
 10
-12.9336
 20
-8.2266
 30
0.0
 10
-12.9336
 20
-8.2266
 30
0.0
 10
-12.9336
 20
-8.2266
 30
0.0
 10
-12.9336
 20
-8.2266
 30
0.0
 10
-12.7695
 20
-8.2139
 30
0.0
 10
-12.7695
 20
-8.2139
 30
0.0
 10
-12.7695
 20
-8.2139
 30
0.0
 10
-12.7695
 20
-8.2139
 30
0.0
 10
-12.618
 20
-8.2013
 30
0.0
 10
-12.618
 20
-8.2013
 30
0.0
 10
-12.618
 20
-8.2013
 30
0.0
 10
-12.618
 20
-8.2013
 30
0.0
 10
-12.5296
 20
-8.0368
 30
0.0
 10
-12.5296
 20
-8.0368
 30
0.0
 10
-12.5296
 20
-8.0368
 30
0.0
 10
-12.5296
 20
-8.0368
 30
0.0
 10
-12.4665
 20
-7.8343
 30
0.0
 10
-12.4665
 20
-7.8343
 30
0.0
 10
-12.4665
 20
-7.8343
 30
0.0
 10
-12.4665
 20
-7.8343
 30
0.0
 10
-12.3402
 20
-6.7015
 30
0.0
 10
-12.3402
 20
-6.7015
 30
0.0
  0
SPLINE
  5
DF
330
1F
100
AcDbEntity
  8
DEFAULT_1
 62
   250
100
AcDbSpline
210
0.0
220
0.0
230
1.0
 70
     8
 71
     3
 72
    40
 73
    36
 74
     0
 42
0.0000000001
 43
0.0000000001
 40
0.0
 40
0.0
 40
0.0
 40
0.0
 40
0.1
 40
0.1
 40
0.1
 40
0.1
 40
0.2
 40
0.2
 40
0.2
 40
0.2
 40
0.3
 40
0.3
 40
0.3
 40
0.3
 40
0.4
 40
0.4
 40
0.4
 40
0.4
 40
0.5
 40
0.5
 40
0.5
 40
0.5
 40
0.6
 40
0.6
 40
0.6
 40
0.6
 40
0.7
 40
0.7
 40
0.7
 40
0.7
 40
0.8
 40
0.8
 40
0.8
 40
0.8
 40
1.0
 40
1.0
 40
1.0
 40
1.0
 10
-12.3332
 20
-6.7093
 30
0.0
 10
-12.3332
 20
-6.7093
 30
0.0
 10
-12.1701
 20
-8.0247
 30
0.0
 10
-12.1701
 20
-8.0247
 30
0.0
 10
-12.1701
 20
-8.0247
 30
0.0
 10
-12.1701
 20
-8.0247
 30
0.0
 10
-12.0618
 20
-8.1634
 30
0.0
 10
-12.0618
 20
-8.1634
 30
0.0
 10
-12.0618
 20
-8.1634
 30
0.0
 10
-12.0618
 20
-8.1634
 30
0.0
 10
-11.885
 20
-8.2015
 30
0.0
 10
-11.885
 20
-8.2015
 30
0.0
 10
-11.885
 20
-8.2015
 30
0.0
 10
-11.885
 20
-8.2015
 30
0.0
 10
-11.6451
 20
-8.2015
 30
0.0
 10
-11.6451
 20
-8.2015
 30
0.0
 10
-11.6451
 20
-8.2015
 30
0.0
 10
-11.6451
 20
-8.2015
 30
0.0
 10
-11.481
 20
-8.1887
 30
0.0
 10
-11.481
 20
-8.1887
 30
0.0
 10
-11.481
 20
-8.1887
 30
0.0
 10
-11.481
 20
-8.1887
 30
0.0
 10
-11.3295
 20
-8.1761
 30
0.0
 10
-11.3295
 20
-8.1761
 30
0.0
 10
-11.3295
 20
-8.1761
 30
0.0
 10
-11.3295
 20
-8.1761
 30
0.0
 10
-11.2411
 20
-8.0117
 30
0.0
 10
-11.2411
 20
-8.0117
 30
0.0
 10
-11.2411
 20
-8.0117
 30
0.0
 10
-11.2411
 20
-8.0117
 30
0.0
 10
-11.178
 20
-7.8091
 30
0.0
 10
-11.178
 20
-7.8091
 30
0.0
 10
-11.178
 20
-7.8091
 30
0.0
 10
-11.178
 20
-7.8091
 30
0.0
 10
-11.0517
 20
-6.688
 30
0.0
 10
-11.0517
 20
-6.688
 30
0.0
  0
SPLINE
  5
E0
330
1F
100
AcDbEntity
  8
DEFAULT_1
 62
   250
100
AcDbSpline
210
0.0
220
0.0
230
1.0
 70
     8
 71
     3
 72
    40
 73
    36
 74
     0
 42
0.0000000001
 43
0.0000000001
 40
0.0
 40
0.0
 40
0.0
 40
0.0
 40
0.1
 40
0.1
 40
0.1
 40
0.1
 40
0.2
 40
0.2
 40
0.2
 40
0.2
 40
0.3
 40
0.3
 40
0.3
 40
0.3
 40
0.4
 40
0.4
 40
0.4
 40
0.4
 40
0.5
 40
0.5
 40
0.5
 40
0.5
 40
0.6
 40
0.6
 40
0.6
 40
0.6
 40
0.7
 40
0.7
 40
0.7
 40
0.7
 40
0.8
 40
0.8
 40
0.8
 40
0.8
 40
1.0
 40
1.0
 40
1.0
 40
1.0
 10
-11.0356
 20
-6.7151
 30
0.0
 10
-11.0356
 20
-6.7151
 30
0.0
 10
-10.8725
 20
-8.0305
 30
0.0
 10
-10.8725
 20
-8.0305
 30
0.0
 10
-10.8725
 20
-8.0305
 30
0.0
 10
-10.8725
 20
-8.0305
 30
0.0
 10
-10.7642
 20
-8.1692
 30
0.0
 10
-10.7642
 20
-8.1692
 30
0.0
 10
-10.7642
 20
-8.1692
 30
0.0
 10
-10.7642
 20
-8.1692
 30
0.0
 10
-10.5874
 20
-8.2073
 30
0.0
 10
-10.5874
 20
-8.2073
 30
0.0
 10
-10.5874
 20
-8.2073
 30
0.0
 10
-10.5874
 20
-8.2073
 30
0.0
 10
-10.3475
 20
-8.2073
 30
0.0
 10
-10.3475
 20
-8.2073
 30
0.0
 10
-10.3475
 20
-8.2073
 30
0.0
 10
-10.3475
 20
-8.2073
 30
0.0
 10
-10.1834
 20
-8.1945
 30
0.0
 10
-10.1834
 20
-8.1945
 30
0.0
 10
-10.1834
 20
-8.1945
 30
0.0
 10
-10.1834
 20
-8.1945
 30
0.0
 10
-10.0319
 20
-8.1819
 30
0.0
 10
-10.0319
 20
-8.1819
 30
0.0
 10
-10.0319
 20
-8.1819
 30
0.0
 10
-10.0319
 20
-8.1819
 30
0.0
 10
-9.9435
 20
-8.0175
 30
0.0
 10
-9.9435
 20
-8.0175
 30
0.0
 10
-9.9435
 20
-8.0175
 30
0.0
 10
-9.9435
 20
-8.0175
 30
0.0
 10
-9.8804
 20
-7.8149
 30
0.0
 10
-9.8804
 20
-7.8149
 30
0.0
 10
-9.8804
 20
-7.8149
 30
0.0
 10
-9.8804
 20
-7.8149
 30
0.0
 10
-9.7541
 20
-6.6822
 30
0.0
 10
-9.7541
 20
-6.6822
 30
0.0
  0
SPLINE
  5
E1
330
1F
100
AcDbEntity
  8
DEFAULT_1
 62
   250
100
AcDbSpline
210
0.0
220
0.0
230
1.0
 70
     8
 71
     3
 72
    40
 73
    36
 74
     0
 42
0.0000000001
 43
0.0000000001
 40
0.0
 40
0.0
 40
0.0
 40
0.0
 40
0.1
 40
0.1
 40
0.1
 40
0.1
 40
0.2
 40
0.2
 40
0.2
 40
0.2
 40
0.3
 40
0.3
 40
0.3
 40
0.3
 40
0.4
 40
0.4
 40
0.4
 40
0.4
 40
0.5
 40
0.5
 40
0.5
 40
0.5
 40
0.6
 40
0.6
 40
0.6
 40
0.6
 40
0.7
 40
0.7
 40
0.7
 40
0.7
 40
0.8
 40
0.8
 40
0.8
 40
0.8
 40
1.0
 40
1.0
 40
1.0
 40
1.0
 10
-9.7315
 20
-6.7093
 30
0.0
 10
-9.7315
 20
-6.7093
 30
0.0
 10
-9.5684
 20
-8.0247
 30
0.0
 10
-9.5684
 20
-8.0247
 30
0.0
 10
-9.5684
 20
-8.0247
 30
0.0
 10
-9.5684
 20
-8.0247
 30
0.0
 10
-9.46
 20
-8.1634
 30
0.0
 10
-9.46
 20
-8.1634
 30
0.0
 10
-9.46
 20
-8.1634
 30
0.0
 10
-9.46
 20
-8.1634
 30
0.0
 10
-9.2832
 20
-8.2015
 30
0.0
 10
-9.2832
 20
-8.2015
 30
0.0
 10
-9.2832
 20
-8.2015
 30
0.0
 10
-9.2832
 20
-8.2015
 30
0.0
 10
-9.0433
 20
-8.2015
 30
0.0
 10
-9.0433
 20
-8.2015
 30
0.0
 10
-9.0433
 20
-8.2015
 30
0.0
 10
-9.0433
 20
-8.2015
 30
0.0
 10
-8.8792
 20
-8.1887
 30
0.0
 10
-8.8792
 20
-8.1887
 30
0.0
 10
-8.8792
 20
-8.1887
 30
0.0
 10
-8.8792
 20
-8.1887
 30
0.0
 10
-8.7278
 20
-8.1761
 30
0.0
 10
-8.7278
 20
-8.1761
 30
0.0
 10
-8.7278
 20
-8.1761
 30
0.0
 10
-8.7278
 20
-8.1761
 30
0.0
 10
-8.6393
 20
-8.0117
 30
0.0
 10
-8.6393
 20
-8.0117
 30
0.0
 10
-8.6393
 20
-8.0117
 30
0.0
 10
-8.6393
 20
-8.0117
 30
0.0
 10
-8.5763
 20
-7.8091
 30
0.0
 10
-8.5763
 20
-7.8091
 30
0.0
 10
-8.5763
 20
-7.8091
 30
0.0
 10
-8.5763
 20
-7.8091
 30
0.0
 10
-8.4499
 20
-6.688
 30
0.0
 10
-8.4499
 20
-6.688
 30
0.0
  0
SPLINE
  5
E2
330
1F
100
AcDbEntity
  8
DEFAULT_1
 62
   250
100
AcDbSpline
210
0.0
220
0.0
230
1.0
 70
     8
 71
     3
 72
    40
 73
    36
 74
     0
 42
0.0000000001
 43
0.0000000001
 40
0.0
 40
0.0
 40
0.0
 40
0.0
 40
0.1
 40
0.1
 40
0.1
 40
0.1
 40
0.2
 40
0.2
 40
0.2
 40
0.2
 40
0.3
 40
0.3
 40
0.3
 40
0.3
 40
0.4
 40
0.4
 40
0.4
 40
0.4
 40
0.5
 40
0.5
 40
0.5
 40
0.5
 40
0.6
 40
0.6
 40
0.6
 40
0.6
 40
0.7
 40
0.7
 40
0.7
 40
0.7
 40
0.8
 40
0.8
 40
0.8
 40
0.8
 40
1.0
 40
1.0
 40
1.0
 40
1.0
 10
-8.4339
 20
-6.7151
 30
0.0
 10
-8.4339
 20
-6.7151
 30
0.0
 10
-8.2708
 20
-8.0305
 30
0.0
 10
-8.2708
 20
-8.0305
 30
0.0
 10
-8.2708
 20
-8.0305
 30
0.0
 10
-8.2708
 20
-8.0305
 30
0.0
 10
-8.1624
 20
-8.1692
 30
0.0
 10
-8.1624
 20
-8.1692
 30
0.0
 10
-8.1624
 20
-8.1692
 30
0.0
 10
-8.1624
 20
-8.1692
 30
0.0
 10
-7.9856
 20
-8.2073
 30
0.0
 10
-7.9856
 20
-8.2073
 30
0.0
 10
-7.9856
 20
-8.2073
 30
0.0
 10
-7.9856
 20
-8.2073
 30
0.0
 10
-7.7457
 20
-8.2073
 30
0.0
 10
-7.7457
 20
-8.2073
 30
0.0
 10
-7.7457
 20
-8.2073
 30
0.0
 10
-7.7457
 20
-8.2073
 30
0.0
 10
-7.5817
 20
-8.1945
 30
0.0
 10
-7.5817
 20
-8.1945
 30
0.0
 10
-7.5817
 20
-8.1945
 30
0.0
 10
-7.5817
 20
-8.1945
 30
0.0
 10
-7.4302
 20
-8.1819
 30
0.0
 10
-7.4302
 20
-8.1819
 30
0.0
 10
-7.4302
 20
-8.1819
 30
0.0
 10
-7.4302
 20
-8.1819
 30
0.0
 10
-7.3418
 20
-8.0175
 30
0.0
 10
-7.3418
 20
-8.0175
 30
0.0
 10
-7.3418
 20
-8.0175
 30
0.0
 10
-7.3418
 20
-8.0175
 30
0.0
 10
-7.2787
 20
-7.8149
 30
0.0
 10
-7.2787
 20
-7.8149
 30
0.0
 10
-7.2787
 20
-7.8149
 30
0.0
 10
-7.2787
 20
-7.8149
 30
0.0
 10
-7.1523
 20
-6.6822
 30
0.0
 10
-7.1523
 20
-6.6822
 30
0.0
  0
SPLINE
  5
E3
330
1F
100
AcDbEntity
  8
DEFAULT_1
 62
   250
100
AcDbSpline
210
0.0
220
0.0
230
1.0
 70
     8
 71
     3
 72
    40
 73
    36
 74
     0
 42
0.0000000001
 43
0.0000000001
 40
0.0
 40
0.0
 40
0.0
 40
0.0
 40
0.1
 40
0.1
 40
0.1
 40
0.1
 40
0.2
 40
0.2
 40
0.2
 40
0.2
 40
0.3
 40
0.3
 40
0.3
 40
0.3
 40
0.4
 40
0.4
 40
0.4
 40
0.4
 40
0.5
 40
0.5
 40
0.5
 40
0.5
 40
0.6
 40
0.6
 40
0.6
 40
0.6
 40
0.7
 40
0.7
 40
0.7
 40
0.7
 40
0.8
 40
0.8
 40
0.8
 40
0.8
 40
1.0
 40
1.0
 40
1.0
 40
1.0
 10
-7.1539
 20
-6.7286
 30
0.0
 10
-7.1539
 20
-6.7286
 30
0.0
 10
-6.9908
 20
-8.044
 30
0.0
 10
-6.9908
 20
-8.044
 30
0.0
 10
-6.9908
 20
-8.044
 30
0.0
 10
-6.9908
 20
-8.044
 30
0.0
 10
-6.8825
 20
-8.1827
 30
0.0
 10
-6.8825
 20
-8.1827
 30
0.0
 10
-6.8825
 20
-8.1827
 30
0.0
 10
-6.8825
 20
-8.1827
 30
0.0
 10
-6.7056
 20
-8.2208
 30
0.0
 10
-6.7056
 20
-8.2208
 30
0.0
 10
-6.7056
 20
-8.2208
 30
0.0
 10
-6.7056
 20
-8.2208
 30
0.0
 10
-6.4657
 20
-8.2208
 30
0.0
 10
-6.4657
 20
-8.2208
 30
0.0
 10
-6.4657
 20
-8.2208
 30
0.0
 10
-6.4657
 20
-8.2208
 30
0.0
 10
-6.3017
 20
-8.2081
 30
0.0
 10
-6.3017
 20
-8.2081
 30
0.0
 10
-6.3017
 20
-8.2081
 30
0.0
 10
-6.3017
 20
-8.2081
 30
0.0
 10
-6.1502
 20
-8.1955
 30
0.0
 10
-6.1502
 20
-8.1955
 30
0.0
 10
-6.1502
 20
-8.1955
 30
0.0
 10
-6.1502
 20
-8.1955
 30
0.0
 10
-6.0618
 20
-8.031
 30
0.0
 10
-6.0618
 20
-8.031
 30
0.0
 10
-6.0618
 20
-8.031
 30
0.0
 10
-6.0618
 20
-8.031
 30
0.0
 10
-5.9987
 20
-7.8285
 30
0.0
 10
-5.9987
 20
-7.8285
 30
0.0
 10
-5.9987
 20
-7.8285
 30
0.0
 10
-5.9987
 20
-7.8285
 30
0.0
 10
-5.8724
 20
-6.7073
 30
0.0
 10
-5.8724
 20
-6.7073
 30
0.0
  0
SPLINE
  5
E4
330
1F
100
AcDbEntity
  8
DEFAULT_1
 62
   250
100
AcDbSpline
210
0.0
220
0.0
230
1.0
 70
     8
 71
     3
 72
    40
 73
    36
 74
     0
 42
0.0000000001
 43
0.0000000001
 40
0.0
 40
0.0
 40
0.0
 40
0.0
 40
0.1
 40
0.1
 40
0.1
 40
0.1
 40
0.2
 40
0.2
 40
0.2
 40
0.2
 40
0.3
 40
0.3
 40
0.3
 40
0.3
 40
0.4
 40
0.4
 40
0.4
 40
0.4
 40
0.5
 40
0.5
 40
0.5
 40
0.5
 40
0.6
 40
0.6
 40
0.6
 40
0.6
 40
0.7
 40
0.7
 40
0.7
 40
0.7
 40
0.8
 40
0.8
 40
0.8
 40
0.8
 40
1.0
 40
1.0
 40
1.0
 40
1.0
 10
-5.8563
 20
-6.7344
 30
0.0
 10
-5.8563
 20
-6.7344
 30
0.0
 10
-5.6932
 20
-8.0498
 30
0.0
 10
-5.6932
 20
-8.0498
 30
0.0
 10
-5.6932
 20
-8.0498
 30
0.0
 10
-5.6932
 20
-8.0498
 30
0.0
 10
-5.5849
 20
-8.1885
 30
0.0
 10
-5.5849
 20
-8.1885
 30
0.0
 10
-5.5849
 20
-8.1885
 30
0.0
 10
-5.5849
 20
-8.1885
 30
0.0
 10
-5.408
 20
-8.2266
 30
0.0
 10
-5.408
 20
-8.2266
 30
0.0
 10
-5.408
 20
-8.2266
 30
0.0
 10
-5.408
 20
-8.2266
 30
0.0
 10
-5.1681
 20
-8.2266
 30
0.0
 10
-5.1681
 20
-8.2266
 30
0.0
 10
-5.1681
 20
-8.2266
 30
0.0
 10
-5.1681
 20
-8.2266
 30
0.0
 10
-5.0041
 20
-8.2139
 30
0.0
 10
-5.0041
 20
-8.2139
 30
0.0
 10
-5.0041
 20
-8.2139
 30
0.0
 10
-5.0041
 20
-8.2139
 30
0.0
 10
-4.8526
 20
-8.2013
 30
0.0
 10
-4.8526
 20
-8.2013
 30
0.0
 10
-4.8526
 20
-8.2013
 30
0.0
 10
-4.8526
 20
-8.2013
 30
0.0
 10
-4.7642
 20
-8.0368
 30
0.0
 10
-4.7642
 20
-8.0368
 30
0.0
 10
-4.7642
 20
-8.0368
 30
0.0
 10
-4.7642
 20
-8.0368
 30
0.0
 10
-4.7011
 20
-7.8343
 30
0.0
 10
-4.7011
 20
-7.8343
 30
0.0
 10
-4.7011
 20
-7.8343
 30
0.0
 10
-4.7011
 20
-7.8343
 30
0.0
 10
-4.5748
 20
-6.7015
 30
0.0
 10
-4.5748
 20
-6.7015
 30
0.0
  0
SPLINE
  5
E5
330
1F
100
AcDbEntity
  8
DEFAULT_1
 62
   250
100
AcDbSpline
210
0.0
220
0.0
230
1.0
 70
     8
 71
     3
 72
    40
 73
    36
 74
     0
 42
0.0000000001
 43
0.0000000001
 40
0.0
 40
0.0
 40
0.0
 40
0.0
 40
0.1
 40
0.1
 40
0.1
 40
0.1
 40
0.2
 40
0.2
 40
0.2
 40
0.2
 40
0.3
 40
0.3
 40
0.3
 40
0.3
 40
0.4
 40
0.4
 40
0.4
 40
0.4
 40
0.5
 40
0.5
 40
0.5
 40
0.5
 40
0.6
 40
0.6
 40
0.6
 40
0.6
 40
0.7
 40
0.7
 40
0.7
 40
0.7
 40
0.8
 40
0.8
 40
0.8
 40
0.8
 40
1.0
 40
1.0
 40
1.0
 40
1.0
 10
-4.5678
 20
-6.7093
 30
0.0
 10
-4.5678
 20
-6.7093
 30
0.0
 10
-4.4047
 20
-8.0247
 30
0.0
 10
-4.4047
 20
-8.0247
 30
0.0
 10
-4.4047
 20
-8.0247
 30
0.0
 10
-4.4047
 20
-8.0247
 30
0.0
 10
-4.2964
 20
-8.1634
 30
0.0
 10
-4.2964
 20
-8.1634
 30
0.0
 10
-4.2964
 20
-8.1634
 30
0.0
 10
-4.2964
 20
-8.1634
 30
0.0
 10
-4.1195
 20
-8.2015
 30
0.0
 10
-4.1195
 20
-8.2015
 30
0.0
 10
-4.1195
 20
-8.2015
 30
0.0
 10
-4.1195
 20
-8.2015
 30
0.0
 10
-3.8796
 20
-8.2015
 30
0.0
 10
-3.8796
 20
-8.2015
 30
0.0
 10
-3.8796
 20
-8.2015
 30
0.0
 10
-3.8796
 20
-8.2015
 30
0.0
 10
-3.7156
 20
-8.1887
 30
0.0
 10
-3.7156
 20
-8.1887
 30
0.0
 10
-3.7156
 20
-8.1887
 30
0.0
 10
-3.7156
 20
-8.1887
 30
0.0
 10
-3.5641
 20
-8.1761
 30
0.0
 10
-3.5641
 20
-8.1761
 30
0.0
 10
-3.5641
 20
-8.1761
 30
0.0
 10
-3.5641
 20
-8.1761
 30
0.0
 10
-3.4757
 20
-8.0117
 30
0.0
 10
-3.4757
 20
-8.0117
 30
0.0
 10
-3.4757
 20
-8.0117
 30
0.0
 10
-3.4757
 20
-8.0117
 30
0.0
 10
-3.4126
 20
-7.8091
 30
0.0
 10
-3.4126
 20
-7.8091
 30
0.0
 10
-3.4126
 20
-7.8091
 30
0.0
 10
-3.4126
 20
-7.8091
 30
0.0
 10
-3.2863
 20
-6.688
 30
0.0
 10
-3.2863
 20
-6.688
 30
0.0
  0
SPLINE
  5
E6
330
1F
100
AcDbEntity
  8
DEFAULT_1
 62
   250
100
AcDbSpline
210
0.0
220
0.0
230
1.0
 70
     8
 71
     3
 72
    40
 73
    36
 74
     0
 42
0.0000000001
 43
0.0000000001
 40
0.0
 40
0.0
 40
0.0
 40
0.0
 40
0.1
 40
0.1
 40
0.1
 40
0.1
 40
0.2
 40
0.2
 40
0.2
 40
0.2
 40
0.3
 40
0.3
 40
0.3
 40
0.3
 40
0.4
 40
0.4
 40
0.4
 40
0.4
 40
0.5
 40
0.5
 40
0.5
 40
0.5
 40
0.6
 40
0.6
 40
0.6
 40
0.6
 40
0.7
 40
0.7
 40
0.7
 40
0.7
 40
0.8
 40
0.8
 40
0.8
 40
0.8
 40
1.0
 40
1.0
 40
1.0
 40
1.0
 10
-3.2702
 20
-6.7151
 30
0.0
 10
-3.2702
 20
-6.7151
 30
0.0
 10
-3.1071
 20
-8.0305
 30
0.0
 10
-3.1071
 20
-8.0305
 30
0.0
 10
-3.1071
 20
-8.0305
 30
0.0
 10
-3.1071
 20
-8.0305
 30
0.0
 10
-2.9988
 20
-8.1692
 30
0.0
 10
-2.9988
 20
-8.1692
 30
0.0
 10
-2.9988
 20
-8.1692
 30
0.0
 10
-2.9988
 20
-8.1692
 30
0.0
 10
-2.8219
 20
-8.2073
 30
0.0
 10
-2.8219
 20
-8.2073
 30
0.0
 10
-2.8219
 20
-8.2073
 30
0.0
 10
-2.8219
 20
-8.2073
 30
0.0
 10
-2.582
 20
-8.2073
 30
0.0
 10
-2.582
 20
-8.2073
 30
0.0
 10
-2.582
 20
-8.2073
 30
0.0
 10
-2.582
 20
-8.2073
 30
0.0
 10
-2.418
 20
-8.1945
 30
0.0
 10
-2.418
 20
-8.1945
 30
0.0
 10
-2.418
 20
-8.1945
 30
0.0
 10
-2.418
 20
-8.1945
 30
0.0
 10
-2.2665
 20
-8.1819
 30
0.0
 10
-2.2665
 20
-8.1819
 30
0.0
 10
-2.2665
 20
-8.1819
 30
0.0
 10
-2.2665
 20
-8.1819
 30
0.0
 10
-2.1781
 20
-8.0175
 30
0.0
 10
-2.1781
 20
-8.0175
 30
0.0
 10
-2.1781
 20
-8.0175
 30
0.0
 10
-2.1781
 20
-8.0175
 30
0.0
 10
-2.115
 20
-7.8149
 30
0.0
 10
-2.115
 20
-7.8149
 30
0.0
 10
-2.115
 20
-7.8149
 30
0.0
 10
-2.115
 20
-7.8149
 30
0.0
 10
-1.9887
 20
-6.6822
 30
0.0
 10
-1.9887
 20
-6.6822
 30
0.0
  0
SPLINE
  5
E7
330
1F
100
AcDbEntity
  8
DEFAULT_1
 62
   250
100
AcDbSpline
210
0.0
220
0.0
230
1.0
 70
     8
 71
     3
 72
    40
 73
    36
 74
     0
 42
0.0000000001
 43
0.0000000001
 40
0.0
 40
0.0
 40
0.0
 40
0.0
 40
0.1
 40
0.1
 40
0.1
 40
0.1
 40
0.2
 40
0.2
 40
0.2
 40
0.2
 40
0.3
 40
0.3
 40
0.3
 40
0.3
 40
0.4
 40
0.4
 40
0.4
 40
0.4
 40
0.5
 40
0.5
 40
0.5
 40
0.5
 40
0.6
 40
0.6
 40
0.6
 40
0.6
 40
0.7
 40
0.7
 40
0.7
 40
0.7
 40
0.8
 40
0.8
 40
0.8
 40
0.8
 40
1.0
 40
1.0
 40
1.0
 40
1.0
 10
-1.966
 20
-6.7093
 30
0.0
 10
-1.966
 20
-6.7093
 30
0.0
 10
-1.803
 20
-8.0247
 30
0.0
 10
-1.803
 20
-8.0247
 30
0.0
 10
-1.803
 20
-8.0247
 30
0.0
 10
-1.803
 20
-8.0247
 30
0.0
 10
-1.6946
 20
-8.1634
 30
0.0
 10
-1.6946
 20
-8.1634
 30
0.0
 10
-1.6946
 20
-8.1634
 30
0.0
 10
-1.6946
 20
-8.1634
 30
0.0
 10
-1.5178
 20
-8.2015
 30
0.0
 10
-1.5178
 20
-8.2015
 30
0.0
 10
-1.5178
 20
-8.2015
 30
0.0
 10
-1.5178
 20
-8.2015
 30
0.0
 10
-1.2779
 20
-8.2015
 30
0.0
 10
-1.2779
 20
-8.2015
 30
0.0
 10
-1.2779
 20
-8.2015
 30
0.0
 10
-1.2779
 20
-8.2015
 30
0.0
 10
-1.1138
 20
-8.1887
 30
0.0
 10
-1.1138
 20
-8.1887
 30
0.0
 10
-1.1138
 20
-8.1887
 30
0.0
 10
-1.1138
 20
-8.1887
 30
0.0
 10
-0.9623
 20
-8.1761
 30
0.0
 10
-0.9623
 20
-8.1761
 30
0.0
 10
-0.9623
 20
-8.1761
 30
0.0
 10
-0.9623
 20
-8.1761
 30
0.0
 10
-0.8739
 20
-8.0117
 30
0.0
 10
-0.8739
 20
-8.0117
 30
0.0
 10
-0.8739
 20
-8.0117
 30
0.0
 10
-0.8739
 20
-8.0117
 30
0.0
 10
-0.8108
 20
-7.8091
 30
0.0
 10
-0.8108
 20
-7.8091
 30
0.0
 10
-0.8108
 20
-7.8091
 30
0.0
 10
-0.8108
 20
-7.8091
 30
0.0
 10
-0.6845
 20
-6.688
 30
0.0
 10
-0.6845
 20
-6.688
 30
0.0
  0
SPLINE
  5
E8
330
1F
100
AcDbEntity
  8
DEFAULT_1
 62
   250
100
AcDbSpline
210
0.0
220
0.0
230
1.0
 70
     8
 71
     3
 72
    40
 73
    36
 74
     0
 42
0.0000000001
 43
0.0000000001
 40
0.0
 40
0.0
 40
0.0
 40
0.0
 40
0.1
 40
0.1
 40
0.1
 40
0.1
 40
0.2
 40
0.2
 40
0.2
 40
0.2
 40
0.3
 40
0.3
 40
0.3
 40
0.3
 40
0.4
 40
0.4
 40
0.4
 40
0.4
 40
0.5
 40
0.5
 40
0.5
 40
0.5
 40
0.6
 40
0.6
 40
0.6
 40
0.6
 40
0.7
 40
0.7
 40
0.7
 40
0.7
 40
0.8
 40
0.8
 40
0.8
 40
0.8
 40
1.0
 40
1.0
 40
1.0
 40
1.0
 10
-0.6685
 20
-6.7151
 30
0.0
 10
-0.6685
 20
-6.7151
 30
0.0
 10
-0.5054
 20
-8.0305
 30
0.0
 10
-0.5054
 20
-8.0305
 30
0.0
 10
-0.5054
 20
-8.0305
 30
0.0
 10
-0.5054
 20
-8.0305
 30
0.0
 10
-0.397
 20
-8.1692
 30
0.0
 10
-0.397
 20
-8.1692
 30
0.0
 10
-0.397
 20
-8.1692
 30
0.0
 10
-0.397
 20
-8.1692
 30
0.0
 10
-0.2202
 20
-8.2073
 30
0.0
 10
-0.2202
 20
-8.2073
 30
0.0
 10
-0.2202
 20
-8.2073
 30
0.0
 10
-0.2202
 20
-8.2073
 30
0.0
 10
0.0197
 20
-8.2073
 30
0.0
 10
0.0197
 20
-8.2073
 30
0.0
 10
0.0197
 20
-8.2073
 30
0.0
 10
0.0197
 20
-8.2073
 30
0.0
 10
0.1838
 20
-8.1945
 30
0.0
 10
0.1838
 20
-8.1945
 30
0.0
 10
0.1838
 20
-8.1945
 30
0.0
 10
0.1838
 20
-8.1945
 30
0.0
 10
0.3353
 20
-8.1819
 30
0.0
 10
0.3353
 20
-8.1819
 30
0.0
 10
0.3353
 20
-8.1819
 30
0.0
 10
0.3353
 20
-8.1819
 30
0.0
 10
0.4237
 20
-8.0175
 30
0.0
 10
0.4237
 20
-8.0175
 30
0.0
 10
0.4237
 20
-8.0175
 30
0.0
 10
0.4237
 20
-8.0175
 30
0.0
 10
0.4867
 20
-7.8149
 30
0.0
 10
0.4867
 20
-7.8149
 30
0.0
 10
0.4867
 20
-7.8149
 30
0.0
 10
0.4867
 20
-7.8149
 30
0.0
 10
0.6131
 20
-6.6822
 30
0.0
 10
0.6131
 20
-6.6822
 30
0.0
  0
SPLINE
  5
E9
330
1F
100
AcDbEntity
  8
DEFAULT_1
 62
   250
100
AcDbSpline
210
0.0
220
0.0
230
1.0
 70
     8
 71
     3
 72
    40
 73
    36
 74
     0
 42
0.0000000001
 43
0.0000000001
 40
0.0
 40
0.0
 40
0.0
 40
0.0
 40
0.1
 40
0.1
 40
0.1
 40
0.1
 40
0.2
 40
0.2
 40
0.2
 40
0.2
 40
0.3
 40
0.3
 40
0.3
 40
0.3
 40
0.4
 40
0.4
 40
0.4
 40
0.4
 40
0.5
 40
0.5
 40
0.5
 40
0.5
 40
0.6
 40
0.6
 40
0.6
 40
0.6
 40
0.7
 40
0.7
 40
0.7
 40
0.7
 40
0.8
 40
0.8
 40
0.8
 40
0.8
 40
1.0
 40
1.0
 40
1.0
 40
1.0
 10
2.25
 20
3.6612
 30
0.0
 10
2.25
 20
3.6612
 30
0.0
 10
2.4131
 20
4.9766
 30
0.0
 10
2.4131
 20
4.9766
 30
0.0
 10
2.4131
 20
4.9766
 30
0.0
 10
2.4131
 20
4.9766
 30
0.0
 10
2.5214
 20
5.1153
 30
0.0
 10
2.5214
 20
5.1153
 30
0.0
 10
2.5214
 20
5.1153
 30
0.0
 10
2.5214
 20
5.1153
 30
0.0
 10
2.6983
 20
5.1534
 30
0.0
 10
2.6983
 20
5.1534
 30
0.0
 10
2.6983
 20
5.1534
 30
0.0
 10
2.6983
 20
5.1534
 30
0.0
 10
2.9382
 20
5.1534
 30
0.0
 10
2.9382
 20
5.1534
 30
0.0
 10
2.9382
 20
5.1534
 30
0.0
 10
2.9382
 20
5.1534
 30
0.0
 10
3.1022
 20
5.1407
 30
0.0
 10
3.1022
 20
5.1407
 30
0.0
 10
3.1022
 20
5.1407
 30
0.0
 10
3.1022
 20
5.1407
 30
0.0
 10
3.2537
 20
5.1281
 30
0.0
 10
3.2537
 20
5.1281
 30
0.0
 10
3.2537
 20
5.1281
 30
0.0
 10
3.2537
 20
5.1281
 30
0.0
 10
3.3421
 20
4.9636
 30
0.0
 10
3.3421
 20
4.9636
 30
0.0
 10
3.3421
 20
4.9636
 30
0.0
 10
3.3421
 20
4.9636
 30
0.0
 10
3.4052
 20
4.7611
 30
0.0
 10
3.4052
 20
4.7611
 30
0.0
 10
3.4052
 20
4.7611
 30
0.0
 10
3.4052
 20
4.7611
 30
0.0
 10
3.5315
 20
3.6399
 30
0.0
 10
3.5315
 20
3.6399
 30
0.0
  0
SPLINE
  5
EA
330
1F
100
AcDbEntity
  8
DEFAULT_1
 62
   250
100
AcDbSpline
210
0.0
220
0.0
230
1.0
 70
     8
 71
     3
 72
    40
 73
    36
 74
     0
 42
0.0000000001
 43
0.0000000001
 40
0.0
 40
0.0
 40
0.0
 40
0.0
 40
0.1
 40
0.1
 40
0.1
 40
0.1
 40
0.2
 40
0.2
 40
0.2
 40
0.2
 40
0.3
 40
0.3
 40
0.3
 40
0.3
 40
0.4
 40
0.4
 40
0.4
 40
0.4
 40
0.5
 40
0.5
 40
0.5
 40
0.5
 40
0.6
 40
0.6
 40
0.6
 40
0.6
 40
0.7
 40
0.7
 40
0.7
 40
0.7
 40
0.8
 40
0.8
 40
0.8
 40
0.8
 40
1.0
 40
1.0
 40
1.0
 40
1.0
 10
3.5476
 20
3.667
 30
0.0
 10
3.5476
 20
3.667
 30
0.0
 10
3.7107
 20
4.9824
 30
0.0
 10
3.7107
 20
4.9824
 30
0.0
 10
3.7107
 20
4.9824
 30
0.0
 10
3.7107
 20
4.9824
 30
0.0
 10
3.819
 20
5.1211
 30
0.0
 10
3.819
 20
5.1211
 30
0.0
 10
3.819
 20
5.1211
 30
0.0
 10
3.819
 20
5.1211
 30
0.0
 10
3.9959
 20
5.1592
 30
0.0
 10
3.9959
 20
5.1592
 30
0.0
 10
3.9959
 20
5.1592
 30
0.0
 10
3.9959
 20
5.1592
 30
0.0
 10
4.2358
 20
5.1592
 30
0.0
 10
4.2358
 20
5.1592
 30
0.0
 10
4.2358
 20
5.1592
 30
0.0
 10
4.2358
 20
5.1592
 30
0.0
 10
4.3998
 20
5.1465
 30
0.0
 10
4.3998
 20
5.1465
 30
0.0
 10
4.3998
 20
5.1465
 30
0.0
 10
4.3998
 20
5.1465
 30
0.0
 10
4.5513
 20
5.1339
 30
0.0
 10
4.5513
 20
5.1339
 30
0.0
 10
4.5513
 20
5.1339
 30
0.0
 10
4.5513
 20
5.1339
 30
0.0
 10
4.6397
 20
4.9694
 30
0.0
 10
4.6397
 20
4.9694
 30
0.0
 10
4.6397
 20
4.9694
 30
0.0
 10
4.6397
 20
4.9694
 30
0.0
 10
4.7028
 20
4.7669
 30
0.0
 10
4.7028
 20
4.7669
 30
0.0
 10
4.7028
 20
4.7669
 30
0.0
 10
4.7028
 20
4.7669
 30
0.0
 10
4.8291
 20
3.6341
 30
0.0
 10
4.8291
 20
3.6341
 30
0.0
  0
SPLINE
  5
EB
330
1F
100
AcDbEntity
  8
DEFAULT_1
 62
   250
100
AcDbSpline
210
0.0
220
0.0
230
1.0
 70
     8
 71
     3
 72
    40
 73
    36
 74
     0
 42
0.0000000001
 43
0.0000000001
 40
0.0
 40
0.0
 40
0.0
 40
0.0
 40
0.1
 40
0.1
 40
0.1
 40
0.1
 40
0.2
 40
0.2
 40
0.2
 40
0.2
 40
0.3
 40
0.3
 40
0.3
 40
0.3
 40
0.4
 40
0.4
 40
0.4
 40
0.4
 40
0.5
 40
0.5
 40
0.5
 40
0.5
 40
0.6
 40
0.6
 40
0.6
 40
0.6
 40
0.7
 40
0.7
 40
0.7
 40
0.7
 40
0.8
 40
0.8
 40
0.8
 40
0.8
 40
1.0
 40
1.0
 40
1.0
 40
1.0
 10
4.8518
 20
3.6612
 30
0.0
 10
4.8518
 20
3.6612
 30
0.0
 10
5.0149
 20
4.9766
 30
0.0
 10
5.0149
 20
4.9766
 30
0.0
 10
5.0149
 20
4.9766
 30
0.0
 10
5.0149
 20
4.9766
 30
0.0
 10
5.1232
 20
5.1153
 30
0.0
 10
5.1232
 20
5.1153
 30
0.0
 10
5.1232
 20
5.1153
 30
0.0
 10
5.1232
 20
5.1153
 30
0.0
 10
5.3
 20
5.1534
 30
0.0
 10
5.3
 20
5.1534
 30
0.0
 10
5.3
 20
5.1534
 30
0.0
 10
5.3
 20
5.1534
 30
0.0
 10
5.5399
 20
5.1534
 30
0.0
 10
5.5399
 20
5.1534
 30
0.0
 10
5.5399
 20
5.1534
 30
0.0
 10
5.5399
 20
5.1534
 30
0.0
 10
5.704
 20
5.1407
 30
0.0
 10
5.704
 20
5.1407
 30
0.0
 10
5.704
 20
5.1407
 30
0.0
 10
5.704
 20
5.1407
 30
0.0
 10
5.8555
 20
5.1281
 30
0.0
 10
5.8555
 20
5.1281
 30
0.0
 10
5.8555
 20
5.1281
 30
0.0
 10
5.8555
 20
5.1281
 30
0.0
 10
5.9439
 20
4.9636
 30
0.0
 10
5.9439
 20
4.9636
 30
0.0
 10
5.9439
 20
4.9636
 30
0.0
 10
5.9439
 20
4.9636
 30
0.0
 10
6.007
 20
4.7611
 30
0.0
 10
6.007
 20
4.7611
 30
0.0
 10
6.007
 20
4.7611
 30
0.0
 10
6.007
 20
4.7611
 30
0.0
 10
6.1333
 20
3.6399
 30
0.0
 10
6.1333
 20
3.6399
 30
0.0
  0
SPLINE
  5
EC
330
1F
100
AcDbEntity
  8
DEFAULT_1
 62
   250
100
AcDbSpline
210
0.0
220
0.0
230
1.0
 70
     8
 71
     3
 72
    40
 73
    36
 74
     0
 42
0.0000000001
 43
0.0000000001
 40
0.0
 40
0.0
 40
0.0
 40
0.0
 40
0.1
 40
0.1
 40
0.1
 40
0.1
 40
0.2
 40
0.2
 40
0.2
 40
0.2
 40
0.3
 40
0.3
 40
0.3
 40
0.3
 40
0.4
 40
0.4
 40
0.4
 40
0.4
 40
0.5
 40
0.5
 40
0.5
 40
0.5
 40
0.6
 40
0.6
 40
0.6
 40
0.6
 40
0.7
 40
0.7
 40
0.7
 40
0.7
 40
0.8
 40
0.8
 40
0.8
 40
0.8
 40
1.0
 40
1.0
 40
1.0
 40
1.0
 10
6.1494
 20
3.667
 30
0.0
 10
6.1494
 20
3.667
 30
0.0
 10
6.3125
 20
4.9824
 30
0.0
 10
6.3125
 20
4.9824
 30
0.0
 10
6.3125
 20
4.9824
 30
0.0
 10
6.3125
 20
4.9824
 30
0.0
 10
6.4208
 20
5.1211
 30
0.0
 10
6.4208
 20
5.1211
 30
0.0
 10
6.4208
 20
5.1211
 30
0.0
 10
6.4208
 20
5.1211
 30
0.0
 10
6.5976
 20
5.1592
 30
0.0
 10
6.5976
 20
5.1592
 30
0.0
 10
6.5976
 20
5.1592
 30
0.0
 10
6.5976
 20
5.1592
 30
0.0
 10
6.8375
 20
5.1592
 30
0.0
 10
6.8375
 20
5.1592
 30
0.0
 10
6.8375
 20
5.1592
 30
0.0
 10
6.8375
 20
5.1592
 30
0.0
 10
7.0016
 20
5.1465
 30
0.0
 10
7.0016
 20
5.1465
 30
0.0
 10
7.0016
 20
5.1465
 30
0.0
 10
7.0016
 20
5.1465
 30
0.0
 10
7.1531
 20
5.1339
 30
0.0
 10
7.1531
 20
5.1339
 30
0.0
 10
7.1531
 20
5.1339
 30
0.0
 10
7.1531
 20
5.1339
 30
0.0
 10
7.2415
 20
4.9694
 30
0.0
 10
7.2415
 20
4.9694
 30
0.0
 10
7.2415
 20
4.9694
 30
0.0
 10
7.2415
 20
4.9694
 30
0.0
 10
7.3046
 20
4.7669
 30
0.0
 10
7.3046
 20
4.7669
 30
0.0
 10
7.3046
 20
4.7669
 30
0.0
 10
7.3046
 20
4.7669
 30
0.0
 10
7.4309
 20
3.6341
 30
0.0
 10
7.4309
 20
3.6341
 30
0.0
  0
SPLINE
  5
ED
330
1F
100
AcDbEntity
  8
DEFAULT_1
 62
   250
100
AcDbSpline
210
0.0
220
0.0
230
1.0
 70
     8
 71
     3
 72
    40
 73
    36
 74
     0
 42
0.0000000001
 43
0.0000000001
 40
0.0
 40
0.0
 40
0.0
 40
0.0
 40
0.1
 40
0.1
 40
0.1
 40
0.1
 40
0.2
 40
0.2
 40
0.2
 40
0.2
 40
0.3
 40
0.3
 40
0.3
 40
0.3
 40
0.4
 40
0.4
 40
0.4
 40
0.4
 40
0.5
 40
0.5
 40
0.5
 40
0.5
 40
0.6
 40
0.6
 40
0.6
 40
0.6
 40
0.7
 40
0.7
 40
0.7
 40
0.7
 40
0.8
 40
0.8
 40
0.8
 40
0.8
 40
1.0
 40
1.0
 40
1.0
 40
1.0
 10
7.4379
 20
3.6419
 30
0.0
 10
7.4379
 20
3.6419
 30
0.0
 10
7.601
 20
4.9573
 30
0.0
 10
7.601
 20
4.9573
 30
0.0
 10
7.601
 20
4.9573
 30
0.0
 10
7.601
 20
4.9573
 30
0.0
 10
7.7093
 20
5.096
 30
0.0
 10
7.7093
 20
5.096
 30
0.0
 10
7.7093
 20
5.096
 30
0.0
 10
7.7093
 20
5.096
 30
0.0
 10
7.8861
 20
5.1341
 30
0.0
 10
7.8861
 20
5.1341
 30
0.0
 10
7.8861
 20
5.1341
 30
0.0
 10
7.8861
 20
5.1341
 30
0.0
 10
8.126
 20
5.1341
 30
0.0
 10
8.126
 20
5.1341
 30
0.0
 10
8.126
 20
5.1341
 30
0.0
 10
8.126
 20
5.1341
 30
0.0
 10
8.2901
 20
5.1213
 30
0.0
 10
8.2901
 20
5.1213
 30
0.0
 10
8.2901
 20
5.1213
 30
0.0
 10
8.2901
 20
5.1213
 30
0.0
 10
8.4416
 20
5.1087
 30
0.0
 10
8.4416
 20
5.1087
 30
0.0
 10
8.4416
 20
5.1087
 30
0.0
 10
8.4416
 20
5.1087
 30
0.0
 10
8.53
 20
4.9443
 30
0.0
 10
8.53
 20
4.9443
 30
0.0
 10
8.53
 20
4.9443
 30
0.0
 10
8.53
 20
4.9443
 30
0.0
 10
8.5931
 20
4.7417
 30
0.0
 10
8.5931
 20
4.7417
 30
0.0
 10
8.5931
 20
4.7417
 30
0.0
 10
8.5931
 20
4.7417
 30
0.0
 10
8.7194
 20
3.6206
 30
0.0
 10
8.7194
 20
3.6206
 30
0.0
  0
SPLINE
  5
EE
330
1F
100
AcDbEntity
  8
DEFAULT_1
 62
   250
100
AcDbSpline
210
0.0
220
0.0
230
1.0
 70
     8
 71
     3
 72
    40
 73
    36
 74
     0
 42
0.0000000001
 43
0.0000000001
 40
0.0
 40
0.0
 40
0.0
 40
0.0
 40
0.1
 40
0.1
 40
0.1
 40
0.1
 40
0.2
 40
0.2
 40
0.2
 40
0.2
 40
0.3
 40
0.3
 40
0.3
 40
0.3
 40
0.4
 40
0.4
 40
0.4
 40
0.4
 40
0.5
 40
0.5
 40
0.5
 40
0.5
 40
0.6
 40
0.6
 40
0.6
 40
0.6
 40
0.7
 40
0.7
 40
0.7
 40
0.7
 40
0.8
 40
0.8
 40
0.8
 40
0.8
 40
1.0
 40
1.0
 40
1.0
 40
1.0
 10
8.7355
 20
3.6477
 30
0.0
 10
8.7355
 20
3.6477
 30
0.0
 10
8.8985
 20
4.9631
 30
0.0
 10
8.8985
 20
4.9631
 30
0.0
 10
8.8985
 20
4.9631
 30
0.0
 10
8.8985
 20
4.9631
 30
0.0
 10
9.0069
 20
5.1018
 30
0.0
 10
9.0069
 20
5.1018
 30
0.0
 10
9.0069
 20
5.1018
 30
0.0
 10
9.0069
 20
5.1018
 30
0.0
 10
9.1837
 20
5.1399
 30
0.0
 10
9.1837
 20
5.1399
 30
0.0
 10
9.1837
 20
5.1399
 30
0.0
 10
9.1837
 20
5.1399
 30
0.0
 10
9.4236
 20
5.1399
 30
0.0
 10
9.4236
 20
5.1399
 30
0.0
 10
9.4236
 20
5.1399
 30
0.0
 10
9.4236
 20
5.1399
 30
0.0
 10
9.5877
 20
5.1271
 30
0.0
 10
9.5877
 20
5.1271
 30
0.0
 10
9.5877
 20
5.1271
 30
0.0
 10
9.5877
 20
5.1271
 30
0.0
 10
9.7392
 20
5.1145
 30
0.0
 10
9.7392
 20
5.1145
 30
0.0
 10
9.7392
 20
5.1145
 30
0.0
 10
9.7392
 20
5.1145
 30
0.0
 10
9.8276
 20
4.9501
 30
0.0
 10
9.8276
 20
4.9501
 30
0.0
 10
9.8276
 20
4.9501
 30
0.0
 10
9.8276
 20
4.9501
 30
0.0
 10
9.8907
 20
4.7475
 30
0.0
 10
9.8907
 20
4.7475
 30
0.0
 10
9.8907
 20
4.7475
 30
0.0
 10
9.8907
 20
4.7475
 30
0.0
 10
10.017
 20
3.6148
 30
0.0
 10
10.017
 20
3.6148
 30
0.0
  0
SPLINE
  5
EF
330
1F
100
AcDbEntity
  8
DEFAULT_1
 62
   250
100
AcDbSpline
210
0.0
220
0.0
230
1.0
 70
     8
 71
     3
 72
    40
 73
    36
 74
     0
 42
0.0000000001
 43
0.0000000001
 40
0.0
 40
0.0
 40
0.0
 40
0.0
 40
0.1
 40
0.1
 40
0.1
 40
0.1
 40
0.2
 40
0.2
 40
0.2
 40
0.2
 40
0.3
 40
0.3
 40
0.3
 40
0.3
 40
0.4
 40
0.4
 40
0.4
 40
0.4
 40
0.5
 40
0.5
 40
0.5
 40
0.5
 40
0.6
 40
0.6
 40
0.6
 40
0.6
 40
0.7
 40
0.7
 40
0.7
 40
0.7
 40
0.8
 40
0.8
 40
0.8
 40
0.8
 40
1.0
 40
1.0
 40
1.0
 40
1.0
 10
10.0396
 20
3.6419
 30
0.0
 10
10.0396
 20
3.6419
 30
0.0
 10
10.2027
 20
4.9573
 30
0.0
 10
10.2027
 20
4.9573
 30
0.0
 10
10.2027
 20
4.9573
 30
0.0
 10
10.2027
 20
4.9573
 30
0.0
 10
10.3111
 20
5.096
 30
0.0
 10
10.3111
 20
5.096
 30
0.0
 10
10.3111
 20
5.096
 30
0.0
 10
10.3111
 20
5.096
 30
0.0
 10
10.4879
 20
5.1341
 30
0.0
 10
10.4879
 20
5.1341
 30
0.0
 10
10.4879
 20
5.1341
 30
0.0
 10
10.4879
 20
5.1341
 30
0.0
 10
10.7278
 20
5.1341
 30
0.0
 10
10.7278
 20
5.1341
 30
0.0
 10
10.7278
 20
5.1341
 30
0.0
 10
10.7278
 20
5.1341
 30
0.0
 10
10.8918
 20
5.1213
 30
0.0
 10
10.8918
 20
5.1213
 30
0.0
 10
10.8918
 20
5.1213
 30
0.0
 10
10.8918
 20
5.1213
 30
0.0
 10
11.0433
 20
5.1087
 30
0.0
 10
11.0433
 20
5.1087
 30
0.0
 10
11.0433
 20
5.1087
 30
0.0
 10
11.0433
 20
5.1087
 30
0.0
 10
11.1317
 20
4.9443
 30
0.0
 10
11.1317
 20
4.9443
 30
0.0
 10
11.1317
 20
4.9443
 30
0.0
 10
11.1317
 20
4.9443
 30
0.0
 10
11.1948
 20
4.7417
 30
0.0
 10
11.1948
 20
4.7417
 30
0.0
 10
11.1948
 20
4.7417
 30
0.0
 10
11.1948
 20
4.7417
 30
0.0
 10
11.3212
 20
3.6206
 30
0.0
 10
11.3212
 20
3.6206
 30
0.0
  0
SPLINE
  5
F0
330
1F
100
AcDbEntity
  8
DEFAULT_1
 62
   250
100
AcDbSpline
210
0.0
220
0.0
230
1.0
 70
     8
 71
     3
 72
    40
 73
    36
 74
     0
 42
0.0000000001
 43
0.0000000001
 40
0.0
 40
0.0
 40
0.0
 40
0.0
 40
0.1
 40
0.1
 40
0.1
 40
0.1
 40
0.2
 40
0.2
 40
0.2
 40
0.2
 40
0.3
 40
0.3
 40
0.3
 40
0.3
 40
0.4
 40
0.4
 40
0.4
 40
0.4
 40
0.5
 40
0.5
 40
0.5
 40
0.5
 40
0.6
 40
0.6
 40
0.6
 40
0.6
 40
0.7
 40
0.7
 40
0.7
 40
0.7
 40
0.8
 40
0.8
 40
0.8
 40
0.8
 40
1.0
 40
1.0
 40
1.0
 40
1.0
 10
11.3372
 20
3.6477
 30
0.0
 10
11.3372
 20
3.6477
 30
0.0
 10
11.5003
 20
4.9631
 30
0.0
 10
11.5003
 20
4.9631
 30
0.0
 10
11.5003
 20
4.9631
 30
0.0
 10
11.5003
 20
4.9631
 30
0.0
 10
11.6086
 20
5.1018
 30
0.0
 10
11.6086
 20
5.1018
 30
0.0
 10
11.6086
 20
5.1018
 30
0.0
 10
11.6086
 20
5.1018
 30
0.0
 10
11.7855
 20
5.1399
 30
0.0
 10
11.7855
 20
5.1399
 30
0.0
 10
11.7855
 20
5.1399
 30
0.0
 10
11.7855
 20
5.1399
 30
0.0
 10
12.0254
 20
5.1399
 30
0.0
 10
12.0254
 20
5.1399
 30
0.0
 10
12.0254
 20
5.1399
 30
0.0
 10
12.0254
 20
5.1399
 30
0.0
 10
12.1894
 20
5.1271
 30
0.0
 10
12.1894
 20
5.1271
 30
0.0
 10
12.1894
 20
5.1271
 30
0.0
 10
12.1894
 20
5.1271
 30
0.0
 10
12.3409
 20
5.1145
 30
0.0
 10
12.3409
 20
5.1145
 30
0.0
 10
12.3409
 20
5.1145
 30
0.0
 10
12.3409
 20
5.1145
 30
0.0
 10
12.4293
 20
4.9501
 30
0.0
 10
12.4293
 20
4.9501
 30
0.0
 10
12.4293
 20
4.9501
 30
0.0
 10
12.4293
 20
4.9501
 30
0.0
 10
12.4924
 20
4.7475
 30
0.0
 10
12.4924
 20
4.7475
 30
0.0
 10
12.4924
 20
4.7475
 30
0.0
 10
12.4924
 20
4.7475
 30
0.0
 10
12.6187
 20
3.6148
 30
0.0
 10
12.6187
 20
3.6148
 30
0.0
  0
SPLINE
  5
F1
330
1F
100
AcDbEntity
  8
DEFAULT_1
 62
   250
100
AcDbSpline
210
0.0
220
0.0
230
1.0
 70
     8
 71
     3
 72
    40
 73
    36
 74
     0
 42
0.0000000001
 43
0.0000000001
 40
0.0
 40
0.0
 40
0.0
 40
0.0
 40
0.1
 40
0.1
 40
0.1
 40
0.1
 40
0.2
 40
0.2
 40
0.2
 40
0.2
 40
0.3
 40
0.3
 40
0.3
 40
0.3
 40
0.4
 40
0.4
 40
0.4
 40
0.4
 40
0.5
 40
0.5
 40
0.5
 40
0.5
 40
0.6
 40
0.6
 40
0.6
 40
0.6
 40
0.7
 40
0.7
 40
0.7
 40
0.7
 40
0.8
 40
0.8
 40
0.8
 40
0.8
 40
1.0
 40
1.0
 40
1.0
 40
1.0
 10
12.6172
 20
3.6612
 30
0.0
 10
12.6172
 20
3.6612
 30
0.0
 10
12.7803
 20
4.9766
 30
0.0
 10
12.7803
 20
4.9766
 30
0.0
 10
12.7803
 20
4.9766
 30
0.0
 10
12.7803
 20
4.9766
 30
0.0
 10
12.8886
 20
5.1153
 30
0.0
 10
12.8886
 20
5.1153
 30
0.0
 10
12.8886
 20
5.1153
 30
0.0
 10
12.8886
 20
5.1153
 30
0.0
 10
13.0655
 20
5.1534
 30
0.0
 10
13.0655
 20
5.1534
 30
0.0
 10
13.0655
 20
5.1534
 30
0.0
 10
13.0655
 20
5.1534
 30
0.0
 10
13.3054
 20
5.1534
 30
0.0
 10
13.3054
 20
5.1534
 30
0.0
 10
13.3054
 20
5.1534
 30
0.0
 10
13.3054
 20
5.1534
 30
0.0
 10
13.4694
 20
5.1407
 30
0.0
 10
13.4694
 20
5.1407
 30
0.0
 10
13.4694
 20
5.1407
 30
0.0
 10
13.4694
 20
5.1407
 30
0.0
 10
13.6209
 20
5.1281
 30
0.0
 10
13.6209
 20
5.1281
 30
0.0
 10
13.6209
 20
5.1281
 30
0.0
 10
13.6209
 20
5.1281
 30
0.0
 10
13.7093
 20
4.9636
 30
0.0
 10
13.7093
 20
4.9636
 30
0.0
 10
13.7093
 20
4.9636
 30
0.0
 10
13.7093
 20
4.9636
 30
0.0
 10
13.7724
 20
4.7611
 30
0.0
 10
13.7724
 20
4.7611
 30
0.0
 10
13.7724
 20
4.7611
 30
0.0
 10
13.7724
 20
4.7611
 30
0.0
 10
13.8987
 20
3.6399
 30
0.0
 10
13.8987
 20
3.6399
 30
0.0
  0
SPLINE
  5
F2
330
1F
100
AcDbEntity
  8
DEFAULT_1
 62
   250
100
AcDbSpline
210
0.0
220
0.0
230
1.0
 70
     8
 71
     3
 72
    40
 73
    36
 74
     0
 42
0.0000000001
 43
0.0000000001
 40
0.0
 40
0.0
 40
0.0
 40
0.0
 40
0.1
 40
0.1
 40
0.1
 40
0.1
 40
0.2
 40
0.2
 40
0.2
 40
0.2
 40
0.3
 40
0.3
 40
0.3
 40
0.3
 40
0.4
 40
0.4
 40
0.4
 40
0.4
 40
0.5
 40
0.5
 40
0.5
 40
0.5
 40
0.6
 40
0.6
 40
0.6
 40
0.6
 40
0.7
 40
0.7
 40
0.7
 40
0.7
 40
0.8
 40
0.8
 40
0.8
 40
0.8
 40
1.0
 40
1.0
 40
1.0
 40
1.0
 10
13.9148
 20
3.667
 30
0.0
 10
13.9148
 20
3.667
 30
0.0
 10
14.0779
 20
4.9824
 30
0.0
 10
14.0779
 20
4.9824
 30
0.0
 10
14.0779
 20
4.9824
 30
0.0
 10
14.0779
 20
4.9824
 30
0.0
 10
14.1862
 20
5.1211
 30
0.0
 10
14.1862
 20
5.1211
 30
0.0
 10
14.1862
 20
5.1211
 30
0.0
 10
14.1862
 20
5.1211
 30
0.0
 10
14.3631
 20
5.1592
 30
0.0
 10
14.3631
 20
5.1592
 30
0.0
 10
14.3631
 20
5.1592
 30
0.0
 10
14.3631
 20
5.1592
 30
0.0
 10
14.603
 20
5.1592
 30
0.0
 10
14.603
 20
5.1592
 30
0.0
 10
14.603
 20
5.1592
 30
0.0
 10
14.603
 20
5.1592
 30
0.0
 10
14.767
 20
5.1465
 30
0.0
 10
14.767
 20
5.1465
 30
0.0
 10
14.767
 20
5.1465
 30
0.0
 10
14.767
 20
5.1465
 30
0.0
 10
14.9185
 20
5.1339
 30
0.0
 10
14.9185
 20
5.1339
 30
0.0
 10
14.9185
 20
5.1339
 30
0.0
 10
14.9185
 20
5.1339
 30
0.0
 10
15.0069
 20
4.9694
 30
0.0
 10
15.0069
 20
4.9694
 30
0.0
 10
15.0069
 20
4.9694
 30
0.0
 10
15.0069
 20
4.9694
 30
0.0
 10
15.07
 20
4.7669
 30
0.0
 10
15.07
 20
4.7669
 30
0.0
 10
15.07
 20
4.7669
 30
0.0
 10
15.07
 20
4.7669
 30
0.0
 10
15.1963
 20
3.6341
 30
0.0
 10
15.1963
 20
3.6341
 30
0.0
  0
SPLINE
  5
F3
330
1F
100
AcDbEntity
  8
DEFAULT_1
 62
   250
100
AcDbSpline
210
0.0
220
0.0
230
1.0
 70
     8
 71
     3
 72
    40
 73
    36
 74
     0
 42
0.0000000001
 43
0.0000000001
 40
0.0
 40
0.0
 40
0.0
 40
0.0
 40
0.1
 40
0.1
 40
0.1
 40
0.1
 40
0.2
 40
0.2
 40
0.2
 40
0.2
 40
0.3
 40
0.3
 40
0.3
 40
0.3
 40
0.4
 40
0.4
 40
0.4
 40
0.4
 40
0.5
 40
0.5
 40
0.5
 40
0.5
 40
0.6
 40
0.6
 40
0.6
 40
0.6
 40
0.7
 40
0.7
 40
0.7
 40
0.7
 40
0.8
 40
0.8
 40
0.8
 40
0.8
 40
1.0
 40
1.0
 40
1.0
 40
1.0
 10
15.2033
 20
3.6419
 30
0.0
 10
15.2033
 20
3.6419
 30
0.0
 10
15.3664
 20
4.9573
 30
0.0
 10
15.3664
 20
4.9573
 30
0.0
 10
15.3664
 20
4.9573
 30
0.0
 10
15.3664
 20
4.9573
 30
0.0
 10
15.4747
 20
5.096
 30
0.0
 10
15.4747
 20
5.096
 30
0.0
 10
15.4747
 20
5.096
 30
0.0
 10
15.4747
 20
5.096
 30
0.0
 10
15.6516
 20
5.1341
 30
0.0
 10
15.6516
 20
5.1341
 30
0.0
 10
15.6516
 20
5.1341
 30
0.0
 10
15.6516
 20
5.1341
 30
0.0
 10
15.8915
 20
5.1341
 30
0.0
 10
15.8915
 20
5.1341
 30
0.0
 10
15.8915
 20
5.1341
 30
0.0
 10
15.8915
 20
5.1341
 30
0.0
 10
16.0555
 20
5.1213
 30
0.0
 10
16.0555
 20
5.1213
 30
0.0
 10
16.0555
 20
5.1213
 30
0.0
 10
16.0555
 20
5.1213
 30
0.0
 10
16.207
 20
5.1087
 30
0.0
 10
16.207
 20
5.1087
 30
0.0
 10
16.207
 20
5.1087
 30
0.0
 10
16.207
 20
5.1087
 30
0.0
 10
16.2954
 20
4.9443
 30
0.0
 10
16.2954
 20
4.9443
 30
0.0
 10
16.2954
 20
4.9443
 30
0.0
 10
16.2954
 20
4.9443
 30
0.0
 10
16.3585
 20
4.7417
 30
0.0
 10
16.3585
 20
4.7417
 30
0.0
 10
16.3585
 20
4.7417
 30
0.0
 10
16.3585
 20
4.7417
 30
0.0
 10
16.4848
 20
3.6206
 30
0.0
 10
16.4848
 20
3.6206
 30
0.0
  0
SPLINE
  5
F4
330
1F
100
AcDbEntity
  8
DEFAULT_1
 62
   250
100
AcDbSpline
210
0.0
220
0.0
230
1.0
 70
     8
 71
     3
 72
    40
 73
    36
 74
     0
 42
0.0000000001
 43
0.0000000001
 40
0.0
 40
0.0
 40
0.0
 40
0.0
 40
0.1
 40
0.1
 40
0.1
 40
0.1
 40
0.2
 40
0.2
 40
0.2
 40
0.2
 40
0.3
 40
0.3
 40
0.3
 40
0.3
 40
0.4
 40
0.4
 40
0.4
 40
0.4
 40
0.5
 40
0.5
 40
0.5
 40
0.5
 40
0.6
 40
0.6
 40
0.6
 40
0.6
 40
0.7
 40
0.7
 40
0.7
 40
0.7
 40
0.8
 40
0.8
 40
0.8
 40
0.8
 40
1.0
 40
1.0
 40
1.0
 40
1.0
 10
16.5009
 20
3.6477
 30
0.0
 10
16.5009
 20
3.6477
 30
0.0
 10
16.664
 20
4.9631
 30
0.0
 10
16.664
 20
4.9631
 30
0.0
 10
16.664
 20
4.9631
 30
0.0
 10
16.664
 20
4.9631
 30
0.0
 10
16.7723
 20
5.1018
 30
0.0
 10
16.7723
 20
5.1018
 30
0.0
 10
16.7723
 20
5.1018
 30
0.0
 10
16.7723
 20
5.1018
 30
0.0
 10
16.9491
 20
5.1399
 30
0.0
 10
16.9491
 20
5.1399
 30
0.0
 10
16.9491
 20
5.1399
 30
0.0
 10
16.9491
 20
5.1399
 30
0.0
 10
17.189
 20
5.1399
 30
0.0
 10
17.189
 20
5.1399
 30
0.0
 10
17.189
 20
5.1399
 30
0.0
 10
17.189
 20
5.1399
 30
0.0
 10
17.3531
 20
5.1271
 30
0.0
 10
17.3531
 20
5.1271
 30
0.0
 10
17.3531
 20
5.1271
 30
0.0
 10
17.3531
 20
5.1271
 30
0.0
 10
17.5046
 20
5.1145
 30
0.0
 10
17.5046
 20
5.1145
 30
0.0
 10
17.5046
 20
5.1145
 30
0.0
 10
17.5046
 20
5.1145
 30
0.0
 10
17.593
 20
4.9501
 30
0.0
 10
17.593
 20
4.9501
 30
0.0
 10
17.593
 20
4.9501
 30
0.0
 10
17.593
 20
4.9501
 30
0.0
 10
17.6561
 20
4.7475
 30
0.0
 10
17.6561
 20
4.7475
 30
0.0
 10
17.6561
 20
4.7475
 30
0.0
 10
17.6561
 20
4.7475
 30
0.0
 10
17.7824
 20
3.6148
 30
0.0
 10
17.7824
 20
3.6148
 30
0.0
  0
SPLINE
  5
F5
330
1F
100
AcDbEntity
  8
DEFAULT_1
 62
   250
100
AcDbSpline
210
0.0
220
0.0
230
1.0
 70
     8
 71
     3
 72
    40
 73
    36
 74
     0
 42
0.0000000001
 43
0.0000000001
 40
0.0
 40
0.0
 40
0.0
 40
0.0
 40
0.1
 40
0.1
 40
0.1
 40
0.1
 40
0.2
 40
0.2
 40
0.2
 40
0.2
 40
0.3
 40
0.3
 40
0.3
 40
0.3
 40
0.4
 40
0.4
 40
0.4
 40
0.4
 40
0.5
 40
0.5
 40
0.5
 40
0.5
 40
0.6
 40
0.6
 40
0.6
 40
0.6
 40
0.7
 40
0.7
 40
0.7
 40
0.7
 40
0.8
 40
0.8
 40
0.8
 40
0.8
 40
1.0
 40
1.0
 40
1.0
 40
1.0
 10
17.805
 20
3.6419
 30
0.0
 10
17.805
 20
3.6419
 30
0.0
 10
17.9681
 20
4.9573
 30
0.0
 10
17.9681
 20
4.9573
 30
0.0
 10
17.9681
 20
4.9573
 30
0.0
 10
17.9681
 20
4.9573
 30
0.0
 10
18.0765
 20
5.096
 30
0.0
 10
18.0765
 20
5.096
 30
0.0
 10
18.0765
 20
5.096
 30
0.0
 10
18.0765
 20
5.096
 30
0.0
 10
18.2533
 20
5.1341
 30
0.0
 10
18.2533
 20
5.1341
 30
0.0
 10
18.2533
 20
5.1341
 30
0.0
 10
18.2533
 20
5.1341
 30
0.0
 10
18.4932
 20
5.1341
 30
0.0
 10
18.4932
 20
5.1341
 30
0.0
 10
18.4932
 20
5.1341
 30
0.0
 10
18.4932
 20
5.1341
 30
0.0
 10
18.6573
 20
5.1213
 30
0.0
 10
18.6573
 20
5.1213
 30
0.0
 10
18.6573
 20
5.1213
 30
0.0
 10
18.6573
 20
5.1213
 30
0.0
 10
18.8088
 20
5.1087
 30
0.0
 10
18.8088
 20
5.1087
 30
0.0
 10
18.8088
 20
5.1087
 30
0.0
 10
18.8088
 20
5.1087
 30
0.0
 10
18.8972
 20
4.9443
 30
0.0
 10
18.8972
 20
4.9443
 30
0.0
 10
18.8972
 20
4.9443
 30
0.0
 10
18.8972
 20
4.9443
 30
0.0
 10
18.9602
 20
4.7417
 30
0.0
 10
18.9602
 20
4.7417
 30
0.0
 10
18.9602
 20
4.7417
 30
0.0
 10
18.9602
 20
4.7417
 30
0.0
 10
19.0866
 20
3.6206
 30
0.0
 10
19.0866
 20
3.6206
 30
0.0
  0
SPLINE
  5
F6
330
1F
100
AcDbEntity
  8
DEFAULT_1
 62
   250
100
AcDbSpline
210
0.0
220
0.0
230
1.0
 70
     8
 71
     3
 72
    40
 73
    36
 74
     0
 42
0.0000000001
 43
0.0000000001
 40
0.0
 40
0.0
 40
0.0
 40
0.0
 40
0.1
 40
0.1
 40
0.1
 40
0.1
 40
0.2
 40
0.2
 40
0.2
 40
0.2
 40
0.3
 40
0.3
 40
0.3
 40
0.3
 40
0.4
 40
0.4
 40
0.4
 40
0.4
 40
0.5
 40
0.5
 40
0.5
 40
0.5
 40
0.6
 40
0.6
 40
0.6
 40
0.6
 40
0.7
 40
0.7
 40
0.7
 40
0.7
 40
0.8
 40
0.8
 40
0.8
 40
0.8
 40
1.0
 40
1.0
 40
1.0
 40
1.0
 10
19.1026
 20
3.6477
 30
0.0
 10
19.1026
 20
3.6477
 30
0.0
 10
19.2657
 20
4.9631
 30
0.0
 10
19.2657
 20
4.9631
 30
0.0
 10
19.2657
 20
4.9631
 30
0.0
 10
19.2657
 20
4.9631
 30
0.0
 10
19.3741
 20
5.1018
 30
0.0
 10
19.3741
 20
5.1018
 30
0.0
 10
19.3741
 20
5.1018
 30
0.0
 10
19.3741
 20
5.1018
 30
0.0
 10
19.5509
 20
5.1399
 30
0.0
 10
19.5509
 20
5.1399
 30
0.0
 10
19.5509
 20
5.1399
 30
0.0
 10
19.5509
 20
5.1399
 30
0.0
 10
19.7908
 20
5.1399
 30
0.0
 10
19.7908
 20
5.1399
 30
0.0
 10
19.7908
 20
5.1399
 30
0.0
 10
19.7908
 20
5.1399
 30
0.0
 10
19.9549
 20
5.1271
 30
0.0
 10
19.9549
 20
5.1271
 30
0.0
 10
19.9549
 20
5.1271
 30
0.0
 10
19.9549
 20
5.1271
 30
0.0
 10
20.1063
 20
5.1145
 30
0.0
 10
20.1063
 20
5.1145
 30
0.0
 10
20.1063
 20
5.1145
 30
0.0
 10
20.1063
 20
5.1145
 30
0.0
 10
20.1948
 20
4.9501
 30
0.0
 10
20.1948
 20
4.9501
 30
0.0
 10
20.1948
 20
4.9501
 30
0.0
 10
20.1948
 20
4.9501
 30
0.0
 10
20.2578
 20
4.7475
 30
0.0
 10
20.2578
 20
4.7475
 30
0.0
 10
20.2578
 20
4.7475
 30
0.0
 10
20.2578
 20
4.7475
 30
0.0
 10
20.3842
 20
3.6148
 30
0.0
 10
20.3842
 20
3.6148
 30
0.0
  0
SPLINE
  5
F7
330
1F
100
AcDbEntity
  8
DEFAULT_1
 62
   250
100
AcDbSpline
210
0.0
220
0.0
230
1.0
 70
    24
 71
     3
 72
     8
 73
     4
 74
     0
 42
0.0000000001
 43
0.0000000001
 40
0.0
 40
0.0
 40
0.0
 40
0.0
 40
1.0
 40
1.0
 40
1.0
 40
1.0
 10
20.8905
 20
-7.9885
 30
0.0
 10
20.8905
 20
-7.9885
 30
0.0
 10
21.06
 20
-6.6731
 30
0.0
 10
21.06
 20
-6.6731
 30
0.0
  0
SPLINE
  5
F8
330
1F
100
AcDbEntity
  8
DEFAULT_1
 62
   250
100
AcDbSpline
210
0.0
220
0.0
230
1.0
 70
    24
 71
     3
 72
     8
 73
     4
 74
     0
 42
0.0000000001
 43
0.0000000001
 40
0.0
 40
0.0
 40
0.0
 40
0.0
 40
1.0
 40
1.0
 40
1.0
 40
1.0
 10
20.3873
 20
-6.6731
 30
0.0
 10
20.3873
 20
-6.6731
 30
0.0
 10
20.5565
 20
-7.9885
 30
0.0
 10
20.5565
 20
-7.9885
 30
0.0
  0
SPLINE
  5
F9
330
1F
100
AcDbEntity
  8
DEFAULT_1
 62
   250
100
AcDbSpline
210
0.0
220
0.0
230
1.0
 70
     8
 71
     3
 72
    12
 73
     8
 74
     0
 42
0.0000000001
 43
0.0000000001
 40
0.0
 40
0.0
 40
0.0
 40
0.0
 40
0.3333333333333333
 40
0.3333333333333333
 40
0.3333333333333333
 40
0.3333333333333333
 40
1.0
 40
1.0
 40
1.0
 40
1.0
 10
20.5565
 20
-7.9885
 30
0.0
 10
20.5672
 20
-8.0699
 30
0.0
 10
20.6386
 20
-8.1307
 30
0.0
 10
20.7235
 20
-8.1307
 30
0.0
 10
20.7235
 20
-8.1307
 30
0.0
 10
20.8084
 20
-8.1307
 30
0.0
 10
20.8798
 20
-8.0699
 30
0.0
 10
20.8905
 20
-7.9885
 30
0.0
  0
SPLINE
  5
FA
330
1F
100
AcDbEntity
  8
DEFAULT_1
 62
   250
100
AcDbSpline
210
0.0
220
0.0
230
1.0
 70
     8
 71
     3
 72
    40
 73
    36
 74
     0
 42
0.0000000001
 43
0.0000000001
 40
0.0
 40
0.0
 40
0.0
 40
0.0
 40
0.1
 40
0.1
 40
0.1
 40
0.1
 40
0.2
 40
0.2
 40
0.2
 40
0.2
 40
0.3
 40
0.3
 40
0.3
 40
0.3
 40
0.4
 40
0.4
 40
0.4
 40
0.4
 40
0.5
 40
0.5
 40
0.5
 40
0.5
 40
0.6
 40
0.6
 40
0.6
 40
0.6
 40
0.7
 40
0.7
 40
0.7
 40
0.7
 40
0.8
 40
0.8
 40
0.8
 40
0.8
 40
1.0
 40
1.0
 40
1.0
 40
1.0
 10
2.25
 20
-6.7377
 30
0.0
 10
2.25
 20
-6.7377
 30
0.0
 10
2.4131
 20
-8.0531
 30
0.0
 10
2.4131
 20
-8.0531
 30
0.0
 10
2.4131
 20
-8.0531
 30
0.0
 10
2.4131
 20
-8.0531
 30
0.0
 10
2.5214
 20
-8.1918
 30
0.0
 10
2.5214
 20
-8.1918
 30
0.0
 10
2.5214
 20
-8.1918
 30
0.0
 10
2.5214
 20
-8.1918
 30
0.0
 10
2.6983
 20
-8.2299
 30
0.0
 10
2.6983
 20
-8.2299
 30
0.0
 10
2.6983
 20
-8.2299
 30
0.0
 10
2.6983
 20
-8.2299
 30
0.0
 10
2.9382
 20
-8.2299
 30
0.0
 10
2.9382
 20
-8.2299
 30
0.0
 10
2.9382
 20
-8.2299
 30
0.0
 10
2.9382
 20
-8.2299
 30
0.0
 10
3.1022
 20
-8.2172
 30
0.0
 10
3.1022
 20
-8.2172
 30
0.0
 10
3.1022
 20
-8.2172
 30
0.0
 10
3.1022
 20
-8.2172
 30
0.0
 10
3.2537
 20
-8.2046
 30
0.0
 10
3.2537
 20
-8.2046
 30
0.0
 10
3.2537
 20
-8.2046
 30
0.0
 10
3.2537
 20
-8.2046
 30
0.0
 10
3.3421
 20
-8.0401
 30
0.0
 10
3.3421
 20
-8.0401
 30
0.0
 10
3.3421
 20
-8.0401
 30
0.0
 10
3.3421
 20
-8.0401
 30
0.0
 10
3.4052
 20
-7.8376
 30
0.0
 10
3.4052
 20
-7.8376
 30
0.0
 10
3.4052
 20
-7.8376
 30
0.0
 10
3.4052
 20
-7.8376
 30
0.0
 10
3.5315
 20
-6.7164
 30
0.0
 10
3.5315
 20
-6.7164
 30
0.0
  0
SPLINE
  5
FB
330
1F
100
AcDbEntity
  8
DEFAULT_1
 62
   250
100
AcDbSpline
210
0.0
220
0.0
230
1.0
 70
     8
 71
     3
 72
    40
 73
    36
 74
     0
 42
0.0000000001
 43
0.0000000001
 40
0.0
 40
0.0
 40
0.0
 40
0.0
 40
0.1
 40
0.1
 40
0.1
 40
0.1
 40
0.2
 40
0.2
 40
0.2
 40
0.2
 40
0.3
 40
0.3
 40
0.3
 40
0.3
 40
0.4
 40
0.4
 40
0.4
 40
0.4
 40
0.5
 40
0.5
 40
0.5
 40
0.5
 40
0.6
 40
0.6
 40
0.6
 40
0.6
 40
0.7
 40
0.7
 40
0.7
 40
0.7
 40
0.8
 40
0.8
 40
0.8
 40
0.8
 40
1.0
 40
1.0
 40
1.0
 40
1.0
 10
3.5476
 20
-6.7435
 30
0.0
 10
3.5476
 20
-6.7435
 30
0.0
 10
3.7107
 20
-8.0589
 30
0.0
 10
3.7107
 20
-8.0589
 30
0.0
 10
3.7107
 20
-8.0589
 30
0.0
 10
3.7107
 20
-8.0589
 30
0.0
 10
3.819
 20
-8.1976
 30
0.0
 10
3.819
 20
-8.1976
 30
0.0
 10
3.819
 20
-8.1976
 30
0.0
 10
3.819
 20
-8.1976
 30
0.0
 10
3.9959
 20
-8.2357
 30
0.0
 10
3.9959
 20
-8.2357
 30
0.0
 10
3.9959
 20
-8.2357
 30
0.0
 10
3.9959
 20
-8.2357
 30
0.0
 10
4.2358
 20
-8.2357
 30
0.0
 10
4.2358
 20
-8.2357
 30
0.0
 10
4.2358
 20
-8.2357
 30
0.0
 10
4.2358
 20
-8.2357
 30
0.0
 10
4.3998
 20
-8.223
 30
0.0
 10
4.3998
 20
-8.223
 30
0.0
 10
4.3998
 20
-8.223
 30
0.0
 10
4.3998
 20
-8.223
 30
0.0
 10
4.5513
 20
-8.2104
 30
0.0
 10
4.5513
 20
-8.2104
 30
0.0
 10
4.5513
 20
-8.2104
 30
0.0
 10
4.5513
 20
-8.2104
 30
0.0
 10
4.6397
 20
-8.0459
 30
0.0
 10
4.6397
 20
-8.0459
 30
0.0
 10
4.6397
 20
-8.0459
 30
0.0
 10
4.6397
 20
-8.0459
 30
0.0
 10
4.7028
 20
-7.8434
 30
0.0
 10
4.7028
 20
-7.8434
 30
0.0
 10
4.7028
 20
-7.8434
 30
0.0
 10
4.7028
 20
-7.8434
 30
0.0
 10
4.8291
 20
-6.7106
 30
0.0
 10
4.8291
 20
-6.7106
 30
0.0
  0
SPLINE
  5
FC
330
1F
100
AcDbEntity
  8
DEFAULT_1
 62
   250
100
AcDbSpline
210
0.0
220
0.0
230
1.0
 70
     8
 71
     3
 72
    40
 73
    36
 74
     0
 42
0.0000000001
 43
0.0000000001
 40
0.0
 40
0.0
 40
0.0
 40
0.0
 40
0.1
 40
0.1
 40
0.1
 40
0.1
 40
0.2
 40
0.2
 40
0.2
 40
0.2
 40
0.3
 40
0.3
 40
0.3
 40
0.3
 40
0.4
 40
0.4
 40
0.4
 40
0.4
 40
0.5
 40
0.5
 40
0.5
 40
0.5
 40
0.6
 40
0.6
 40
0.6
 40
0.6
 40
0.7
 40
0.7
 40
0.7
 40
0.7
 40
0.8
 40
0.8
 40
0.8
 40
0.8
 40
1.0
 40
1.0
 40
1.0
 40
1.0
 10
4.8518
 20
-6.7377
 30
0.0
 10
4.8518
 20
-6.7377
 30
0.0
 10
5.0149
 20
-8.0531
 30
0.0
 10
5.0149
 20
-8.0531
 30
0.0
 10
5.0149
 20
-8.0531
 30
0.0
 10
5.0149
 20
-8.0531
 30
0.0
 10
5.1232
 20
-8.1918
 30
0.0
 10
5.1232
 20
-8.1918
 30
0.0
 10
5.1232
 20
-8.1918
 30
0.0
 10
5.1232
 20
-8.1918
 30
0.0
 10
5.3
 20
-8.2299
 30
0.0
 10
5.3
 20
-8.2299
 30
0.0
 10
5.3
 20
-8.2299
 30
0.0
 10
5.3
 20
-8.2299
 30
0.0
 10
5.5399
 20
-8.2299
 30
0.0
 10
5.5399
 20
-8.2299
 30
0.0
 10
5.5399
 20
-8.2299
 30
0.0
 10
5.5399
 20
-8.2299
 30
0.0
 10
5.704
 20
-8.2172
 30
0.0
 10
5.704
 20
-8.2172
 30
0.0
 10
5.704
 20
-8.2172
 30
0.0
 10
5.704
 20
-8.2172
 30
0.0
 10
5.8555
 20
-8.2046
 30
0.0
 10
5.8555
 20
-8.2046
 30
0.0
 10
5.8555
 20
-8.2046
 30
0.0
 10
5.8555
 20
-8.2046
 30
0.0
 10
5.9439
 20
-8.0401
 30
0.0
 10
5.9439
 20
-8.0401
 30
0.0
 10
5.9439
 20
-8.0401
 30
0.0
 10
5.9439
 20
-8.0401
 30
0.0
 10
6.007
 20
-7.8376
 30
0.0
 10
6.007
 20
-7.8376
 30
0.0
 10
6.007
 20
-7.8376
 30
0.0
 10
6.007
 20
-7.8376
 30
0.0
 10
6.1333
 20
-6.7164
 30
0.0
 10
6.1333
 20
-6.7164
 30
0.0
  0
SPLINE
  5
FD
330
1F
100
AcDbEntity
  8
DEFAULT_1
 62
   250
100
AcDbSpline
210
0.0
220
0.0
230
1.0
 70
     8
 71
     3
 72
    40
 73
    36
 74
     0
 42
0.0000000001
 43
0.0000000001
 40
0.0
 40
0.0
 40
0.0
 40
0.0
 40
0.1
 40
0.1
 40
0.1
 40
0.1
 40
0.2
 40
0.2
 40
0.2
 40
0.2
 40
0.3
 40
0.3
 40
0.3
 40
0.3
 40
0.4
 40
0.4
 40
0.4
 40
0.4
 40
0.5
 40
0.5
 40
0.5
 40
0.5
 40
0.6
 40
0.6
 40
0.6
 40
0.6
 40
0.7
 40
0.7
 40
0.7
 40
0.7
 40
0.8
 40
0.8
 40
0.8
 40
0.8
 40
1.0
 40
1.0
 40
1.0
 40
1.0
 10
6.1494
 20
-6.7435
 30
0.0
 10
6.1494
 20
-6.7435
 30
0.0
 10
6.3125
 20
-8.0589
 30
0.0
 10
6.3125
 20
-8.0589
 30
0.0
 10
6.3125
 20
-8.0589
 30
0.0
 10
6.3125
 20
-8.0589
 30
0.0
 10
6.4208
 20
-8.1976
 30
0.0
 10
6.4208
 20
-8.1976
 30
0.0
 10
6.4208
 20
-8.1976
 30
0.0
 10
6.4208
 20
-8.1976
 30
0.0
 10
6.5976
 20
-8.2357
 30
0.0
 10
6.5976
 20
-8.2357
 30
0.0
 10
6.5976
 20
-8.2357
 30
0.0
 10
6.5976
 20
-8.2357
 30
0.0
 10
6.8375
 20
-8.2357
 30
0.0
 10
6.8375
 20
-8.2357
 30
0.0
 10
6.8375
 20
-8.2357
 30
0.0
 10
6.8375
 20
-8.2357
 30
0.0
 10
7.0016
 20
-8.223
 30
0.0
 10
7.0016
 20
-8.223
 30
0.0
 10
7.0016
 20
-8.223
 30
0.0
 10
7.0016
 20
-8.223
 30
0.0
 10
7.1531
 20
-8.2104
 30
0.0
 10
7.1531
 20
-8.2104
 30
0.0
 10
7.1531
 20
-8.2104
 30
0.0
 10
7.1531
 20
-8.2104
 30
0.0
 10
7.2415
 20
-8.0459
 30
0.0
 10
7.2415
 20
-8.0459
 30
0.0
 10
7.2415
 20
-8.0459
 30
0.0
 10
7.2415
 20
-8.0459
 30
0.0
 10
7.3046
 20
-7.8434
 30
0.0
 10
7.3046
 20
-7.8434
 30
0.0
 10
7.3046
 20
-7.8434
 30
0.0
 10
7.3046
 20
-7.8434
 30
0.0
 10
7.4309
 20
-6.7106
 30
0.0
 10
7.4309
 20
-6.7106
 30
0.0
  0
SPLINE
  5
FE
330
1F
100
AcDbEntity
  8
DEFAULT_1
 62
   250
100
AcDbSpline
210
0.0
220
0.0
230
1.0
 70
     8
 71
     3
 72
    40
 73
    36
 74
     0
 42
0.0000000001
 43
0.0000000001
 40
0.0
 40
0.0
 40
0.0
 40
0.0
 40
0.1
 40
0.1
 40
0.1
 40
0.1
 40
0.2
 40
0.2
 40
0.2
 40
0.2
 40
0.3
 40
0.3
 40
0.3
 40
0.3
 40
0.4
 40
0.4
 40
0.4
 40
0.4
 40
0.5
 40
0.5
 40
0.5
 40
0.5
 40
0.6
 40
0.6
 40
0.6
 40
0.6
 40
0.7
 40
0.7
 40
0.7
 40
0.7
 40
0.8
 40
0.8
 40
0.8
 40
0.8
 40
1.0
 40
1.0
 40
1.0
 40
1.0
 10
7.4379
 20
-6.7184
 30
0.0
 10
7.4379
 20
-6.7184
 30
0.0
 10
7.601
 20
-8.0337
 30
0.0
 10
7.601
 20
-8.0337
 30
0.0
 10
7.601
 20
-8.0337
 30
0.0
 10
7.601
 20
-8.0337
 30
0.0
 10
7.7093
 20
-8.1725
 30
0.0
 10
7.7093
 20
-8.1725
 30
0.0
 10
7.7093
 20
-8.1725
 30
0.0
 10
7.7093
 20
-8.1725
 30
0.0
 10
7.8861
 20
-8.2106
 30
0.0
 10
7.8861
 20
-8.2106
 30
0.0
 10
7.8861
 20
-8.2106
 30
0.0
 10
7.8861
 20
-8.2106
 30
0.0
 10
8.126
 20
-8.2106
 30
0.0
 10
8.126
 20
-8.2106
 30
0.0
 10
8.126
 20
-8.2106
 30
0.0
 10
8.126
 20
-8.2106
 30
0.0
 10
8.2901
 20
-8.1978
 30
0.0
 10
8.2901
 20
-8.1978
 30
0.0
 10
8.2901
 20
-8.1978
 30
0.0
 10
8.2901
 20
-8.1978
 30
0.0
 10
8.4416
 20
-8.1852
 30
0.0
 10
8.4416
 20
-8.1852
 30
0.0
 10
8.4416
 20
-8.1852
 30
0.0
 10
8.4416
 20
-8.1852
 30
0.0
 10
8.53
 20
-8.0208
 30
0.0
 10
8.53
 20
-8.0208
 30
0.0
 10
8.53
 20
-8.0208
 30
0.0
 10
8.53
 20
-8.0208
 30
0.0
 10
8.5931
 20
-7.8182
 30
0.0
 10
8.5931
 20
-7.8182
 30
0.0
 10
8.5931
 20
-7.8182
 30
0.0
 10
8.5931
 20
-7.8182
 30
0.0
 10
8.7194
 20
-6.6971
 30
0.0
 10
8.7194
 20
-6.6971
 30
0.0
  0
SPLINE
  5
FF
330
1F
100
AcDbEntity
  8
DEFAULT_1
 62
   250
100
AcDbSpline
210
0.0
220
0.0
230
1.0
 70
     8
 71
     3
 72
    40
 73
    36
 74
     0
 42
0.0000000001
 43
0.0000000001
 40
0.0
 40
0.0
 40
0.0
 40
0.0
 40
0.1
 40
0.1
 40
0.1
 40
0.1
 40
0.2
 40
0.2
 40
0.2
 40
0.2
 40
0.3
 40
0.3
 40
0.3
 40
0.3
 40
0.4
 40
0.4
 40
0.4
 40
0.4
 40
0.5
 40
0.5
 40
0.5
 40
0.5
 40
0.6
 40
0.6
 40
0.6
 40
0.6
 40
0.7
 40
0.7
 40
0.7
 40
0.7
 40
0.8
 40
0.8
 40
0.8
 40
0.8
 40
1.0
 40
1.0
 40
1.0
 40
1.0
 10
8.7355
 20
-6.7242
 30
0.0
 10
8.7355
 20
-6.7242
 30
0.0
 10
8.8985
 20
-8.0396
 30
0.0
 10
8.8985
 20
-8.0396
 30
0.0
 10
8.8985
 20
-8.0396
 30
0.0
 10
8.8985
 20
-8.0396
 30
0.0
 10
9.0069
 20
-8.1783
 30
0.0
 10
9.0069
 20
-8.1783
 30
0.0
 10
9.0069
 20
-8.1783
 30
0.0
 10
9.0069
 20
-8.1783
 30
0.0
 10
9.1837
 20
-8.2164
 30
0.0
 10
9.1837
 20
-8.2164
 30
0.0
 10
9.1837
 20
-8.2164
 30
0.0
 10
9.1837
 20
-8.2164
 30
0.0
 10
9.4236
 20
-8.2164
 30
0.0
 10
9.4236
 20
-8.2164
 30
0.0
 10
9.4236
 20
-8.2164
 30
0.0
 10
9.4236
 20
-8.2164
 30
0.0
 10
9.5877
 20
-8.2036
 30
0.0
 10
9.5877
 20
-8.2036
 30
0.0
 10
9.5877
 20
-8.2036
 30
0.0
 10
9.5877
 20
-8.2036
 30
0.0
 10
9.7392
 20
-8.191
 30
0.0
 10
9.7392
 20
-8.191
 30
0.0
 10
9.7392
 20
-8.191
 30
0.0
 10
9.7392
 20
-8.191
 30
0.0
 10
9.8276
 20
-8.0266
 30
0.0
 10
9.8276
 20
-8.0266
 30
0.0
 10
9.8276
 20
-8.0266
 30
0.0
 10
9.8276
 20
-8.0266
 30
0.0
 10
9.8907
 20
-7.824
 30
0.0
 10
9.8907
 20
-7.824
 30
0.0
 10
9.8907
 20
-7.824
 30
0.0
 10
9.8907
 20
-7.824
 30
0.0
 10
10.017
 20
-6.6913
 30
0.0
 10
10.017
 20
-6.6913
 30
0.0
  0
SPLINE
  5
100
330
1F
100
AcDbEntity
  8
DEFAULT_1
 62
   250
100
AcDbSpline
210
0.0
220
0.0
230
1.0
 70
     8
 71
     3
 72
    40
 73
    36
 74
     0
 42
0.0000000001
 43
0.0000000001
 40
0.0
 40
0.0
 40
0.0
 40
0.0
 40
0.1
 40
0.1
 40
0.1
 40
0.1
 40
0.2
 40
0.2
 40
0.2
 40
0.2
 40
0.3
 40
0.3
 40
0.3
 40
0.3
 40
0.4
 40
0.4
 40
0.4
 40
0.4
 40
0.5
 40
0.5
 40
0.5
 40
0.5
 40
0.6
 40
0.6
 40
0.6
 40
0.6
 40
0.7
 40
0.7
 40
0.7
 40
0.7
 40
0.8
 40
0.8
 40
0.8
 40
0.8
 40
1.0
 40
1.0
 40
1.0
 40
1.0
 10
10.0396
 20
-6.7184
 30
0.0
 10
10.0396
 20
-6.7184
 30
0.0
 10
10.2027
 20
-8.0337
 30
0.0
 10
10.2027
 20
-8.0337
 30
0.0
 10
10.2027
 20
-8.0337
 30
0.0
 10
10.2027
 20
-8.0337
 30
0.0
 10
10.3111
 20
-8.1725
 30
0.0
 10
10.3111
 20
-8.1725
 30
0.0
 10
10.3111
 20
-8.1725
 30
0.0
 10
10.3111
 20
-8.1725
 30
0.0
 10
10.4879
 20
-8.2106
 30
0.0
 10
10.4879
 20
-8.2106
 30
0.0
 10
10.4879
 20
-8.2106
 30
0.0
 10
10.4879
 20
-8.2106
 30
0.0
 10
10.7278
 20
-8.2106
 30
0.0
 10
10.7278
 20
-8.2106
 30
0.0
 10
10.7278
 20
-8.2106
 30
0.0
 10
10.7278
 20
-8.2106
 30
0.0
 10
10.8918
 20
-8.1978
 30
0.0
 10
10.8918
 20
-8.1978
 30
0.0
 10
10.8918
 20
-8.1978
 30
0.0
 10
10.8918
 20
-8.1978
 30
0.0
 10
11.0433
 20
-8.1852
 30
0.0
 10
11.0433
 20
-8.1852
 30
0.0
 10
11.0433
 20
-8.1852
 30
0.0
 10
11.0433
 20
-8.1852
 30
0.0
 10
11.1317
 20
-8.0208
 30
0.0
 10
11.1317
 20
-8.0208
 30
0.0
 10
11.1317
 20
-8.0208
 30
0.0
 10
11.1317
 20
-8.0208
 30
0.0
 10
11.1948
 20
-7.8182
 30
0.0
 10
11.1948
 20
-7.8182
 30
0.0
 10
11.1948
 20
-7.8182
 30
0.0
 10
11.1948
 20
-7.8182
 30
0.0
 10
11.3212
 20
-6.6971
 30
0.0
 10
11.3212
 20
-6.6971
 30
0.0
  0
SPLINE
  5
101
330
1F
100
AcDbEntity
  8
DEFAULT_1
 62
   250
100
AcDbSpline
210
0.0
220
0.0
230
1.0
 70
     8
 71
     3
 72
    40
 73
    36
 74
     0
 42
0.0000000001
 43
0.0000000001
 40
0.0
 40
0.0
 40
0.0
 40
0.0
 40
0.1
 40
0.1
 40
0.1
 40
0.1
 40
0.2
 40
0.2
 40
0.2
 40
0.2
 40
0.3
 40
0.3
 40
0.3
 40
0.3
 40
0.4
 40
0.4
 40
0.4
 40
0.4
 40
0.5
 40
0.5
 40
0.5
 40
0.5
 40
0.6
 40
0.6
 40
0.6
 40
0.6
 40
0.7
 40
0.7
 40
0.7
 40
0.7
 40
0.8
 40
0.8
 40
0.8
 40
0.8
 40
1.0
 40
1.0
 40
1.0
 40
1.0
 10
11.3372
 20
-6.7242
 30
0.0
 10
11.3372
 20
-6.7242
 30
0.0
 10
11.5003
 20
-8.0396
 30
0.0
 10
11.5003
 20
-8.0396
 30
0.0
 10
11.5003
 20
-8.0396
 30
0.0
 10
11.5003
 20
-8.0396
 30
0.0
 10
11.6086
 20
-8.1783
 30
0.0
 10
11.6086
 20
-8.1783
 30
0.0
 10
11.6086
 20
-8.1783
 30
0.0
 10
11.6086
 20
-8.1783
 30
0.0
 10
11.7855
 20
-8.2164
 30
0.0
 10
11.7855
 20
-8.2164
 30
0.0
 10
11.7855
 20
-8.2164
 30
0.0
 10
11.7855
 20
-8.2164
 30
0.0
 10
12.0254
 20
-8.2164
 30
0.0
 10
12.0254
 20
-8.2164
 30
0.0
 10
12.0254
 20
-8.2164
 30
0.0
 10
12.0254
 20
-8.2164
 30
0.0
 10
12.1894
 20
-8.2036
 30
0.0
 10
12.1894
 20
-8.2036
 30
0.0
 10
12.1894
 20
-8.2036
 30
0.0
 10
12.1894
 20
-8.2036
 30
0.0
 10
12.3409
 20
-8.191
 30
0.0
 10
12.3409
 20
-8.191
 30
0.0
 10
12.3409
 20
-8.191
 30
0.0
 10
12.3409
 20
-8.191
 30
0.0
 10
12.4293
 20
-8.0266
 30
0.0
 10
12.4293
 20
-8.0266
 30
0.0
 10
12.4293
 20
-8.0266
 30
0.0
 10
12.4293
 20
-8.0266
 30
0.0
 10
12.4924
 20
-7.824
 30
0.0
 10
12.4924
 20
-7.824
 30
0.0
 10
12.4924
 20
-7.824
 30
0.0
 10
12.4924
 20
-7.824
 30
0.0
 10
12.6187
 20
-6.6913
 30
0.0
 10
12.6187
 20
-6.6913
 30
0.0
  0
SPLINE
  5
102
330
1F
100
AcDbEntity
  8
DEFAULT_1
 62
   250
100
AcDbSpline
210
0.0
220
0.0
230
1.0
 70
     8
 71
     3
 72
    40
 73
    36
 74
     0
 42
0.0000000001
 43
0.0000000001
 40
0.0
 40
0.0
 40
0.0
 40
0.0
 40
0.1
 40
0.1
 40
0.1
 40
0.1
 40
0.2
 40
0.2
 40
0.2
 40
0.2
 40
0.3
 40
0.3
 40
0.3
 40
0.3
 40
0.4
 40
0.4
 40
0.4
 40
0.4
 40
0.5
 40
0.5
 40
0.5
 40
0.5
 40
0.6
 40
0.6
 40
0.6
 40
0.6
 40
0.7
 40
0.7
 40
0.7
 40
0.7
 40
0.8
 40
0.8
 40
0.8
 40
0.8
 40
1.0
 40
1.0
 40
1.0
 40
1.0
 10
12.6172
 20
-6.7377
 30
0.0
 10
12.6172
 20
-6.7377
 30
0.0
 10
12.7803
 20
-8.0531
 30
0.0
 10
12.7803
 20
-8.0531
 30
0.0
 10
12.7803
 20
-8.0531
 30
0.0
 10
12.7803
 20
-8.0531
 30
0.0
 10
12.8886
 20
-8.1918
 30
0.0
 10
12.8886
 20
-8.1918
 30
0.0
 10
12.8886
 20
-8.1918
 30
0.0
 10
12.8886
 20
-8.1918
 30
0.0
 10
13.0655
 20
-8.2299
 30
0.0
 10
13.0655
 20
-8.2299
 30
0.0
 10
13.0655
 20
-8.2299
 30
0.0
 10
13.0655
 20
-8.2299
 30
0.0
 10
13.3054
 20
-8.2299
 30
0.0
 10
13.3054
 20
-8.2299
 30
0.0
 10
13.3054
 20
-8.2299
 30
0.0
 10
13.3054
 20
-8.2299
 30
0.0
 10
13.4694
 20
-8.2172
 30
0.0
 10
13.4694
 20
-8.2172
 30
0.0
 10
13.4694
 20
-8.2172
 30
0.0
 10
13.4694
 20
-8.2172
 30
0.0
 10
13.6209
 20
-8.2046
 30
0.0
 10
13.6209
 20
-8.2046
 30
0.0
 10
13.6209
 20
-8.2046
 30
0.0
 10
13.6209
 20
-8.2046
 30
0.0
 10
13.7093
 20
-8.0401
 30
0.0
 10
13.7093
 20
-8.0401
 30
0.0
 10
13.7093
 20
-8.0401
 30
0.0
 10
13.7093
 20
-8.0401
 30
0.0
 10
13.7724
 20
-7.8376
 30
0.0
 10
13.7724
 20
-7.8376
 30
0.0
 10
13.7724
 20
-7.8376
 30
0.0
 10
13.7724
 20
-7.8376
 30
0.0
 10
13.8987
 20
-6.7164
 30
0.0
 10
13.8987
 20
-6.7164
 30
0.0
  0
SPLINE
  5
103
330
1F
100
AcDbEntity
  8
DEFAULT_1
 62
   250
100
AcDbSpline
210
0.0
220
0.0
230
1.0
 70
     8
 71
     3
 72
    40
 73
    36
 74
     0
 42
0.0000000001
 43
0.0000000001
 40
0.0
 40
0.0
 40
0.0
 40
0.0
 40
0.1
 40
0.1
 40
0.1
 40
0.1
 40
0.2
 40
0.2
 40
0.2
 40
0.2
 40
0.3
 40
0.3
 40
0.3
 40
0.3
 40
0.4
 40
0.4
 40
0.4
 40
0.4
 40
0.5
 40
0.5
 40
0.5
 40
0.5
 40
0.6
 40
0.6
 40
0.6
 40
0.6
 40
0.7
 40
0.7
 40
0.7
 40
0.7
 40
0.8
 40
0.8
 40
0.8
 40
0.8
 40
1.0
 40
1.0
 40
1.0
 40
1.0
 10
13.9148
 20
-6.7435
 30
0.0
 10
13.9148
 20
-6.7435
 30
0.0
 10
14.0779
 20
-8.0589
 30
0.0
 10
14.0779
 20
-8.0589
 30
0.0
 10
14.0779
 20
-8.0589
 30
0.0
 10
14.0779
 20
-8.0589
 30
0.0
 10
14.1862
 20
-8.1976
 30
0.0
 10
14.1862
 20
-8.1976
 30
0.0
 10
14.1862
 20
-8.1976
 30
0.0
 10
14.1862
 20
-8.1976
 30
0.0
 10
14.3631
 20
-8.2357
 30
0.0
 10
14.3631
 20
-8.2357
 30
0.0
 10
14.3631
 20
-8.2357
 30
0.0
 10
14.3631
 20
-8.2357
 30
0.0
 10
14.603
 20
-8.2357
 30
0.0
 10
14.603
 20
-8.2357
 30
0.0
 10
14.603
 20
-8.2357
 30
0.0
 10
14.603
 20
-8.2357
 30
0.0
 10
14.767
 20
-8.223
 30
0.0
 10
14.767
 20
-8.223
 30
0.0
 10
14.767
 20
-8.223
 30
0.0
 10
14.767
 20
-8.223
 30
0.0
 10
14.9185
 20
-8.2104
 30
0.0
 10
14.9185
 20
-8.2104
 30
0.0
 10
14.9185
 20
-8.2104
 30
0.0
 10
14.9185
 20
-8.2104
 30
0.0
 10
15.0069
 20
-8.0459
 30
0.0
 10
15.0069
 20
-8.0459
 30
0.0
 10
15.0069
 20
-8.0459
 30
0.0
 10
15.0069
 20
-8.0459
 30
0.0
 10
15.07
 20
-7.8434
 30
0.0
 10
15.07
 20
-7.8434
 30
0.0
 10
15.07
 20
-7.8434
 30
0.0
 10
15.07
 20
-7.8434
 30
0.0
 10
15.1963
 20
-6.7106
 30
0.0
 10
15.1963
 20
-6.7106
 30
0.0
  0
SPLINE
  5
104
330
1F
100
AcDbEntity
  8
DEFAULT_1
 62
   250
100
AcDbSpline
210
0.0
220
0.0
230
1.0
 70
     8
 71
     3
 72
    40
 73
    36
 74
     0
 42
0.0000000001
 43
0.0000000001
 40
0.0
 40
0.0
 40
0.0
 40
0.0
 40
0.1
 40
0.1
 40
0.1
 40
0.1
 40
0.2
 40
0.2
 40
0.2
 40
0.2
 40
0.3
 40
0.3
 40
0.3
 40
0.3
 40
0.4
 40
0.4
 40
0.4
 40
0.4
 40
0.5
 40
0.5
 40
0.5
 40
0.5
 40
0.6
 40
0.6
 40
0.6
 40
0.6
 40
0.7
 40
0.7
 40
0.7
 40
0.7
 40
0.8
 40
0.8
 40
0.8
 40
0.8
 40
1.0
 40
1.0
 40
1.0
 40
1.0
 10
15.2033
 20
-6.7184
 30
0.0
 10
15.2033
 20
-6.7184
 30
0.0
 10
15.3664
 20
-8.0337
 30
0.0
 10
15.3664
 20
-8.0337
 30
0.0
 10
15.3664
 20
-8.0337
 30
0.0
 10
15.3664
 20
-8.0337
 30
0.0
 10
15.4747
 20
-8.1725
 30
0.0
 10
15.4747
 20
-8.1725
 30
0.0
 10
15.4747
 20
-8.1725
 30
0.0
 10
15.4747
 20
-8.1725
 30
0.0
 10
15.6516
 20
-8.2106
 30
0.0
 10
15.6516
 20
-8.2106
 30
0.0
 10
15.6516
 20
-8.2106
 30
0.0
 10
15.6516
 20
-8.2106
 30
0.0
 10
15.8915
 20
-8.2106
 30
0.0
 10
15.8915
 20
-8.2106
 30
0.0
 10
15.8915
 20
-8.2106
 30
0.0
 10
15.8915
 20
-8.2106
 30
0.0
 10
16.0555
 20
-8.1978
 30
0.0
 10
16.0555
 20
-8.1978
 30
0.0
 10
16.0555
 20
-8.1978
 30
0.0
 10
16.0555
 20
-8.1978
 30
0.0
 10
16.207
 20
-8.1852
 30
0.0
 10
16.207
 20
-8.1852
 30
0.0
 10
16.207
 20
-8.1852
 30
0.0
 10
16.207
 20
-8.1852
 30
0.0
 10
16.2954
 20
-8.0208
 30
0.0
 10
16.2954
 20
-8.0208
 30
0.0
 10
16.2954
 20
-8.0208
 30
0.0
 10
16.2954
 20
-8.0208
 30
0.0
 10
16.3585
 20
-7.8182
 30
0.0
 10
16.3585
 20
-7.8182
 30
0.0
 10
16.3585
 20
-7.8182
 30
0.0
 10
16.3585
 20
-7.8182
 30
0.0
 10
16.4848
 20
-6.6971
 30
0.0
 10
16.4848
 20
-6.6971
 30
0.0
  0
SPLINE
  5
105
330
1F
100
AcDbEntity
  8
DEFAULT_1
 62
   250
100
AcDbSpline
210
0.0
220
0.0
230
1.0
 70
     8
 71
     3
 72
    40
 73
    36
 74
     0
 42
0.0000000001
 43
0.0000000001
 40
0.0
 40
0.0
 40
0.0
 40
0.0
 40
0.1
 40
0.1
 40
0.1
 40
0.1
 40
0.2
 40
0.2
 40
0.2
 40
0.2
 40
0.3
 40
0.3
 40
0.3
 40
0.3
 40
0.4
 40
0.4
 40
0.4
 40
0.4
 40
0.5
 40
0.5
 40
0.5
 40
0.5
 40
0.6
 40
0.6
 40
0.6
 40
0.6
 40
0.7
 40
0.7
 40
0.7
 40
0.7
 40
0.8
 40
0.8
 40
0.8
 40
0.8
 40
1.0
 40
1.0
 40
1.0
 40
1.0
 10
16.5009
 20
-6.7242
 30
0.0
 10
16.5009
 20
-6.7242
 30
0.0
 10
16.664
 20
-8.0396
 30
0.0
 10
16.664
 20
-8.0396
 30
0.0
 10
16.664
 20
-8.0396
 30
0.0
 10
16.664
 20
-8.0396
 30
0.0
 10
16.7723
 20
-8.1783
 30
0.0
 10
16.7723
 20
-8.1783
 30
0.0
 10
16.7723
 20
-8.1783
 30
0.0
 10
16.7723
 20
-8.1783
 30
0.0
 10
16.9491
 20
-8.2164
 30
0.0
 10
16.9491
 20
-8.2164
 30
0.0
 10
16.9491
 20
-8.2164
 30
0.0
 10
16.9491
 20
-8.2164
 30
0.0
 10
17.189
 20
-8.2164
 30
0.0
 10
17.189
 20
-8.2164
 30
0.0
 10
17.189
 20
-8.2164
 30
0.0
 10
17.189
 20
-8.2164
 30
0.0
 10
17.3531
 20
-8.2036
 30
0.0
 10
17.3531
 20
-8.2036
 30
0.0
 10
17.3531
 20
-8.2036
 30
0.0
 10
17.3531
 20
-8.2036
 30
0.0
 10
17.5046
 20
-8.191
 30
0.0
 10
17.5046
 20
-8.191
 30
0.0
 10
17.5046
 20
-8.191
 30
0.0
 10
17.5046
 20
-8.191
 30
0.0
 10
17.593
 20
-8.0266
 30
0.0
 10
17.593
 20
-8.0266
 30
0.0
 10
17.593
 20
-8.0266
 30
0.0
 10
17.593
 20
-8.0266
 30
0.0
 10
17.6561
 20
-7.824
 30
0.0
 10
17.6561
 20
-7.824
 30
0.0
 10
17.6561
 20
-7.824
 30
0.0
 10
17.6561
 20
-7.824
 30
0.0
 10
17.7824
 20
-6.6913
 30
0.0
 10
17.7824
 20
-6.6913
 30
0.0
  0
SPLINE
  5
106
330
1F
100
AcDbEntity
  8
DEFAULT_1
 62
   250
100
AcDbSpline
210
0.0
220
0.0
230
1.0
 70
     8
 71
     3
 72
    40
 73
    36
 74
     0
 42
0.0000000001
 43
0.0000000001
 40
0.0
 40
0.0
 40
0.0
 40
0.0
 40
0.1
 40
0.1
 40
0.1
 40
0.1
 40
0.2
 40
0.2
 40
0.2
 40
0.2
 40
0.3
 40
0.3
 40
0.3
 40
0.3
 40
0.4
 40
0.4
 40
0.4
 40
0.4
 40
0.5
 40
0.5
 40
0.5
 40
0.5
 40
0.6
 40
0.6
 40
0.6
 40
0.6
 40
0.7
 40
0.7
 40
0.7
 40
0.7
 40
0.8
 40
0.8
 40
0.8
 40
0.8
 40
1.0
 40
1.0
 40
1.0
 40
1.0
 10
17.805
 20
-6.7184
 30
0.0
 10
17.805
 20
-6.7184
 30
0.0
 10
17.9681
 20
-8.0337
 30
0.0
 10
17.9681
 20
-8.0337
 30
0.0
 10
17.9681
 20
-8.0337
 30
0.0
 10
17.9681
 20
-8.0337
 30
0.0
 10
18.0765
 20
-8.1725
 30
0.0
 10
18.0765
 20
-8.1725
 30
0.0
 10
18.0765
 20
-8.1725
 30
0.0
 10
18.0765
 20
-8.1725
 30
0.0
 10
18.2533
 20
-8.2106
 30
0.0
 10
18.2533
 20
-8.2106
 30
0.0
 10
18.2533
 20
-8.2106
 30
0.0
 10
18.2533
 20
-8.2106
 30
0.0
 10
18.4932
 20
-8.2106
 30
0.0
 10
18.4932
 20
-8.2106
 30
0.0
 10
18.4932
 20
-8.2106
 30
0.0
 10
18.4932
 20
-8.2106
 30
0.0
 10
18.6573
 20
-8.1978
 30
0.0
 10
18.6573
 20
-8.1978
 30
0.0
 10
18.6573
 20
-8.1978
 30
0.0
 10
18.6573
 20
-8.1978
 30
0.0
 10
18.8088
 20
-8.1852
 30
0.0
 10
18.8088
 20
-8.1852
 30
0.0
 10
18.8088
 20
-8.1852
 30
0.0
 10
18.8088
 20
-8.1852
 30
0.0
 10
18.8972
 20
-8.0208
 30
0.0
 10
18.8972
 20
-8.0208
 30
0.0
 10
18.8972
 20
-8.0208
 30
0.0
 10
18.8972
 20
-8.0208
 30
0.0
 10
18.9602
 20
-7.8182
 30
0.0
 10
18.9602
 20
-7.8182
 30
0.0
 10
18.9602
 20
-7.8182
 30
0.0
 10
18.9602
 20
-7.8182
 30
0.0
 10
19.0866
 20
-6.6971
 30
0.0
 10
19.0866
 20
-6.6971
 30
0.0
  0
SPLINE
  5
107
330
1F
100
AcDbEntity
  8
DEFAULT_1
 62
   250
100
AcDbSpline
210
0.0
220
0.0
230
1.0
 70
     8
 71
     3
 72
    40
 73
    36
 74
     0
 42
0.0000000001
 43
0.0000000001
 40
0.0
 40
0.0
 40
0.0
 40
0.0
 40
0.1
 40
0.1
 40
0.1
 40
0.1
 40
0.2
 40
0.2
 40
0.2
 40
0.2
 40
0.3
 40
0.3
 40
0.3
 40
0.3
 40
0.4
 40
0.4
 40
0.4
 40
0.4
 40
0.5
 40
0.5
 40
0.5
 40
0.5
 40
0.6
 40
0.6
 40
0.6
 40
0.6
 40
0.7
 40
0.7
 40
0.7
 40
0.7
 40
0.8
 40
0.8
 40
0.8
 40
0.8
 40
1.0
 40
1.0
 40
1.0
 40
1.0
 10
19.1026
 20
-6.7242
 30
0.0
 10
19.1026
 20
-6.7242
 30
0.0
 10
19.2657
 20
-8.0396
 30
0.0
 10
19.2657
 20
-8.0396
 30
0.0
 10
19.2657
 20
-8.0396
 30
0.0
 10
19.2657
 20
-8.0396
 30
0.0
 10
19.3741
 20
-8.1783
 30
0.0
 10
19.3741
 20
-8.1783
 30
0.0
 10
19.3741
 20
-8.1783
 30
0.0
 10
19.3741
 20
-8.1783
 30
0.0
 10
19.5509
 20
-8.2164
 30
0.0
 10
19.5509
 20
-8.2164
 30
0.0
 10
19.5509
 20
-8.2164
 30
0.0
 10
19.5509
 20
-8.2164
 30
0.0
 10
19.7908
 20
-8.2164
 30
0.0
 10
19.7908
 20
-8.2164
 30
0.0
 10
19.7908
 20
-8.2164
 30
0.0
 10
19.7908
 20
-8.2164
 30
0.0
 10
19.9549
 20
-8.2036
 30
0.0
 10
19.9549
 20
-8.2036
 30
0.0
 10
19.9549
 20
-8.2036
 30
0.0
 10
19.9549
 20
-8.2036
 30
0.0
 10
20.1063
 20
-8.191
 30
0.0
 10
20.1063
 20
-8.191
 30
0.0
 10
20.1063
 20
-8.191
 30
0.0
 10
20.1063
 20
-8.191
 30
0.0
 10
20.1948
 20
-8.0266
 30
0.0
 10
20.1948
 20
-8.0266
 30
0.0
 10
20.1948
 20
-8.0266
 30
0.0
 10
20.1948
 20
-8.0266
 30
0.0
 10
20.2578
 20
-7.824
 30
0.0
 10
20.2578
 20
-7.824
 30
0.0
 10
20.2578
 20
-7.824
 30
0.0
 10
20.2578
 20
-7.824
 30
0.0
 10
20.3842
 20
-6.6913
 30
0.0
 10
20.3842
 20
-6.6913
 30
0.0
  0
SPLINE
  5
108
330
1F
100
AcDbEntity
  8
DEFAULT_1
 62
   250
100
AcDbSpline
210
0.0
220
0.0
230
1.0
 70
    24
 71
     3
 72
     8
 73
     4
 74
     0
 42
0.0000000001
 43
0.0000000001
 40
0.0
 40
0.0
 40
0.0
 40
0.0
 40
1.0
 40
1.0
 40
1.0
 40
1.0
 10
20.3892
 20
-7.1239
 30
0.0
 10
20.3892
 20
-7.1239
 30
0.0
 10
20.3892
 20
3.6529
 30
0.0
 10
20.3892
 20
3.6529
 30
0.0
  0
ENDSEC
  0
SECTION
  2
OBJECTS
  0
DICTIONARY
  5
C
330
0
100
AcDbDictionary
  3
ACAD_GROUP
350
D
  3
ACAD_LAYOUT
350
1A
  3
ACAD_MATERIAL
350
3B
  3
ACAD_MLEADERSTYLE
350
12B
  3
ACAD_MLINESTYLE
350
17
  3
ACAD_PLOTSETTINGS
350
19
  3
ACAD_VISUALSTYLE
350
2A
  3
ACDBHEADERROUNDTRIPXREC
350
109
  3
ACDBVARIABLEDICTIONARY
350
129
  0
DICTIONARY
  5
D
102
{ACAD_REACTORS
330
C
102
}
330
C
100
AcDbDictionary
  0
DICTIONARY
  5
1A
102
{ACAD_REACTORS
330
C
102
}
330
C
100
AcDbDictionary
  0
DICTIONARY
  5
3B
102
{ACAD_REACTORS
330
C
102
}
330
C
100
AcDbDictionary
  3
BYBLOCK
350
3D
  3
BYLAYER
350
3C
  3
GLOBAL
350
3E
  0
DICTIONARY
  5
12B
102
{ACAD_REACTORS
330
C
102
}
330
C
100
AcDbDictionary
  0
DICTIONARY
  5
17
102
{ACAD_REACTORS
330
C
102
}
330
C
100
AcDbDictionary
  3
STANDARD
350
18
  0
DICTIONARY
  5
19
102
{ACAD_REACTORS
330
C
102
}
330
C
100
AcDbDictionary
  0
DICTIONARY
  5
2A
102
{ACAD_REACTORS
330
C
102
}
330
C
100
AcDbDictionary
  3
2DWIREFRAME
350
2F
  3
3D_HIDDEN
350
31
  3
3DWIREFRAME
350
30
  3
BASIC
350
32
  3
BRIGHTEN
350
36
  3
COLORCHANGE
350
3A
  3
CONCEPTUAL
350
34
  3
DIM
350
35
  3
FACEPATTERN
350
39
  3
FLAT
350
2B
  3
FLATWITHEDGES
350
2C
  3
GOURAUD
350
2D
  3
GOURAUDWITHEDGES
350
2E
  3
LINEPATTERN
350
38
  3
REALISTIC
350
33
  3
THICKEN
350
37
  0
DICTIONARY
  5
109
102
{ACAD_REACTORS
330
C
102
}
330
C
100
AcDbDictionary
  3
CEPSNTYPE
350
112
  3
DIMSTYLEDATA
350
128
  3
FINGERPRINTGUID
350
113
  3
HYPERLINKBASE
350
10C
  3
INSUNITS
350
111
  3
LAYOUTDICT
350
10E
  3
LWETCUNION
350
110
  3
PLOTSETDICT
350
10F
  3
PSVPSCALE
350
115
  3
PUCSBASE
350
118
  3
PUCSORGBACK
350
11E
  3
PUCSORGBOTTOM
350
11A
  3
PUCSORGFRONT
350
11D
  3
PUCSORGLEFT
350
11B
  3
PUCSORGRIGHT
350
11C
  3
PUCSORGTOP
350
119
  3
PUCSORTHOREF
350
116
  3
PUCSORTHOVIEW
350
117
  3
STYLESHEET
350
10D
  3
TSTACKALIGN
350
10A
  3
TSTACKSIZE
350
10B
  3
UCSBASE
350
121
  3
UCSORGBACK
350
127
  3
UCSORGBOTTOM
350
123
  3
UCSORGFRONT
350
126
  3
UCSORGLEFT
350
124
  3
UCSORGRIGHT
350
125
  3
UCSORGTOP
350
122
  3
UCSORTHOREF
350
11F
  3
UCSORTHOVIEW
350
120
  3
VERSIONGUID
350
114
  0
DICTIONARY
  5
129
102
{ACAD_REACTORS
330
C
102
}
330
C
100
AcDbDictionary
  3
DIMASSOC
350
12C
  3
HIDETEXT
350
12D
  0
MATERIAL
  5
3D
102
{ACAD_REACTORS
330
3B
102
}
102
{ACAD_XDICTIONARY
360
130
102
}
330
3B
100
AcDbMaterial
  1
ByBlock
  0
MATERIAL
  5
3C
102
{ACAD_REACTORS
330
3B
102
}
102
{ACAD_XDICTIONARY
360
12E
102
}
330
3B
100
AcDbMaterial
  1
ByLayer
  0
MATERIAL
  5
3E
102
{ACAD_REACTORS
330
3B
102
}
102
{ACAD_XDICTIONARY
360
132
102
}
330
3B
100
AcDbMaterial
  1
Global
  0
MLINESTYLE
  5
18
102
{ACAD_REACTORS
330
17
102
}
330
17
100
AcDbMlineStyle
  2
Standard
 70
     0
  3

 62
   256
 51
90.0
 52
90.0
 71
     2
 49
0.5
 62
   256
  6
BYLAYER
 49
-0.5
 62
   256
  6
BYLAYER
  0
ACAD_PROXY_OBJECT
  5
2F
102
{ACAD_REACTORS
330
2A
102
}
330
2A
100
AcDbProxyObject
 90
      499
 91
      501
 93
      436
310
42CC9915DA5C99599C985B595049028333333333333E3BF0000000000000FB0107901411070040501600405405064090741402480A0340
1001
ACAD
1000
AcDbSavedByObjectVersion
1070
     0
  0
ACAD_PROXY_OBJECT
  5
31
102
{ACAD_REACTORS
330
2A
102
}
330
2A
100
AcDbProxyObject
 90
      499
 91
      501
 93
      500
310
424CD108121A5919195B90640502408333333333333E3BF0000000000000FB01079024090700405020000000000001110200405405064090740C02480A0340
1001
ACAD
1000
AcDbSavedByObjectVersion
1070
     0
  0
ACAD_PROXY_OBJECT
  5
30
102
{ACAD_REACTORS
330
2A
102
}
330
2A
100
AcDbProxyObject
 90
      499
 91
      501
 93
      436
310
42CCD915DA5C99599C985B595059028333333333333E3BF0000000000000FB0107901411070040501600405405064090741402480A0340
1001
ACAD
1000
AcDbSavedByObjectVersion
1070
     0
  0
ACAD_PROXY_OBJECT
  5
32
102
{ACAD_REACTORS
330
2A
102
}
330
2A
100
AcDbProxyObject
 90
      499
 91
      501
 93
      388
310
4150985CDA58D07406404333333333333E3BF0000000000000FB0107A41107004050150841D405064090741402480A0350
1001
ACAD
1000
AcDbSavedByObjectVersion
1070
     0
  0
ACAD_PROXY_OBJECT
  5
36
102
{ACAD_REACTORS
330
2A
102
}
330
2A
100
AcDbProxyObject
 90
      499
 91
      501
 93
      428
310
42109C9A59DA1D195B90C409028333333333333E3BF0000000000000FB010790141107004050150841D405064090741402480A029950
1001
ACAD
1000
AcDbSavedByObjectVersion
1070
     0
  0
ACAD_PROXY_OBJECT
  5
3A
102
{ACAD_REACTORS
330
2A
102
}
330
2A
100
AcDbProxyObject
 90
      499
 91
      501
 93
      452
310
42D0DBDB1BDC90DA185B99D95104090240C333333333333E3BF0000000000000FB0108901411070040501508421405064090741402480A0350
1001
ACAD
1000
AcDbSavedByObjectVersion
1070
     0
  0
ACAD_PROXY_OBJECT
  5
34
102
{ACAD_REACTORS
330
2A
102
}
330
2A
100
AcDbProxyObject
 90
      499
 91
      501
 93
      500
310
4290DBDB98D95C1D1D585B10940D028333333333333E3BF0000000000000FB0107902409070040501000000000000111010841D405064090740C02480A0340
1001
ACAD
1000
AcDbSavedByObjectVersion
1070
     0
  0
ACAD_PROXY_OBJECT
  5
35
102
{ACAD_REACTORS
330
2A
102
}
330
2A
100
AcDbProxyObject
 90
      499
 91
      501
 93
      412
310
40D11A5B50B409028333333333333E3BF0000000000000FB010790141107004050150841D405064090741402480A02677FFFFFD0
1001
ACAD
1000
AcDbSavedByObjectVersion
1070
     0
  0
ACAD_PROXY_OBJECT
  5
39
102
{ACAD_REACTORS
330
2A
102
}
330
2A
100
AcDbProxyObject
 90
      499
 91
      501
 93
      444
310
42D19858D95C185D1D195C9B90F409028333333333333E3BF0000000000000FB010790141107004050150841D405064090741402480A0350
1001
ACAD
1000
AcDbSavedByObjectVersion
1070
     0
  0
ACAD_PROXY_OBJECT
  5
2B
102
{ACAD_REACTORS
330
2A
102
}
330
2A
100
AcDbProxyObject
 90
      499
 91
      501
 93
      388
310
41119B185D240901404333333333333E3BF0000000000000F9010740A41107004050150841D405064090741402480A1B50
1001
ACAD
1000
AcDbSavedByObjectVersion
1070
     0
  0
ACAD_PROXY_OBJECT
  5
2C
102
{ACAD_REACTORS
330
2A
102
}
330
2A
100
AcDbProxyObject
 90
      499
 91
      501
 93
      476
310
43519B185D15DA5D1A115919D95CD0140901404333333333333E3BF0000000000000F9010740901411070040501600405405064090741402480A1B50
1001
ACAD
1000
AcDbSavedByObjectVersion
1070
     0
  0
ACAD_PROXY_OBJECT
  5
2D
102
{ACAD_REACTORS
330
2A
102
}
330
2A
100
AcDbProxyObject
 90
      499
 91
      501
 93
      412
310
41D1DBDD5C985D5910240902404333333333333E3BF0000000000000F9010740A411070040501641D405064090741402480A1B50
1001
ACAD
1000
AcDbSavedByObjectVersion
1070
     0
  0
ACAD_PROXY_OBJECT
  5
2E
102
{ACAD_REACTORS
330
2A
102
}
330
2A
100
AcDbProxyObject
 90
      499
 91
      501
 93
      500
310
4411DBDD5C985D5915DA5D1A115919D95CD0340902404333333333333E3BF0000000000000F9010740901411070040501600405405064090741402480A1B50
1001
ACAD
1000
AcDbSavedByObjectVersion
1070
     0
  0
ACAD_PROXY_OBJECT
  5
38
102
{ACAD_REACTORS
330
2A
102
}
330
2A
100
AcDbProxyObject
 90
      499
 91
      501
 93
      444
310
42D31A5B995C185D1D195C9B90E409028333333333333E3BF0000000000000FB010790141107004050750841D405064090741402483A0350
1001
ACAD
1000
AcDbSavedByObjectVersion
1070
     0
  0
ACAD_PROXY_OBJECT
  5
33
102
{ACAD_REACTORS
330
2A
102
}
330
2A
100
AcDbProxyObject
 90
      499
 91
      501
 93
      420
310
425499585B1A5CDD1A58D08409028333333333333E3BF0000000000000FB01079019070040501508421405064090741402480A1B40
1001
ACAD
1000
AcDbSavedByObjectVersion
1070
     0
  0
ACAD_PROXY_OBJECT
  5
37
102
{ACAD_REACTORS
330
2A
102
}
330
2A
100
AcDbProxyObject
 90
      499
 91
      501
 93
      412
310
41D51A1A58DAD95B90D409028333333333333E3BF0000000000000FB010790141107004050150C41D405064090741402480A0350
1001
ACAD
1000
AcDbSavedByObjectVersion
1070
     0
  0
XRECORD
  5
112
102
{ACAD_REACTORS
330
109
102
}
330
109
100
AcDbXrecord
 90
        0
  0
XRECORD
  5
128
102
{ACAD_REACTORS
330
109
102
}
330
109
100
AcDbXrecord
1000
DSTYLE
1002
{
1070
   340
340
11
1002
}
  0
XRECORD
  5
113
102
{ACAD_REACTORS
330
109
102
}
330
109
100
AcDbXrecord
  1
{0072A766-13A8-4F46-A4BA-1319C1146B80}
  0
XRECORD
  5
10C
102
{ACAD_REACTORS
330
109
102
}
330
109
100
AcDbXrecord
  1

  0
XRECORD
  5
111
102
{ACAD_REACTORS
330
109
102
}
330
109
100
AcDbXrecord
 90
        4
  0
XRECORD
  5
10E
102
{ACAD_REACTORS
330
109
102
}
330
109
100
AcDbXrecord
340
1A
  0
XRECORD
  5
110
102
{ACAD_REACTORS
330
109
102
}
330
109
100
AcDbXrecord
 90
    10781
  0
XRECORD
  5
10F
102
{ACAD_REACTORS
330
109
102
}
330
109
100
AcDbXrecord
340
19
  0
XRECORD
  5
115
102
{ACAD_REACTORS
330
109
102
}
330
109
100
AcDbXrecord
 40
0.0
  0
XRECORD
  5
118
102
{ACAD_REACTORS
330
109
102
}
330
109
100
AcDbXrecord
340
0
  0
XRECORD
  5
11E
102
{ACAD_REACTORS
330
109
102
}
330
109
100
AcDbXrecord
 10
0.0
 20
0.0
 30
0.0
  0
XRECORD
  5
11A
102
{ACAD_REACTORS
330
109
102
}
330
109
100
AcDbXrecord
 10
0.0
 20
0.0
 30
0.0
  0
XRECORD
  5
11D
102
{ACAD_REACTORS
330
109
102
}
330
109
100
AcDbXrecord
 10
0.0
 20
0.0
 30
0.0
  0
XRECORD
  5
11B
102
{ACAD_REACTORS
330
109
102
}
330
109
100
AcDbXrecord
 10
0.0
 20
0.0
 30
0.0
  0
XRECORD
  5
11C
102
{ACAD_REACTORS
330
109
102
}
330
109
100
AcDbXrecord
 10
0.0
 20
0.0
 30
0.0
  0
XRECORD
  5
119
102
{ACAD_REACTORS
330
109
102
}
330
109
100
AcDbXrecord
 10
0.0
 20
0.0
 30
0.0
  0
XRECORD
  5
116
102
{ACAD_REACTORS
330
109
102
}
330
109
100
AcDbXrecord
340
0
  0
XRECORD
  5
117
102
{ACAD_REACTORS
330
109
102
}
330
109
100
AcDbXrecord
 70
     0
  0
XRECORD
  5
10D
102
{ACAD_REACTORS
330
109
102
}
330
109
100
AcDbXrecord
  1

  0
XRECORD
  5
10A
102
{ACAD_REACTORS
330
109
102
}
330
109
100
AcDbXrecord
 90
        1
  0
XRECORD
  5
10B
102
{ACAD_REACTORS
330
109
102
}
330
109
100
AcDbXrecord
 90
       70
  0
XRECORD
  5
121
102
{ACAD_REACTORS
330
109
102
}
330
109
100
AcDbXrecord
340
0
  0
XRECORD
  5
127
102
{ACAD_REACTORS
330
109
102
}
330
109
100
AcDbXrecord
 10
0.0
 20
0.0
 30
0.0
  0
XRECORD
  5
123
102
{ACAD_REACTORS
330
109
102
}
330
109
100
AcDbXrecord
 10
0.0
 20
0.0
 30
0.0
  0
XRECORD
  5
126
102
{ACAD_REACTORS
330
109
102
}
330
109
100
AcDbXrecord
 10
0.0
 20
0.0
 30
0.0
  0
XRECORD
  5
124
102
{ACAD_REACTORS
330
109
102
}
330
109
100
AcDbXrecord
 10
0.0
 20
0.0
 30
0.0
  0
XRECORD
  5
125
102
{ACAD_REACTORS
330
109
102
}
330
109
100
AcDbXrecord
 10
0.0
 20
0.0
 30
0.0
  0
XRECORD
  5
122
102
{ACAD_REACTORS
330
109
102
}
330
109
100
AcDbXrecord
 10
0.0
 20
0.0
 30
0.0
  0
XRECORD
  5
11F
102
{ACAD_REACTORS
330
109
102
}
330
109
100
AcDbXrecord
340
0
  0
XRECORD
  5
120
102
{ACAD_REACTORS
330
109
102
}
330
109
100
AcDbXrecord
 70
     0
  0
XRECORD
  5
114
102
{ACAD_REACTORS
330
109
102
}
330
109
100
AcDbXrecord
  1
{FAEB1C32-E019-11D5-929B-00C0DF256EC4}
  0
DICTIONARYVAR
  5
12C
102
{ACAD_REACTORS
330
129
102
}
330
129
100
DictionaryVariables
280
     0
  1
2
  0
DICTIONARYVAR
  5
12D
102
{ACAD_REACTORS
330
129
102
}
330
129
100
DictionaryVariables
280
     0
  1
1
  0
DICTIONARY
  5
130
330
3D
100
AcDbDictionary
280
     1
  3
ACAD_XREC_ROUNDTRIP
360
131
  0
DICTIONARY
  5
12E
330
3C
100
AcDbDictionary
280
     1
  3
ACAD_XREC_ROUNDTRIP
360
12F
  0
DICTIONARY
  5
132
330
3E
100
AcDbDictionary
280
     1
  3
ACAD_XREC_ROUNDTRIP
360
133
  0
XRECORD
  5
131
102
{ACAD_REACTORS
330
130
102
}
330
130
100
AcDbXrecord
102
MATERIAL
148
0.0
149
0.0
149
0.0
 93
        0
 94
      127
282
     0
 72
     1
 77
     1
171
     1
175
     1
179
     1
273
     0
  0
XRECORD
  5
12F
102
{ACAD_REACTORS
330
12E
102
}
330
12E
100
AcDbXrecord
102
MATERIAL
148
0.0
149
0.0
149
0.0
 93
        0
 94
      127
282
     0
 72
     1
 77
     1
171
     1
175
     1
179
     1
273
     0
  0
XRECORD
  5
133
102
{ACAD_REACTORS
330
132
102
}
330
132
100
AcDbXrecord
102
MATERIAL
148
0.0
149
0.0
149
0.0
 93
        0
 94
      127
282
     0
 72
     1
 77
     1
171
     1
175
     1
179
     1
273
     0
  0
ENDSEC
  0
EOF
