  0
SECTION
  2
HEADER
  9
$ACADVER
  1
AC1015
  9
$ACADMAINTVER
 70
     6
  9
$DWGCODEPAGE
  3
ANSI_1250
  9
$INSBASE
 10
0.0
 20
0.0
 30
0.0
  9
$EXTMIN
 10
-32.3928
 20
-10.8895
 30
0.0
  9
$EXTMAX
 10
32.4044
 20
10.8956
 30
0.0
  9
$LIMMIN
 10
0.0
 20
0.0
  9
$LIMMAX
 10
12.0
 20
9.0
  9
$ORTHOMODE
 70
     0
  9
$REGENMODE
 70
     1
  9
$FILLMODE
 70
     1
  9
$QTEXTMODE
 70
     0
  9
$MIRRTEXT
 70
     1
  9
$LTSCALE
 40
1.0
  9
$ATTMODE
 70
     1
  9
$TEXTSIZE
 40
0.2
  9
$TRACEWID
 40
0.05
  9
$TEXTSTYLE
  7
Standard
  9
$CLAYER
  8
0
  9
$CELTYPE
  6
ByLayer
  9
$CECOLOR
 62
   256
  9
$CELTSCALE
 40
1.0
  9
$DISPSILH
 70
     0
  9
$DIMSCALE
 40
1.0
  9
$DIMASZ
 40
0.18
  9
$DIMEXO
 40
0.0625
  9
$DIMDLI
 40
0.38
  9
$DIMRND
 40
0.0
  9
$DIMDLE
 40
0.0
  9
$DIMEXE
 40
0.18
  9
$DIMTP
 40
0.0
  9
$DIMTM
 40
0.0
  9
$DIMTXT
 40
0.18
  9
$DIMCEN
 40
0.09
  9
$DIMTSZ
 40
0.0
  9
$DIMTOL
 70
     0
  9
$DIMLIM
 70
     0
  9
$DIMTIH
 70
     1
  9
$DIMTOH
 70
     1
  9
$DIMSE1
 70
     0
  9
$DIMSE2
 70
     0
  9
$DIMTAD
 70
     0
  9
$DIMZIN
 70
     0
  9
$DIMBLK
  1

  9
$DIMASO
 70
     1
  9
$DIMSHO
 70
     1
  9
$DIMPOST
  1

  9
$DIMAPOST
  1

  9
$DIMALT
 70
     0
  9
$DIMALTD
 70
     2
  9
$DIMALTF
 40
25.4
  9
$DIMLFAC
 40
1.0
  9
$DIMTOFL
 70
     0
  9
$DIMTVP
 40
0.0
  9
$DIMTIX
 70
     0
  9
$DIMSOXD
 70
     0
  9
$DIMSAH
 70
     0
  9
$DIMBLK1
  1

  9
$DIMBLK2
  1

  9
$DIMSTYLE
  2
Standard
  9
$DIMCLRD
 70
     0
  9
$DIMCLRE
 70
     0
  9
$DIMCLRT
 70
     0
  9
$DIMTFAC
 40
1.0
  9
$DIMGAP
 40
0.09
  9
$DIMJUST
 70
     0
  9
$DIMSD1
 70
     0
  9
$DIMSD2
 70
     0
  9
$DIMTOLJ
 70
     1
  9
$DIMTZIN
 70
     0
  9
$DIMALTZ
 70
     0
  9
$DIMALTTZ
 70
     0
  9
$DIMUPT
 70
     0
  9
$DIMDEC
 70
     4
  9
$DIMTDEC
 70
     4
  9
$DIMALTU
 70
     2
  9
$DIMALTTD
 70
     2
  9
$DIMTXSTY
  7
Standard
  9
$DIMAUNIT
 70
     0
  9
$DIMADEC
 70
     0
  9
$DIMALTRND
 40
0.0
  9
$DIMAZIN
 70
     0
  9
$DIMDSEP
 70
    46
  9
$DIMATFIT
 70
     3
  9
$DIMFRAC
 70
     0
  9
$DIMLDRBLK
  1

  9
$DIMLUNIT
 70
     2
  9
$DIMLWD
 70
    -2
  9
$DIMLWE
 70
    -2
  9
$DIMTMOVE
 70
     0
  9
$LUNITS
 70
     2
  9
$LUPREC
 70
     4
  9
$SKETCHINC
 40
0.1
  9
$FILLETRAD
 40
0.5
  9
$AUNITS
 70
     0
  9
$AUPREC
 70
     0
  9
$MENU
  1
.
  9
$ELEVATION
 40
0.0
  9
$PELEVATION
 40
0.0
  9
$THICKNESS
 40
0.0
  9
$LIMCHECK
 70
     0
  9
$CHAMFERA
 40
0.5
  9
$CHAMFERB
 40
0.5
  9
$CHAMFERC
 40
1.0
  9
$CHAMFERD
 40
0.0
  9
$SKPOLY
 70
     0
  9
$TDCREATE
 40
2458059.375257188
  9
$TDUCREATE
 40
2458059.333590521
  9
$TDUPDATE
 40
2458059.375257199
  9
$TDUUPDATE
 40
2458059.333590532
  9
$TDINDWG
 40
0.0000000116
  9
$TDUSRTIMER
 40
0.0000000116
  9
$USRTIMER
 70
     1
  9
$ANGBASE
 50
0.0
  9
$ANGDIR
 70
     0
  9
$PDMODE
 70
     0
  9
$PDSIZE
 40
0.0
  9
$PLINEWID
 40
0.0
  9
$SPLFRAME
 70
     0
  9
$SPLINETYPE
 70
     6
  9
$SPLINESEGS
 70
     8
  9
$HANDSEED
  5
11F
  9
$SURFTAB1
 70
     6
  9
$SURFTAB2
 70
     6
  9
$SURFTYPE
 70
     6
  9
$SURFU
 70
     6
  9
$SURFV
 70
     6
  9
$UCSBASE
  2

  9
$UCSNAME
  2

  9
$UCSORG
 10
0.0
 20
0.0
 30
0.0
  9
$UCSXDIR
 10
1.0
 20
0.0
 30
0.0
  9
$UCSYDIR
 10
0.0
 20
1.0
 30
0.0
  9
$UCSORTHOREF
  2

  9
$UCSORTHOVIEW
 70
     0
  9
$UCSORGTOP
 10
0.0
 20
0.0
 30
0.0
  9
$UCSORGBOTTOM
 10
0.0
 20
0.0
 30
0.0
  9
$UCSORGLEFT
 10
0.0
 20
0.0
 30
0.0
  9
$UCSORGRIGHT
 10
0.0
 20
0.0
 30
0.0
  9
$UCSORGFRONT
 10
0.0
 20
0.0
 30
0.0
  9
$UCSORGBACK
 10
0.0
 20
0.0
 30
0.0
  9
$PUCSBASE
  2

  9
$PUCSNAME
  2

  9
$PUCSORG
 10
0.0
 20
0.0
 30
0.0
  9
$PUCSXDIR
 10
1.0
 20
0.0
 30
0.0
  9
$PUCSYDIR
 10
0.0
 20
1.0
 30
0.0
  9
$PUCSORTHOREF
  2

  9
$PUCSORTHOVIEW
 70
     0
  9
$PUCSORGTOP
 10
0.0
 20
0.0
 30
0.0
  9
$PUCSORGBOTTOM
 10
0.0
 20
0.0
 30
0.0
  9
$PUCSORGLEFT
 10
0.0
 20
0.0
 30
0.0
  9
$PUCSORGRIGHT
 10
0.0
 20
0.0
 30
0.0
  9
$PUCSORGFRONT
 10
0.0
 20
0.0
 30
0.0
  9
$PUCSORGBACK
 10
0.0
 20
0.0
 30
0.0
  9
$USERI1
 70
     0
  9
$USERI2
 70
     0
  9
$USERI3
 70
     0
  9
$USERI4
 70
     0
  9
$USERI5
 70
     0
  9
$USERR1
 40
0.0
  9
$USERR2
 40
0.0
  9
$USERR3
 40
0.0
  9
$USERR4
 40
0.0
  9
$USERR5
 40
0.0
  9
$WORLDVIEW
 70
     1
  9
$SHADEDGE
 70
     3
  9
$SHADEDIF
 70
    70
  9
$TILEMODE
 70
     1
  9
$MAXACTVP
 70
    64
  9
$PINSBASE
 10
0.0
 20
0.0
 30
0.0
  9
$PLIMCHECK
 70
     0
  9
$PEXTMIN
 10
1.000000000000000E+20
 20
1.000000000000000E+20
 30
1.000000000000000E+20
  9
$PEXTMAX
 10
-1.000000000000000E+20
 20
-1.000000000000000E+20
 30
-1.000000000000000E+20
  9
$PLIMMIN
 10
0.0
 20
0.0
  9
$PLIMMAX
 10
12.0
 20
9.0
  9
$UNITMODE
 70
     0
  9
$VISRETAIN
 70
     1
  9
$PLINEGEN
 70
     0
  9
$PSLTSCALE
 70
     1
  9
$TREEDEPTH
 70
  3020
  9
$CMLSTYLE
  2
Standard
  9
$CMLJUST
 70
     0
  9
$CMLSCALE
 40
1.0
  9
$PROXYGRAPHICS
 70
     1
  9
$MEASUREMENT
 70
     0
  9
$CELWEIGHT
370
    -1
  9
$ENDCAPS
280
     0
  9
$JOINSTYLE
280
     0
  9
$LWDISPLAY
290
     0
  9
$INSUNITS
 70
     4
  9
$HYPERLINKBASE
  1

  9
$STYLESHEET
  1

  9
$XEDIT
290
     1
  9
$CEPSNTYPE
380
     0
  9
$PSTYLEMODE
290
     1
  9
$FINGERPRINTGUID
  2
{8306A18B-568C-4F4B-AA12-FC6BEFC321D8}
  9
$VERSIONGUID
  2
{FAEB1C32-E019-11D5-929B-00C0DF256EC4}
  9
$EXTNAMES
290
     1
  9
$PSVPSCALE
 40
0.0
  9
$OLESTARTUP
290
     0
  0
ENDSEC
  0
SECTION
  2
CLASSES
  0
CLASS
  1
ACDBDICTIONARYWDFLT
  2
AcDbDictionaryWithDefault
  3
ObjectDBX Classes
 90
        0
280
     0
281
     0
  0
CLASS
  1
VISUALSTYLE
  2
AcDbVisualStyle
  3
ObjectDBX Classes
 90
     4095
280
     0
281
     0
  0
CLASS
  1
MATERIAL
  2
AcDbMaterial
  3
ObjectDBX Classes
 90
     1153
280
     0
281
     0
  0
CLASS
  1
DICTIONARYVAR
  2
AcDbDictionaryVar
  3
ObjectDBX Classes
 90
        0
280
     0
281
     0
  0
CLASS
  1
ACDBPLACEHOLDER
  2
AcDbPlaceHolder
  3
ObjectDBX Classes
 90
        0
280
     0
281
     0
  0
CLASS
  1
LAYOUT
  2
AcDbLayout
  3
ObjectDBX Classes
 90
        0
280
     0
281
     0
  0
ENDSEC
  0
SECTION
  2
TABLES
  0
TABLE
  2
VPORT
  5
8
330
0
100
AcDbSymbolTable
 70
     1
  0
VPORT
  5
29
330
8
100
AcDbSymbolTableRecord
100
AcDbViewportTableRecord
  2
*Active
 70
     0
 10
0.0
 20
0.0
 11
1.0
 21
1.0
 12
10.42990654205607
 22
4.5
 13
0.0
 23
0.0
 14
0.5
 24
0.5
 15
0.5
 25
0.5
 16
0.0
 26
0.0
 36
1.0
 17
0.0
 27
0.0
 37
0.0
 40
9.0
 41
1.972972972850329
 42
50.0
 43
0.0
 44
0.0
 50
0.0
 51
0.0
 71
     0
 72
   100
 73
     1
 74
     3
 75
     0
 76
     0
 77
     0
 78
     0
281
     0
 65
     1
110
0.0
120
0.0
130
0.0
111
1.0
121
0.0
131
0.0
112
0.0
122
1.0
132
0.0
 79
     0
146
0.0
  0
ENDTAB
  0
TABLE
  2
LTYPE
  5
5
330
0
100
AcDbSymbolTable
 70
    10
  0
LTYPE
  5
14
330
5
100
AcDbSymbolTableRecord
100
AcDbLinetypeTableRecord
  2
ByBlock
 70
     0
  3

 72
    65
 73
     0
 40
0.0
  0
LTYPE
  5
15
330
5
100
AcDbSymbolTableRecord
100
AcDbLinetypeTableRecord
  2
ByLayer
 70
     0
  3

 72
    65
 73
     0
 40
0.0
  0
LTYPE
  5
16
330
5
100
AcDbSymbolTableRecord
100
AcDbLinetypeTableRecord
  2
Continuous
 70
     0
  3
Solid line
 72
    65
 73
     0
 40
0.0
  0
LTYPE
  5
B8
330
5
100
AcDbSymbolTableRecord
100
AcDbLinetypeTableRecord
  2
New Line1
 70
     0
  3

 72
    65
 73
     4
 40
1.2
 49
0.5
 74
     4
 75
     0
340
0
 46
1.0
 50
0.0
 44
0.0
 45
0.0
 49
-0.3
 74
     4
 75
     0
340
0
 46
1.0
 50
0.0
 44
0.0
 45
0.0
 49
0.1
 74
     4
 75
     0
340
0
 46
1.0
 50
0.0
 44
0.0
 45
0.0
 49
-0.3
 74
     4
 75
     0
340
0
 46
1.0
 50
0.0
 44
0.0
 45
0.0
  0
LTYPE
  5
C0
330
5
100
AcDbSymbolTableRecord
100
AcDbLinetypeTableRecord
  2
New Line2
 70
     0
  3

 72
    65
 73
     4
 40
1.2
 49
0.5
 74
     4
 75
     0
340
0
 46
1.0
 50
0.0
 44
0.0
 45
0.0
 49
-0.3
 74
     4
 75
     0
340
0
 46
1.0
 50
0.0
 44
0.0
 45
0.0
 49
0.1
 74
     4
 75
     0
340
0
 46
1.0
 50
0.0
 44
0.0
 45
0.0
 49
-0.3
 74
     4
 75
     0
340
0
 46
1.0
 50
0.0
 44
0.0
 45
0.0
  0
LTYPE
  5
C2
330
5
100
AcDbSymbolTableRecord
100
AcDbLinetypeTableRecord
  2
New Line3
 70
     0
  3

 72
    65
 73
     4
 40
1.2
 49
0.5
 74
     4
 75
     0
340
0
 46
1.0
 50
0.0
 44
0.0
 45
0.0
 49
-0.3
 74
     4
 75
     0
340
0
 46
1.0
 50
0.0
 44
0.0
 45
0.0
 49
0.1
 74
     4
 75
     0
340
0
 46
1.0
 50
0.0
 44
0.0
 45
0.0
 49
-0.3
 74
     4
 75
     0
340
0
 46
1.0
 50
0.0
 44
0.0
 45
0.0
  0
LTYPE
  5
D1
330
5
100
AcDbSymbolTableRecord
100
AcDbLinetypeTableRecord
  2
New Line4
 70
     0
  3

 72
    65
 73
     4
 40
1.2
 49
0.5
 74
     4
 75
     0
340
0
 46
1.0
 50
0.0
 44
0.0
 45
0.0
 49
-0.3
 74
     4
 75
     0
340
0
 46
1.0
 50
0.0
 44
0.0
 45
0.0
 49
0.1
 74
     4
 75
     0
340
0
 46
1.0
 50
0.0
 44
0.0
 45
0.0
 49
-0.3
 74
     4
 75
     0
340
0
 46
1.0
 50
0.0
 44
0.0
 45
0.0
  0
LTYPE
  5
DA
330
5
100
AcDbSymbolTableRecord
100
AcDbLinetypeTableRecord
  2
New Line5
 70
     0
  3

 72
    65
 73
     4
 40
1.2
 49
0.5
 74
     4
 75
     0
340
0
 46
1.0
 50
0.0
 44
0.0
 45
0.0
 49
-0.3
 74
     4
 75
     0
340
0
 46
1.0
 50
0.0
 44
0.0
 45
0.0
 49
0.1
 74
     4
 75
     0
340
0
 46
1.0
 50
0.0
 44
0.0
 45
0.0
 49
-0.3
 74
     4
 75
     0
340
0
 46
1.0
 50
0.0
 44
0.0
 45
0.0
  0
LTYPE
  5
DC
330
5
100
AcDbSymbolTableRecord
100
AcDbLinetypeTableRecord
  2
New Line6
 70
     0
  3

 72
    65
 73
     4
 40
1.2
 49
0.5
 74
     4
 75
     0
340
0
 46
1.0
 50
0.0
 44
0.0
 45
0.0
 49
-0.3
 74
     4
 75
     0
340
0
 46
1.0
 50
0.0
 44
0.0
 45
0.0
 49
0.1
 74
     4
 75
     0
340
0
 46
1.0
 50
0.0
 44
0.0
 45
0.0
 49
-0.3
 74
     4
 75
     0
340
0
 46
1.0
 50
0.0
 44
0.0
 45
0.0
  0
LTYPE
  5
DE
330
5
100
AcDbSymbolTableRecord
100
AcDbLinetypeTableRecord
  2
New Line7
 70
     0
  3

 72
    65
 73
     4
 40
1.2
 49
0.5
 74
     4
 75
     0
340
0
 46
1.0
 50
0.0
 44
0.0
 45
0.0
 49
-0.3
 74
     4
 75
     0
340
0
 46
1.0
 50
0.0
 44
0.0
 45
0.0
 49
0.1
 74
     4
 75
     0
340
0
 46
1.0
 50
0.0
 44
0.0
 45
0.0
 49
-0.3
 74
     4
 75
     0
340
0
 46
1.0
 50
0.0
 44
0.0
 45
0.0
  0
LTYPE
  5
E0
330
5
100
AcDbSymbolTableRecord
100
AcDbLinetypeTableRecord
  2
New Line8
 70
     0
  3

 72
    65
 73
     4
 40
1.2
 49
0.5
 74
     4
 75
     0
340
0
 46
1.0
 50
0.0
 44
0.0
 45
0.0
 49
-0.3
 74
     4
 75
     0
340
0
 46
1.0
 50
0.0
 44
0.0
 45
0.0
 49
0.1
 74
     4
 75
     0
340
0
 46
1.0
 50
0.0
 44
0.0
 45
0.0
 49
-0.3
 74
     4
 75
     0
340
0
 46
1.0
 50
0.0
 44
0.0
 45
0.0
  0
LTYPE
  5
E2
330
5
100
AcDbSymbolTableRecord
100
AcDbLinetypeTableRecord
  2
New Line9
 70
     0
  3

 72
    65
 73
     4
 40
1.2
 49
0.5
 74
     4
 75
     0
340
0
 46
1.0
 50
0.0
 44
0.0
 45
0.0
 49
-0.3
 74
     4
 75
     0
340
0
 46
1.0
 50
0.0
 44
0.0
 45
0.0
 49
0.1
 74
     4
 75
     0
340
0
 46
1.0
 50
0.0
 44
0.0
 45
0.0
 49
-0.3
 74
     4
 75
     0
340
0
 46
1.0
 50
0.0
 44
0.0
 45
0.0
  0
ENDTAB
  0
TABLE
  2
LAYER
  5
2
330
0
100
AcDbSymbolTable
 70
     2
  0
LAYER
  5
10
330
2
100
AcDbSymbolTableRecord
100
AcDbLayerTableRecord
  2
0
 70
     0
 62
     7
  6
Continuous
370
    -3
390
F
  0
LAYER
  5
40
330
2
100
AcDbSymbolTableRecord
100
AcDbLayerTableRecord
  2
Standard layer
 70
     0
 62
     7
  6
Continuous
370
    -3
390
F
  0
ENDTAB
  0
TABLE
  2
STYLE
  5
3
330
0
100
AcDbSymbolTable
 70
     1
  0
STYLE
  5
11
330
3
100
AcDbSymbolTableRecord
100
AcDbTextStyleTableRecord
  2
Standard
 70
     0
 40
0.0
 41
1.0
 50
0.0
 71
     0
 42
0.2
  3
txt
  4

  0
ENDTAB
  0
TABLE
  2
VIEW
  5
6
330
0
100
AcDbSymbolTable
 70
     0
  0
ENDTAB
  0
TABLE
  2
UCS
  5
7
330
0
100
AcDbSymbolTable
 70
     0
  0
ENDTAB
  0
TABLE
  2
APPID
  5
9
330
0
100
AcDbSymbolTable
 70
     2
  0
APPID
  5
12
330
9
100
AcDbSymbolTableRecord
100
AcDbRegAppTableRecord
  2
ACAD
 70
     0
  0
APPID
  5
3F
330
9
100
AcDbSymbolTableRecord
100
AcDbRegAppTableRecord
  2
ODA
 70
     0
  0
ENDTAB
  0
TABLE
  2
DIMSTYLE
  5
A
330
0
100
AcDbSymbolTable
 70
     1
100
AcDbDimStyleTable
  0
DIMSTYLE
105
27
330
A
100
AcDbSymbolTableRecord
100
AcDbDimStyleTableRecord
  2
Standard
 70
     0
340
11
  0
ENDTAB
  0
TABLE
  2
BLOCK_RECORD
  5
1
330
0
100
AcDbSymbolTable
 70
     1
  0
BLOCK_RECORD
  5
1F
330
1
100
AcDbSymbolTableRecord
100
AcDbBlockTableRecord
  2
*Model_Space
340
22
  0
BLOCK_RECORD
  5
1B
330
1
100
AcDbSymbolTableRecord
100
AcDbBlockTableRecord
  2
*Paper_Space
340
1E
  0
BLOCK_RECORD
  5
23
330
1
100
AcDbSymbolTableRecord
100
AcDbBlockTableRecord
  2
*Paper_Space0
340
26
  0
ENDTAB
  0
ENDSEC
  0
SECTION
  2
BLOCKS
  0
BLOCK
  5
20
330
1F
100
AcDbEntity
  8
0
100
AcDbBlockBegin
  2
*Model_Space
 70
     0
 10
0.0
 20
0.0
 30
0.0
  3
*Model_Space
  1

  0
ENDBLK
  5
21
330
1F
100
AcDbEntity
  8
0
100
AcDbBlockEnd
  0
BLOCK
  5
1C
330
1B
100
AcDbEntity
 67
     1
  8
0
100
AcDbBlockBegin
  2
*Paper_Space
 70
     0
 10
0.0
 20
0.0
 30
0.0
  3
*Paper_Space
  1

  0
ENDBLK
  5
1D
330
1B
100
AcDbEntity
 67
     1
  8
0
100
AcDbBlockEnd
  0
BLOCK
  5
24
330
23
100
AcDbEntity
  8
0
100
AcDbBlockBegin
  2
*Paper_Space0
 70
     0
 10
0.0
 20
0.0
 30
0.0
  3
*Paper_Space0
  1

  0
ENDBLK
  5
25
330
23
100
AcDbEntity
  8
0
100
AcDbBlockEnd
  0
ENDSEC
  0
SECTION
  2
ENTITIES
  0
SPLINE
  5
41
330
1F
100
AcDbEntity
  8
Standard layer
 62
   250
370
    30
100
AcDbSpline
210
0.0
220
0.0
230
1.0
 70
    24
 71
     3
 72
     8
 73
     4
 74
     0
 42
0.0000000001
 43
0.0000000001
 40
0.0
 40
0.0
 40
0.0
 40
0.0
 40
1.0
 40
1.0
 40
1.0
 40
1.0
 10
-2.8929
 20
-6.4885
 30
0.0
 10
-2.8929
 20
-6.4885
 30
0.0
 10
-2.8763
 20
-6.4885
 30
0.0
 10
-2.8763
 20
-6.4885
 30
0.0
  0
SPLINE
  5
42
330
1F
100
AcDbEntity
  8
Standard layer
 62
   250
370
    30
100
AcDbSpline
210
0.0
220
0.0
230
1.0
 70
    24
 71
     3
 72
     8
 73
     4
 74
     0
 42
0.0000000001
 43
0.0000000001
 40
0.0
 40
0.0
 40
0.0
 40
0.0
 40
1.0
 40
1.0
 40
1.0
 40
1.0
 10
24.7029
 20
-6.4885
 30
0.0
 10
24.7029
 20
-6.4885
 30
0.0
 10
-2.895
 20
-6.4885
 30
0.0
 10
-2.895
 20
-6.4885
 30
0.0
  0
SPLINE
  5
43
330
1F
100
AcDbEntity
  8
Standard layer
 62
   250
370
    30
100
AcDbSpline
210
0.0
220
0.0
230
1.0
 70
    24
 71
     3
 72
     8
 73
     4
 74
     0
 42
0.0000000001
 43
0.0000000001
 40
0.0
 40
0.0
 40
0.0
 40
0.0
 40
1.0
 40
1.0
 40
1.0
 40
1.0
 10
24.7049
 20
-6.4885
 30
0.0
 10
24.7049
 20
-6.4885
 30
0.0
 10
19.185
 20
-6.4885
 30
0.0
 10
19.185
 20
-6.4885
 30
0.0
  0
SPLINE
  5
44
330
1F
100
AcDbEntity
  8
Standard layer
 62
   250
370
    30
100
AcDbSpline
210
0.0
220
0.0
230
1.0
 70
    24
 71
     3
 72
     8
 73
     4
 74
     0
 42
0.0000000001
 43
0.0000000001
 40
0.0
 40
0.0
 40
0.0
 40
0.0
 40
1.0
 40
1.0
 40
1.0
 40
1.0
 10
2.2377
 20
-1.4975
 30
0.0
 10
2.2377
 20
-1.4975
 30
0.0
 10
18.8168
 20
-1.4975
 30
0.0
 10
18.8168
 20
-1.4975
 30
0.0
  0
SPLINE
  5
45
330
1F
100
AcDbEntity
  8
Standard layer
 62
   250
370
    30
100
AcDbSpline
210
0.0
220
0.0
230
1.0
 70
    24
 71
     3
 72
     8
 73
     4
 74
     0
 42
0.0000000001
 43
0.0000000001
 40
0.0
 40
0.0
 40
0.0
 40
0.0
 40
1.0
 40
1.0
 40
1.0
 40
1.0
 10
13.6649
 20
-1.4975
 30
0.0
 10
13.6649
 20
-1.4975
 30
0.0
 10
2.6249
 20
-1.4975
 30
0.0
 10
2.6249
 20
-1.4975
 30
0.0
  0
SPLINE
  5
46
330
1F
100
AcDbEntity
  8
Standard layer
 62
   250
370
    30
100
AcDbSpline
210
0.0
220
0.0
230
1.0
 70
    24
 71
     3
 72
     8
 73
     4
 74
     0
 42
0.0000000001
 43
0.0000000001
 40
0.0
 40
0.0
 40
0.0
 40
0.0
 40
1.0
 40
1.0
 40
1.0
 40
1.0
 10
19.185
 20
-1.4975
 30
0.0
 10
19.185
 20
-1.4975
 30
0.0
 10
2.6249
 20
-1.4975
 30
0.0
 10
2.6249
 20
-1.4975
 30
0.0
  0
SPLINE
  5
47
330
1F
100
AcDbEntity
  8
Standard layer
 62
   250
370
    30
100
AcDbSpline
210
0.0
220
0.0
230
1.0
 70
    24
 71
     3
 72
     8
 73
     4
 74
     0
 42
0.0000000001
 43
0.0000000001
 40
0.0
 40
0.0
 40
0.0
 40
0.0
 40
1.0
 40
1.0
 40
1.0
 40
1.0
 10
4.3114
 20
-1.4975
 30
0.0
 10
4.3114
 20
-1.4975
 30
0.0
 10
13.6649
 20
-1.4975
 30
0.0
 10
13.6649
 20
-1.4975
 30
0.0
  0
SPLINE
  5
48
330
1F
100
AcDbEntity
  8
Standard layer
 62
   250
370
    30
100
AcDbSpline
210
0.0
220
0.0
230
1.0
 70
    24
 71
     3
 72
     8
 73
     4
 74
     0
 42
0.0000000001
 43
0.0000000001
 40
0.0
 40
0.0
 40
0.0
 40
0.0
 40
1.0
 40
1.0
 40
1.0
 40
1.0
 10
4.622
 20
-1.4975
 30
0.0
 10
4.622
 20
-1.4975
 30
0.0
 10
13.6649
 20
-1.4975
 30
0.0
 10
13.6649
 20
-1.4975
 30
0.0
  0
SPLINE
  5
49
330
1F
100
AcDbEntity
  8
Standard layer
 62
   250
370
    30
100
AcDbSpline
210
0.0
220
0.0
230
1.0
 70
     8
 71
     3
 72
    16
 73
    12
 74
     0
 42
0.0000000001
 43
0.0000000001
 40
0.0
 40
0.0
 40
0.0
 40
0.0
 40
0.25
 40
0.25
 40
0.25
 40
0.25
 40
0.5
 40
0.5
 40
0.5
 40
0.5
 40
1.0
 40
1.0
 40
1.0
 40
1.0
 10
24.7049
 20
-6.4885
 30
0.0
 10
24.7049
 20
-6.4885
 30
0.0
 10
24.7049
 20
-6.2286
 30
0.0
 10
24.7049
 20
-6.2286
 30
0.0
 10
24.7049
 20
-6.2286
 30
0.0
 10
24.7049
 20
-6.2286
 30
0.0
 10
24.7049
 20
-5.9687
 30
0.0
 10
24.7049
 20
-5.9687
 30
0.0
 10
24.7049
 20
-5.9687
 30
0.0
 10
24.7049
 20
-5.9687
 30
0.0
 10
24.7041
 20
-5.9591
 30
0.0
 10
24.7041
 20
-5.9591
 30
0.0
  0
SPLINE
  5
4A
330
1F
100
AcDbEntity
  8
Standard layer
 62
   250
370
    30
100
AcDbSpline
210
0.0
220
0.0
230
1.0
 70
     8
 71
     3
 72
     8
 73
     4
 74
     0
 42
0.0000000001
 43
0.0000000001
 40
0.0
 40
0.0
 40
0.0
 40
0.0
 40
1.0
 40
1.0
 40
1.0
 40
1.0
 10
24.7041
 20
-5.9591
 30
0.0
 10
24.6994
 20
-5.933
 30
0.0
 10
24.6762
 20
-5.9135
 30
0.0
 10
24.6498
 20
-5.9135
 30
0.0
  0
SPLINE
  5
4B
330
1F
100
AcDbEntity
  8
Standard layer
 62
   250
370
    30
100
AcDbSpline
210
0.0
220
0.0
230
1.0
 70
    24
 71
     3
 72
    16
 73
    12
 74
     0
 42
0.0000000001
 43
0.0000000001
 40
0.0
 40
0.0
 40
0.0
 40
0.0
 40
0.25
 40
0.25
 40
0.25
 40
0.25
 40
0.5
 40
0.5
 40
0.5
 40
0.5
 40
1.0
 40
1.0
 40
1.0
 40
1.0
 10
24.6498
 20
-5.9135
 30
0.0
 10
24.6498
 20
-5.9135
 30
0.0
 10
24.2817
 20
-5.9135
 30
0.0
 10
24.2817
 20
-5.9135
 30
0.0
 10
24.2817
 20
-5.9135
 30
0.0
 10
24.2817
 20
-5.9135
 30
0.0
 10
-2.4718
 20
-5.9135
 30
0.0
 10
-2.4718
 20
-5.9135
 30
0.0
 10
-2.4718
 20
-5.9135
 30
0.0
 10
-2.4718
 20
-5.9135
 30
0.0
 10
-2.8399
 20
-5.9135
 30
0.0
 10
-2.8399
 20
-5.9135
 30
0.0
  0
SPLINE
  5
4C
330
1F
100
AcDbEntity
  8
Standard layer
 62
   250
370
    30
100
AcDbSpline
210
0.0
220
0.0
230
1.0
 70
     8
 71
     3
 72
     8
 73
     4
 74
     0
 42
0.0000000001
 43
0.0000000001
 40
0.0
 40
0.0
 40
0.0
 40
0.0
 40
1.0
 40
1.0
 40
1.0
 40
1.0
 10
-2.8399
 20
-5.9135
 30
0.0
 10
-2.8663
 20
-5.9146
 30
0.0
 10
-2.8894
 20
-5.9322
 30
0.0
 10
-2.8942
 20
-5.9591
 30
0.0
  0
SPLINE
  5
4D
330
1F
100
AcDbEntity
  8
Standard layer
 62
   250
370
    30
100
AcDbSpline
210
0.0
220
0.0
230
1.0
 70
     8
 71
     3
 72
    16
 73
    12
 74
     0
 42
0.0000000001
 43
0.0000000001
 40
0.0
 40
0.0
 40
0.0
 40
0.0
 40
0.25
 40
0.25
 40
0.25
 40
0.25
 40
0.5
 40
0.5
 40
0.5
 40
0.5
 40
1.0
 40
1.0
 40
1.0
 40
1.0
 10
-2.8942
 20
-5.9591
 30
0.0
 10
-2.8942
 20
-5.9591
 30
0.0
 10
-2.895
 20
-5.9687
 30
0.0
 10
-2.895
 20
-5.9687
 30
0.0
 10
-2.895
 20
-5.9687
 30
0.0
 10
-2.895
 20
-5.9687
 30
0.0
 10
-2.895
 20
-6.2286
 30
0.0
 10
-2.895
 20
-6.2286
 30
0.0
 10
-2.895
 20
-6.2286
 30
0.0
 10
-2.895
 20
-6.2286
 30
0.0
 10
-2.895
 20
-6.4885
 30
0.0
 10
-2.895
 20
-6.4885
 30
0.0
  0
SPLINE
  5
4E
330
1F
100
AcDbEntity
  8
Standard layer
 62
   250
370
    30
100
AcDbSpline
210
0.0
220
0.0
230
1.0
 70
     8
 71
     3
 72
     8
 73
     4
 74
     0
 42
0.0000000001
 43
0.0000000001
 40
0.0
 40
0.0
 40
0.0
 40
0.0
 40
1.0
 40
1.0
 40
1.0
 40
1.0
 10
-2.5774
 20
-5.9133
 30
0.0
 10
-2.5495
 20
-5.9096
 30
0.0
 10
-2.527
 20
-5.8874
 30
0.0
 10
-2.527
 20
-5.8582
 30
0.0
  0
SPLINE
  5
4F
330
1F
100
AcDbEntity
  8
Standard layer
 62
   250
370
    30
100
AcDbSpline
210
0.0
220
0.0
230
1.0
 70
    24
 71
     3
 72
    16
 73
    12
 74
     0
 42
0.0000000001
 43
0.0000000001
 40
0.0
 40
0.0
 40
0.0
 40
0.0
 40
0.25
 40
0.25
 40
0.25
 40
0.25
 40
0.5
 40
0.5
 40
0.5
 40
0.5
 40
1.0
 40
1.0
 40
1.0
 40
1.0
 10
-2.527
 20
-5.8582
 30
0.0
 10
-2.527
 20
-5.8582
 30
0.0
 10
-2.527
 20
-5.4903
 30
0.0
 10
-2.527
 20
-5.4903
 30
0.0
 10
-2.527
 20
-5.4903
 30
0.0
 10
-2.527
 20
-5.4903
 30
0.0
 10
-2.527
 20
-2.3255
 30
0.0
 10
-2.527
 20
-2.3255
 30
0.0
 10
-2.527
 20
-2.3255
 30
0.0
 10
-2.527
 20
-2.3255
 30
0.0
 10
-2.527
 20
-1.9574
 30
0.0
 10
-2.527
 20
-1.9574
 30
0.0
  0
SPLINE
  5
50
330
1F
100
AcDbEntity
  8
Standard layer
 62
   250
370
    30
100
AcDbSpline
210
0.0
220
0.0
230
1.0
 70
     8
 71
     3
 72
    16
 73
    12
 74
     0
 42
0.0000000001
 43
0.0000000001
 40
0.0
 40
0.0
 40
0.0
 40
0.0
 40
0.25
 40
0.25
 40
0.25
 40
0.25
 40
0.5
 40
0.5
 40
0.5
 40
0.5
 40
1.0
 40
1.0
 40
1.0
 40
1.0
 10
-2.527
 20
-1.9574
 30
0.0
 10
-2.5268
 20
-1.9039
 30
0.0
 10
-2.5177
 20
-1.8506
 30
0.0
 10
-2.4993
 20
-1.8001
 30
0.0
 10
-2.4993
 20
-1.8001
 30
0.0
 10
-2.4856
 20
-1.7625
 30
0.0
 10
-2.4669
 20
-1.7265
 30
0.0
 10
-2.4438
 20
-1.6936
 30
0.0
 10
-2.4438
 20
-1.6936
 30
0.0
 10
-2.2697
 20
-1.4449
 30
0.0
 10
-1.9656
 20
-1.4975
 30
0.0
 10
-1.6991
 20
-1.4975
 30
0.0
  0
SPLINE
  5
51
330
1F
100
AcDbEntity
  8
Standard layer
 62
   250
370
    30
100
AcDbSpline
210
0.0
220
0.0
230
1.0
 70
    24
 71
     3
 72
    12
 73
     8
 74
     0
 42
0.0000000001
 43
0.0000000001
 40
0.0
 40
0.0
 40
0.0
 40
0.0
 40
0.3333333333333333
 40
0.3333333333333333
 40
0.3333333333333333
 40
0.3333333333333333
 40
1.0
 40
1.0
 40
1.0
 40
1.0
 10
-1.6991
 20
-1.4975
 30
0.0
 10
-1.6991
 20
-1.4975
 30
0.0
 10
10.7065
 20
-1.4975
 30
0.0
 10
10.7065
 20
-1.4975
 30
0.0
 10
10.7065
 20
-1.4975
 30
0.0
 10
10.7065
 20
-1.4975
 30
0.0
 10
11.0745
 20
-1.4975
 30
0.0
 10
11.0745
 20
-1.4975
 30
0.0
  0
SPLINE
  5
52
330
1F
100
AcDbEntity
  8
Standard layer
 62
   250
370
    30
100
AcDbSpline
210
0.0
220
0.0
230
1.0
 70
     8
 71
     3
 72
    12
 73
     8
 74
     0
 42
0.0000000001
 43
0.0000000001
 40
0.0
 40
0.0
 40
0.0
 40
0.0
 40
0.3333333333333333
 40
0.3333333333333333
 40
0.3333333333333333
 40
0.3333333333333333
 40
1.0
 40
1.0
 40
1.0
 40
1.0
 10
-1.5611
 20
-1.4975
 30
0.0
 10
-1.4783
 20
-1.4939
 30
0.0
 10
-1.4054
 20
-1.4433
 30
0.0
 10
-1.3833
 20
-1.3611
 30
0.0
 10
-1.3833
 20
-1.3611
 30
0.0
 10
-1.3716
 20
-1.3173
 30
0.0
 10
-1.3771
 20
-1.2643
 30
0.0
 10
-1.3771
 20
-1.222
 30
0.0
  0
SPLINE
  5
53
330
1F
100
AcDbEntity
  8
Standard layer
 62
   250
370
    30
100
AcDbSpline
210
0.0
220
0.0
230
1.0
 70
     8
 71
     3
 72
    20
 73
    16
 74
     0
 42
0.0000000001
 43
0.0000000001
 40
0.0
 40
0.0
 40
0.0
 40
0.0
 40
0.2
 40
0.2
 40
0.2
 40
0.2
 40
0.4
 40
0.4
 40
0.4
 40
0.4
 40
0.6
 40
0.6
 40
0.6
 40
0.6
 40
1.0
 40
1.0
 40
1.0
 40
1.0
 10
14.5849
 20
-0.5958
 30
0.0
 10
14.5849
 20
-0.5958
 30
0.0
 10
14.5849
 20
-0.9638
 30
0.0
 10
14.5849
 20
-0.9638
 30
0.0
 10
14.5849
 20
-0.9638
 30
0.0
 10
14.5849
 20
-0.9638
 30
0.0
 10
14.5849
 20
-1.0374
 30
0.0
 10
14.5849
 20
-1.0374
 30
0.0
 10
14.5849
 20
-1.0374
 30
0.0
 10
14.5849
 20
-1.0374
 30
0.0
 10
14.5849
 20
-1.4055
 30
0.0
 10
14.5849
 20
-1.4055
 30
0.0
 10
14.5849
 20
-1.4055
 30
0.0
 10
14.5849
 20
-1.4055
 30
0.0
 10
14.5836
 20
-1.4215
 30
0.0
 10
14.5836
 20
-1.4215
 30
0.0
  0
SPLINE
  5
54
330
1F
100
AcDbEntity
  8
Standard layer
 62
   250
370
    30
100
AcDbSpline
210
0.0
220
0.0
230
1.0
 70
     8
 71
     3
 72
     8
 73
     4
 74
     0
 42
0.0000000001
 43
0.0000000001
 40
0.0
 40
0.0
 40
0.0
 40
0.0
 40
1.0
 40
1.0
 40
1.0
 40
1.0
 10
14.5836
 20
-1.4215
 30
0.0
 10
14.5756
 20
-1.4664
 30
0.0
 10
14.5371
 20
-1.4955
 30
0.0
 10
14.4929
 20
-1.4975
 30
0.0
  0
SPLINE
  5
55
330
1F
100
AcDbEntity
  8
Standard layer
 62
   250
370
    30
100
AcDbSpline
210
0.0
220
0.0
230
1.0
 70
    24
 71
     3
 72
    12
 73
     8
 74
     0
 42
0.0000000001
 43
0.0000000001
 40
0.0
 40
0.0
 40
0.0
 40
0.0
 40
0.3333333333333333
 40
0.3333333333333333
 40
0.3333333333333333
 40
0.3333333333333333
 40
1.0
 40
1.0
 40
1.0
 40
1.0
 10
14.4929
 20
-1.4975
 30
0.0
 10
14.4929
 20
-1.4975
 30
0.0
 10
14.1249
 20
-1.4975
 30
0.0
 10
14.1249
 20
-1.4975
 30
0.0
 10
14.1249
 20
-1.4975
 30
0.0
 10
14.1249
 20
-1.4975
 30
0.0
 10
7.1789
 20
-1.4975
 30
0.0
 10
7.1789
 20
-1.4975
 30
0.0
  0
SPLINE
  5
56
330
1F
100
AcDbEntity
  8
Standard layer
 62
   250
370
    30
100
AcDbSpline
210
0.0
220
0.0
230
1.0
 70
     8
 71
     3
 72
    12
 73
     8
 74
     0
 42
0.0000000001
 43
0.0000000001
 40
0.0
 40
0.0
 40
0.0
 40
0.0
 40
0.3333333333333333
 40
0.3333333333333333
 40
0.3333333333333333
 40
0.3333333333333333
 40
1.0
 40
1.0
 40
1.0
 40
1.0
 10
7.1789
 20
-1.4975
 30
0.0
 10
7.052
 20
-1.4975
 30
0.0
 10
6.6712
 20
-1.5804
 30
0.0
 10
6.6298
 20
-1.3454
 30
0.0
 10
6.6298
 20
-1.3454
 30
0.0
 10
6.6229
 20
-1.3066
 30
0.0
 10
6.627
 20
-1.2568
 30
0.0
 10
6.627
 20
-1.222
 30
0.0
  0
SPLINE
  5
57
330
1F
100
AcDbEntity
  8
Standard layer
 62
   250
370
    30
100
AcDbSpline
210
0.0
220
0.0
230
1.0
 70
     8
 71
     3
 72
     8
 73
     4
 74
     0
 42
0.0000000001
 43
0.0000000001
 40
0.0
 40
0.0
 40
0.0
 40
0.0
 40
1.0
 40
1.0
 40
1.0
 40
1.0
 10
23.785
 20
-0.5958
 30
0.0
 10
23.6061
 20
-0.4171
 30
0.0
 10
23.7363
 20
-0.5038
 30
0.0
 10
23.3249
 20
-0.5038
 30
0.0
  0
SPLINE
  5
58
330
1F
100
AcDbEntity
  8
Standard layer
 62
   250
370
    30
100
AcDbSpline
210
0.0
220
0.0
230
1.0
 70
     8
 71
     3
 72
    16
 73
    12
 74
     0
 42
0.0000000001
 43
0.0000000001
 40
0.0
 40
0.0
 40
0.0
 40
0.0
 40
0.25
 40
0.25
 40
0.25
 40
0.25
 40
0.5
 40
0.5
 40
0.5
 40
0.5
 40
1.0
 40
1.0
 40
1.0
 40
1.0
 10
23.3249
 20
-0.5038
 30
0.0
 10
23.3249
 20
-0.5038
 30
0.0
 10
15.0449
 20
-0.5038
 30
0.0
 10
15.0449
 20
-0.5038
 30
0.0
 10
15.0449
 20
-0.5038
 30
0.0
 10
15.0449
 20
-0.5038
 30
0.0
 10
14.6769
 20
-0.5038
 30
0.0
 10
14.6769
 20
-0.5038
 30
0.0
 10
14.6769
 20
-0.5038
 30
0.0
 10
14.6769
 20
-0.5038
 30
0.0
 10
14.5849
 20
-0.5958
 30
0.0
 10
14.5849
 20
-0.5958
 30
0.0
  0
SPLINE
  5
59
330
1F
100
AcDbEntity
  8
Standard layer
 62
   250
370
    30
100
AcDbSpline
210
0.0
220
0.0
230
1.0
 70
     8
 71
     3
 72
     8
 73
     4
 74
     0
 42
0.0000000001
 43
0.0000000001
 40
0.0
 40
0.0
 40
0.0
 40
0.0
 40
1.0
 40
1.0
 40
1.0
 40
1.0
 10
24.3873
 20
-5.9133
 30
0.0
 10
24.3592
 20
-5.9096
 30
0.0
 10
24.3369
 20
-5.8874
 30
0.0
 10
24.3369
 20
-5.8582
 30
0.0
  0
SPLINE
  5
5A
330
1F
100
AcDbEntity
  8
Standard layer
 62
   250
370
    30
100
AcDbSpline
210
0.0
220
0.0
230
1.0
 70
    24
 71
     3
 72
    16
 73
    12
 74
     0
 42
0.0000000001
 43
0.0000000001
 40
0.0
 40
0.0
 40
0.0
 40
0.0
 40
0.25
 40
0.25
 40
0.25
 40
0.25
 40
0.5
 40
0.5
 40
0.5
 40
0.5
 40
1.0
 40
1.0
 40
1.0
 40
1.0
 10
24.3369
 20
-5.8582
 30
0.0
 10
24.3369
 20
-5.8582
 30
0.0
 10
24.3369
 20
-5.4903
 30
0.0
 10
24.3369
 20
-5.4903
 30
0.0
 10
24.3369
 20
-5.4903
 30
0.0
 10
24.3369
 20
-5.4903
 30
0.0
 10
24.3369
 20
-2.3255
 30
0.0
 10
24.3369
 20
-2.3255
 30
0.0
 10
24.3369
 20
-2.3255
 30
0.0
 10
24.3369
 20
-2.3255
 30
0.0
 10
24.3369
 20
-1.9574
 30
0.0
 10
24.3369
 20
-1.9574
 30
0.0
  0
SPLINE
  5
5B
330
1F
100
AcDbEntity
  8
Standard layer
 62
   250
370
    30
100
AcDbSpline
210
0.0
220
0.0
230
1.0
 70
     8
 71
     3
 72
    20
 73
    16
 74
     0
 42
0.0000000001
 43
0.0000000001
 40
0.0
 40
0.0
 40
0.0
 40
0.0
 40
0.2
 40
0.2
 40
0.2
 40
0.2
 40
0.4
 40
0.4
 40
0.4
 40
0.4
 40
0.6
 40
0.6
 40
0.6
 40
0.6
 40
1.0
 40
1.0
 40
1.0
 40
1.0
 10
24.3369
 20
-1.9574
 30
0.0
 10
24.3361
 20
-1.7661
 30
0.0
 10
24.2145
 20
-1.5909
 30
0.0
 10
24.0342
 20
-1.5252
 30
0.0
 10
24.0342
 20
-1.5252
 30
0.0
 10
23.9966
 20
-1.5115
 30
0.0
 10
23.957
 20
-1.5026
 30
0.0
 10
23.9171
 20
-1.4992
 30
0.0
 10
23.9171
 20
-1.4992
 30
0.0
 10
23.8742
 20
-1.4957
 30
0.0
 10
23.8362
 20
-1.5001
 30
0.0
 10
23.8064
 20
-1.4645
 30
0.0
 10
23.8064
 20
-1.4645
 30
0.0
 10
23.7926
 20
-1.4481
 30
0.0
 10
23.785
 20
-1.427
 30
0.0
 10
23.785
 20
-1.4055
 30
0.0
  0
SPLINE
  5
5C
330
1F
100
AcDbEntity
  8
Standard layer
 62
   250
370
    30
100
AcDbSpline
210
0.0
220
0.0
230
1.0
 70
    24
 71
     3
 72
    16
 73
    12
 74
     0
 42
0.0000000001
 43
0.0000000001
 40
0.0
 40
0.0
 40
0.0
 40
0.0
 40
0.25
 40
0.25
 40
0.25
 40
0.25
 40
0.5
 40
0.5
 40
0.5
 40
0.5
 40
1.0
 40
1.0
 40
1.0
 40
1.0
 10
23.785
 20
-1.4055
 30
0.0
 10
23.785
 20
-1.4055
 30
0.0
 10
23.785
 20
-1.0374
 30
0.0
 10
23.785
 20
-1.0374
 30
0.0
 10
23.785
 20
-1.0374
 30
0.0
 10
23.785
 20
-1.0374
 30
0.0
 10
23.785
 20
-0.9638
 30
0.0
 10
23.785
 20
-0.9638
 30
0.0
 10
23.785
 20
-0.9638
 30
0.0
 10
23.785
 20
-0.9638
 30
0.0
 10
23.785
 20
-0.5958
 30
0.0
 10
23.785
 20
-0.5958
 30
0.0
  0
SPLINE
  5
5D
330
1F
100
AcDbEntity
  8
Standard layer
 62
   250
370
    30
100
AcDbSpline
210
0.0
220
0.0
230
1.0
 70
    24
 71
     3
 72
     8
 73
     4
 74
     0
 42
0.0000000001
 43
0.0000000001
 40
0.0
 40
0.0
 40
0.0
 40
0.0
 40
1.0
 40
1.0
 40
1.0
 40
1.0
 10
-2.895
 20
-6.4839
 30
0.0
 10
-2.895
 20
-6.4839
 30
0.0
 10
-2.895
 20
-6.8519
 30
0.0
 10
-2.895
 20
-6.8519
 30
0.0
  0
SPLINE
  5
5E
330
1F
100
AcDbEntity
  8
Standard layer
 62
   250
370
    30
100
AcDbSpline
210
0.0
220
0.0
230
1.0
 70
    24
 71
     3
 72
     8
 73
     4
 74
     0
 42
0.0000000001
 43
0.0000000001
 40
0.0
 40
0.0
 40
0.0
 40
0.0
 40
1.0
 40
1.0
 40
1.0
 40
1.0
 10
-2.8929
 20
-6.8519
 30
0.0
 10
-2.8929
 20
-6.8519
 30
0.0
 10
11.1158
 20
-6.8519
 30
0.0
 10
11.1158
 20
-6.8519
 30
0.0
  0
SPLINE
  5
5F
330
1F
100
AcDbEntity
  8
Standard layer
 62
   250
370
    30
100
AcDbSpline
210
0.0
220
0.0
230
1.0
 70
    24
 71
     3
 72
     8
 73
     4
 74
     0
 42
0.0000000001
 43
0.0000000001
 40
0.0
 40
0.0
 40
0.0
 40
0.0
 40
1.0
 40
1.0
 40
1.0
 40
1.0
 10
7.6581
 20
-6.8519
 30
0.0
 10
7.6581
 20
-6.8519
 30
0.0
 10
2.7522
 20
-6.8519
 30
0.0
 10
2.7522
 20
-6.8519
 30
0.0
  0
SPLINE
  5
60
330
1F
100
AcDbEntity
  8
Standard layer
 62
   250
370
    30
100
AcDbSpline
210
0.0
220
0.0
230
1.0
 70
    24
 71
     3
 72
     8
 73
     4
 74
     0
 42
0.0000000001
 43
0.0000000001
 40
0.0
 40
0.0
 40
0.0
 40
0.0
 40
1.0
 40
1.0
 40
1.0
 40
1.0
 10
9.3345
 20
-6.8519
 30
0.0
 10
9.3345
 20
-6.8519
 30
0.0
 10
2.6249
 20
-6.8519
 30
0.0
 10
2.6249
 20
-6.8519
 30
0.0
  0
SPLINE
  5
61
330
1F
100
AcDbEntity
  8
Standard layer
 62
   250
370
    30
100
AcDbSpline
210
0.0
220
0.0
230
1.0
 70
    24
 71
     3
 72
     8
 73
     4
 74
     0
 42
0.0000000001
 43
0.0000000001
 40
0.0
 40
0.0
 40
0.0
 40
0.0
 40
1.0
 40
1.0
 40
1.0
 40
1.0
 10
24.7049
 20
-6.8519
 30
0.0
 10
24.7049
 20
-6.8519
 30
0.0
 10
9.0287
 20
-6.8519
 30
0.0
 10
9.0287
 20
-6.8519
 30
0.0
  0
SPLINE
  5
62
330
1F
100
AcDbEntity
  8
Standard layer
 62
   250
370
    30
100
AcDbSpline
210
0.0
220
0.0
230
1.0
 70
    24
 71
     3
 72
     8
 73
     4
 74
     0
 42
0.0000000001
 43
0.0000000001
 40
0.0
 40
0.0
 40
0.0
 40
0.0
 40
1.0
 40
1.0
 40
1.0
 40
1.0
 10
24.7049
 20
-6.4839
 30
0.0
 10
24.7049
 20
-6.4839
 30
0.0
 10
24.7049
 20
-6.8519
 30
0.0
 10
24.7049
 20
-6.8519
 30
0.0
  0
SPLINE
  5
63
330
1F
100
AcDbEntity
  8
Standard layer
 62
   250
370
    30
100
AcDbSpline
210
0.0
220
0.0
230
1.0
 70
    24
 71
     3
 72
     8
 73
     4
 74
     0
 42
0.0000000001
 43
0.0000000001
 40
0.0
 40
0.0
 40
0.0
 40
0.0
 40
1.0
 40
1.0
 40
1.0
 40
1.0
 10
-2.895
 20
-6.8519
 30
0.0
 10
-2.895
 20
-6.8519
 30
0.0
 10
24.7029
 20
-6.8519
 30
0.0
 10
24.7029
 20
-6.8519
 30
0.0
  0
SPLINE
  5
64
330
1F
100
AcDbEntity
  8
Standard layer
 62
   250
370
    30
100
AcDbSpline
210
0.0
220
0.0
230
1.0
 70
    24
 71
     3
 72
     8
 73
     4
 74
     0
 42
0.0000000001
 43
0.0000000001
 40
0.0
 40
0.0
 40
0.0
 40
0.0
 40
1.0
 40
1.0
 40
1.0
 40
1.0
 10
19.185
 20
-6.4839
 30
0.0
 10
19.185
 20
-6.4839
 30
0.0
 10
24.7049
 20
-6.4839
 30
0.0
 10
24.7049
 20
-6.4839
 30
0.0
  0
SPLINE
  5
65
330
1F
100
AcDbEntity
  8
Standard layer
 62
   250
370
    30
100
AcDbSpline
210
0.0
220
0.0
230
1.0
 70
    24
 71
     3
 72
     8
 73
     4
 74
     0
 42
0.0000000001
 43
0.0000000001
 40
0.0
 40
0.0
 40
0.0
 40
0.0
 40
1.0
 40
1.0
 40
1.0
 40
1.0
 10
24.7029
 20
-6.4839
 30
0.0
 10
24.7029
 20
-6.4839
 30
0.0
 10
-2.895
 20
-6.4839
 30
0.0
 10
-2.895
 20
-6.4839
 30
0.0
  0
SPLINE
  5
66
330
1F
100
AcDbEntity
  8
Standard layer
 62
   250
370
    30
100
AcDbSpline
210
0.0
220
0.0
230
1.0
 70
    24
 71
     3
 72
     8
 73
     4
 74
     0
 42
0.0000000001
 43
0.0000000001
 40
0.0
 40
0.0
 40
0.0
 40
0.0
 40
1.0
 40
1.0
 40
1.0
 40
1.0
 10
2.6249
 20
-6.4839
 30
0.0
 10
2.6249
 20
-6.4839
 30
0.0
 10
-2.8929
 20
-6.4839
 30
0.0
 10
-2.8929
 20
-6.4839
 30
0.0
  0
SPLINE
  5
67
330
1F
100
AcDbEntity
  8
Standard layer
 62
   250
370
    30
100
AcDbSpline
210
0.0
220
0.0
230
1.0
 70
    24
 71
     3
 72
     8
 73
     4
 74
     0
 42
0.0000000001
 43
0.0000000001
 40
0.0
 40
0.0
 40
0.0
 40
0.0
 40
1.0
 40
1.0
 40
1.0
 40
1.0
 10
15.0775
 20
3.7883
 30
0.0
 10
15.0775
 20
3.7883
 30
0.0
 10
15.0416
 20
3.7917
 30
0.0
 10
15.0416
 20
3.7917
 30
0.0
  0
SPLINE
  5
68
330
1F
100
AcDbEntity
  8
Standard layer
 62
   250
370
    30
100
AcDbSpline
210
0.0
220
0.0
230
1.0
 70
     8
 71
     3
 72
    16
 73
    12
 74
     0
 42
0.0000000001
 43
0.0000000001
 40
0.0
 40
0.0
 40
0.0
 40
0.0
 40
0.25
 40
0.25
 40
0.25
 40
0.25
 40
0.5
 40
0.5
 40
0.5
 40
0.5
 40
1.0
 40
1.0
 40
1.0
 40
1.0
 10
15.0416
 20
3.7917
 30
0.0
 10
15.0038
 20
3.788
 30
0.0
 10
14.9715
 20
3.7821
 30
0.0
 10
14.9393
 20
3.7605
 30
0.0
 10
14.9393
 20
3.7605
 30
0.0
 10
14.8322
 20
3.6887
 30
0.0
 10
14.8326
 20
3.5261
 30
0.0
 10
14.9397
 20
3.4547
 30
0.0
 10
14.9397
 20
3.4547
 30
0.0
 10
14.983
 20
3.4257
 30
0.0
 10
15.0279
 20
3.4223
 30
0.0
 10
15.0779
 20
3.4273
 30
0.0
  0
SPLINE
  5
69
330
1F
100
AcDbEntity
  8
Standard layer
 62
   250
370
    30
100
AcDbSpline
210
0.0
220
0.0
230
1.0
 70
     8
 71
     3
 72
    20
 73
    16
 74
     0
 42
0.0000000001
 43
0.0000000001
 40
0.0
 40
0.0
 40
0.0
 40
0.0
 40
0.2
 40
0.2
 40
0.2
 40
0.2
 40
0.4
 40
0.4
 40
0.4
 40
0.4
 40
0.6
 40
0.6
 40
0.6
 40
0.6
 40
1.0
 40
1.0
 40
1.0
 40
1.0
 10
15.042
 20
3.4238
 30
0.0
 10
15.042
 20
3.4238
 30
0.0
 10
15.41
 20
3.4238
 30
0.0
 10
15.41
 20
3.4238
 30
0.0
 10
15.41
 20
3.4238
 30
0.0
 10
15.41
 20
3.4238
 30
0.0
 10
22.8982
 20
3.4238
 30
0.0
 10
22.8982
 20
3.4238
 30
0.0
 10
22.8982
 20
3.4238
 30
0.0
 10
22.8982
 20
3.4238
 30
0.0
 10
23.2663
 20
3.4238
 30
0.0
 10
23.2663
 20
3.4238
 30
0.0
 10
23.2663
 20
3.4238
 30
0.0
 10
23.2663
 20
3.4238
 30
0.0
 10
23.3021
 20
3.4272
 30
0.0
 10
23.3021
 20
3.4272
 30
0.0
  0
SPLINE
  5
6A
330
1F
100
AcDbEntity
  8
Standard layer
 62
   250
370
    30
100
AcDbSpline
210
0.0
220
0.0
230
1.0
 70
     8
 71
     3
 72
    12
 73
     8
 74
     0
 42
0.0000000001
 43
0.0000000001
 40
0.0
 40
0.0
 40
0.0
 40
0.0
 40
0.3333333333333333
 40
0.3333333333333333
 40
0.3333333333333333
 40
0.3333333333333333
 40
1.0
 40
1.0
 40
1.0
 40
1.0
 10
23.3021
 20
3.4272
 30
0.0
 10
23.4596
 20
3.4584
 30
0.0
 10
23.5023
 20
3.6711
 30
0.0
 10
23.3691
 20
3.7605
 30
0.0
 10
23.3691
 20
3.7605
 30
0.0
 10
23.2557
 20
3.8366
 30
0.0
 10
22.9354
 20
3.7917
 30
0.0
 10
22.8987
 20
3.7917
 30
0.0
  0
SPLINE
  5
6B
330
1F
100
AcDbEntity
  8
Standard layer
 62
   250
370
    30
100
AcDbSpline
210
0.0
220
0.0
230
1.0
 70
    24
 71
     3
 72
    12
 73
     8
 74
     0
 42
0.0000000001
 43
0.0000000001
 40
0.0
 40
0.0
 40
0.0
 40
0.0
 40
0.3333333333333333
 40
0.3333333333333333
 40
0.3333333333333333
 40
0.3333333333333333
 40
1.0
 40
1.0
 40
1.0
 40
1.0
 10
22.8987
 20
3.7917
 30
0.0
 10
22.8987
 20
3.7917
 30
0.0
 10
15.4095
 20
3.7917
 30
0.0
 10
15.4095
 20
3.7917
 30
0.0
 10
15.4095
 20
3.7917
 30
0.0
 10
15.4095
 20
3.7917
 30
0.0
 10
15.0416
 20
3.7917
 30
0.0
 10
15.0416
 20
3.7917
 30
0.0
  0
SPLINE
  5
6C
330
1F
100
AcDbEntity
  8
Standard layer
 62
   250
370
    30
100
AcDbSpline
210
0.0
220
0.0
230
1.0
 70
    24
 71
     3
 72
     8
 73
     4
 74
     0
 42
0.0000000001
 43
0.0000000001
 40
0.0
 40
0.0
 40
0.0
 40
0.0
 40
1.0
 40
1.0
 40
1.0
 40
1.0
 10
15.0775
 20
4.7213
 30
0.0
 10
15.0775
 20
4.7213
 30
0.0
 10
15.0416
 20
4.7248
 30
0.0
 10
15.0416
 20
4.7248
 30
0.0
  0
SPLINE
  5
6D
330
1F
100
AcDbEntity
  8
Standard layer
 62
   250
370
    30
100
AcDbSpline
210
0.0
220
0.0
230
1.0
 70
     8
 71
     3
 72
    16
 73
    12
 74
     0
 42
0.0000000001
 43
0.0000000001
 40
0.0
 40
0.0
 40
0.0
 40
0.0
 40
0.25
 40
0.25
 40
0.25
 40
0.25
 40
0.5
 40
0.5
 40
0.5
 40
0.5
 40
1.0
 40
1.0
 40
1.0
 40
1.0
 10
15.0416
 20
4.7248
 30
0.0
 10
15.0038
 20
4.7211
 30
0.0
 10
14.9715
 20
4.7152
 30
0.0
 10
14.9393
 20
4.6936
 30
0.0
 10
14.9393
 20
4.6936
 30
0.0
 10
14.8323
 20
4.6218
 30
0.0
 10
14.8326
 20
4.4592
 30
0.0
 10
14.9397
 20
4.3878
 30
0.0
 10
14.9397
 20
4.3878
 30
0.0
 10
14.983
 20
4.3588
 30
0.0
 10
15.0279
 20
4.3554
 30
0.0
 10
15.0779
 20
4.3604
 30
0.0
  0
SPLINE
  5
6E
330
1F
100
AcDbEntity
  8
Standard layer
 62
   250
370
    30
100
AcDbSpline
210
0.0
220
0.0
230
1.0
 70
     8
 71
     3
 72
    20
 73
    16
 74
     0
 42
0.0000000001
 43
0.0000000001
 40
0.0
 40
0.0
 40
0.0
 40
0.0
 40
0.2
 40
0.2
 40
0.2
 40
0.2
 40
0.4
 40
0.4
 40
0.4
 40
0.4
 40
0.6
 40
0.6
 40
0.6
 40
0.6
 40
1.0
 40
1.0
 40
1.0
 40
1.0
 10
15.042
 20
4.3569
 30
0.0
 10
15.042
 20
4.3569
 30
0.0
 10
15.41
 20
4.3569
 30
0.0
 10
15.41
 20
4.3569
 30
0.0
 10
15.41
 20
4.3569
 30
0.0
 10
15.41
 20
4.3569
 30
0.0
 10
22.8982
 20
4.3569
 30
0.0
 10
22.8982
 20
4.3569
 30
0.0
 10
22.8982
 20
4.3569
 30
0.0
 10
22.8982
 20
4.3569
 30
0.0
 10
23.2663
 20
4.3569
 30
0.0
 10
23.2663
 20
4.3569
 30
0.0
 10
23.2663
 20
4.3569
 30
0.0
 10
23.2663
 20
4.3569
 30
0.0
 10
23.3021
 20
4.3603
 30
0.0
 10
23.3021
 20
4.3603
 30
0.0
  0
SPLINE
  5
6F
330
1F
100
AcDbEntity
  8
Standard layer
 62
   250
370
    30
100
AcDbSpline
210
0.0
220
0.0
230
1.0
 70
     8
 71
     3
 72
    12
 73
     8
 74
     0
 42
0.0000000001
 43
0.0000000001
 40
0.0
 40
0.0
 40
0.0
 40
0.0
 40
0.3333333333333333
 40
0.3333333333333333
 40
0.3333333333333333
 40
0.3333333333333333
 40
1.0
 40
1.0
 40
1.0
 40
1.0
 10
23.3021
 20
4.3603
 30
0.0
 10
23.4596
 20
4.3915
 30
0.0
 10
23.5023
 20
4.6042
 30
0.0
 10
23.3691
 20
4.6936
 30
0.0
 10
23.3691
 20
4.6936
 30
0.0
 10
23.2557
 20
4.7697
 30
0.0
 10
22.9351
 20
4.7248
 30
0.0
 10
22.8987
 20
4.7248
 30
0.0
  0
SPLINE
  5
70
330
1F
100
AcDbEntity
  8
Standard layer
 62
   250
370
    30
100
AcDbSpline
210
0.0
220
0.0
230
1.0
 70
    24
 71
     3
 72
    12
 73
     8
 74
     0
 42
0.0000000001
 43
0.0000000001
 40
0.0
 40
0.0
 40
0.0
 40
0.0
 40
0.3333333333333333
 40
0.3333333333333333
 40
0.3333333333333333
 40
0.3333333333333333
 40
1.0
 40
1.0
 40
1.0
 40
1.0
 10
22.8987
 20
4.7248
 30
0.0
 10
22.8987
 20
4.7248
 30
0.0
 10
15.4095
 20
4.7248
 30
0.0
 10
15.4095
 20
4.7248
 30
0.0
 10
15.4095
 20
4.7248
 30
0.0
 10
15.4095
 20
4.7248
 30
0.0
 10
15.0416
 20
4.7248
 30
0.0
 10
15.0416
 20
4.7248
 30
0.0
  0
SPLINE
  5
71
330
1F
100
AcDbEntity
  8
Standard layer
 62
   250
370
    30
100
AcDbSpline
210
0.0
220
0.0
230
1.0
 70
    24
 71
     3
 72
     8
 73
     4
 74
     0
 42
0.0000000001
 43
0.0000000001
 40
0.0
 40
0.0
 40
0.0
 40
0.0
 40
1.0
 40
1.0
 40
1.0
 40
1.0
 10
-2.3776
 20
1.3448
 30
0.0
 10
-2.3776
 20
1.3448
 30
0.0
 10
-2.3782
 20
-0.67
 30
0.0
 10
-2.3782
 20
-0.67
 30
0.0
  0
SPLINE
  5
72
330
1F
100
AcDbEntity
  8
Standard layer
 62
   250
370
    30
100
AcDbSpline
210
0.0
220
0.0
230
1.0
 70
    24
 71
     3
 72
     8
 73
     4
 74
     0
 42
0.0000000001
 43
0.0000000001
 40
0.0
 40
0.0
 40
0.0
 40
0.0
 40
1.0
 40
1.0
 40
1.0
 40
1.0
 10
-2.3648
 20
-0.67
 30
0.0
 10
-2.3648
 20
-0.67
 30
0.0
 10
-1.1468
 20
-0.67
 30
0.0
 10
-1.1468
 20
-0.67
 30
0.0
  0
SPLINE
  5
73
330
1F
100
AcDbEntity
  8
Standard layer
 62
   250
370
    30
100
AcDbSpline
210
0.0
220
0.0
230
1.0
 70
    24
 71
     3
 72
     8
 73
     4
 74
     0
 42
0.0000000001
 43
0.0000000001
 40
0.0
 40
0.0
 40
0.0
 40
0.0
 40
1.0
 40
1.0
 40
1.0
 40
1.0
 10
7.7411
 20
1.3448
 30
0.0
 10
7.7411
 20
1.3448
 30
0.0
 10
7.7417
 20
-1.222
 30
0.0
 10
7.7417
 20
-1.222
 30
0.0
  0
SPLINE
  5
74
330
1F
100
AcDbEntity
  8
Standard layer
 62
   250
370
    30
100
AcDbSpline
210
0.0
220
0.0
230
1.0
 70
    24
 71
     3
 72
     8
 73
     4
 74
     0
 42
0.0000000001
 43
0.0000000001
 40
0.0
 40
0.0
 40
0.0
 40
0.0
 40
1.0
 40
1.0
 40
1.0
 40
1.0
 10
-2.3782
 20
-1.222
 30
0.0
 10
-2.3782
 20
-1.222
 30
0.0
 10
7.7417
 20
-1.222
 30
0.0
 10
7.7417
 20
-1.222
 30
0.0
  0
SPLINE
  5
75
330
1F
100
AcDbEntity
  8
Standard layer
 62
   250
370
    30
100
AcDbSpline
210
0.0
220
0.0
230
1.0
 70
    24
 71
     3
 72
     8
 73
     4
 74
     0
 42
0.0000000001
 43
0.0000000001
 40
0.0
 40
0.0
 40
0.0
 40
0.0
 40
1.0
 40
1.0
 40
1.0
 40
1.0
 10
-2.3776
 20
1.3448
 30
0.0
 10
-2.3776
 20
1.3448
 30
0.0
 10
-2.3782
 20
-1.222
 30
0.0
 10
-2.3782
 20
-1.222
 30
0.0
  0
SPLINE
  5
76
330
1F
100
AcDbEntity
  8
Standard layer
 62
   250
370
    30
100
AcDbSpline
210
0.0
220
0.0
230
1.0
 70
    24
 71
     3
 72
     8
 73
     4
 74
     0
 42
0.0000000001
 43
0.0000000001
 40
0.0
 40
0.0
 40
0.0
 40
0.0
 40
1.0
 40
1.0
 40
1.0
 40
1.0
 10
-2.2862
 20
1.3541
 30
0.0
 10
-2.2862
 20
1.3541
 30
0.0
 10
-2.3776
 20
1.3448
 30
0.0
 10
-2.3776
 20
1.3448
 30
0.0
  0
SPLINE
  5
77
330
1F
100
AcDbEntity
  8
Standard layer
 62
   250
370
    30
100
AcDbSpline
210
0.0
220
0.0
230
1.0
 70
    24
 71
     3
 72
     8
 73
     4
 74
     0
 42
0.0000000001
 43
0.0000000001
 40
0.0
 40
0.0
 40
0.0
 40
0.0
 40
1.0
 40
1.0
 40
1.0
 40
1.0
 10
7.6498
 20
1.3541
 30
0.0
 10
7.6498
 20
1.3541
 30
0.0
 10
7.7411
 20
1.3448
 30
0.0
 10
7.7411
 20
1.3448
 30
0.0
  0
SPLINE
  5
78
330
1F
100
AcDbEntity
  8
Standard layer
 62
   250
370
    30
100
AcDbSpline
210
0.0
220
0.0
230
1.0
 70
    24
 71
     3
 72
     8
 73
     4
 74
     0
 42
0.0000000001
 43
0.0000000001
 40
0.0
 40
0.0
 40
0.0
 40
0.0
 40
1.0
 40
1.0
 40
1.0
 40
1.0
 10
2.3138
 20
-0.67
 30
0.0
 10
2.3138
 20
-0.67
 30
0.0
 10
-0.6265
 20
-0.67
 30
0.0
 10
-0.6265
 20
-0.67
 30
0.0
  0
SPLINE
  5
79
330
1F
100
AcDbEntity
  8
Standard layer
 62
   250
370
    30
100
AcDbSpline
210
0.0
220
0.0
230
1.0
 70
    24
 71
     3
 72
     8
 73
     4
 74
     0
 42
0.0000000001
 43
0.0000000001
 40
0.0
 40
0.0
 40
0.0
 40
0.0
 40
1.0
 40
1.0
 40
1.0
 40
1.0
 10
2.7629
 20
1.345
 30
0.0
 10
2.7629
 20
1.345
 30
0.0
 10
2.9112
 20
1.2738
 30
0.0
 10
2.9112
 20
1.2738
 30
0.0
  0
SPLINE
  5
7A
330
1F
100
AcDbEntity
  8
Standard layer
 62
   250
370
    30
100
AcDbSpline
210
0.0
220
0.0
230
1.0
 70
    24
 71
     3
 72
     8
 73
     4
 74
     0
 42
0.0000000001
 43
0.0000000001
 40
0.0
 40
0.0
 40
0.0
 40
0.0
 40
1.0
 40
1.0
 40
1.0
 40
1.0
 10
5.99
 20
-0.67
 30
0.0
 10
5.99
 20
-0.67
 30
0.0
 10
3.0498
 20
-0.67
 30
0.0
 10
3.0498
 20
-0.67
 30
0.0
  0
SPLINE
  5
7B
330
1F
100
AcDbEntity
  8
Standard layer
 62
   250
370
    30
100
AcDbSpline
210
0.0
220
0.0
230
1.0
 70
    24
 71
     3
 72
     8
 73
     4
 74
     0
 42
0.0000000001
 43
0.0000000001
 40
0.0
 40
0.0
 40
0.0
 40
0.0
 40
1.0
 40
1.0
 40
1.0
 40
1.0
 10
2.7629
 20
1.345
 30
0.0
 10
2.7629
 20
1.345
 30
0.0
 10
2.6005
 20
1.345
 30
0.0
 10
2.6005
 20
1.345
 30
0.0
  0
SPLINE
  5
7C
330
1F
100
AcDbEntity
  8
Standard layer
 62
   250
370
    30
100
AcDbSpline
210
0.0
220
0.0
230
1.0
 70
    24
 71
     3
 72
     8
 73
     4
 74
     0
 42
0.0000000001
 43
0.0000000001
 40
0.0
 40
0.0
 40
0.0
 40
0.0
 40
1.0
 40
1.0
 40
1.0
 40
1.0
 10
2.9115
 20
1.2736
 30
0.0
 10
2.9115
 20
1.2736
 30
0.0
 10
3.0131
 20
1.1461
 30
0.0
 10
3.0131
 20
1.1461
 30
0.0
  0
SPLINE
  5
7D
330
1F
100
AcDbEntity
  8
Standard layer
 62
   250
370
    30
100
AcDbSpline
210
0.0
220
0.0
230
1.0
 70
    24
 71
     3
 72
     8
 73
     4
 74
     0
 42
0.0000000001
 43
0.0000000001
 40
0.0
 40
0.0
 40
0.0
 40
0.0
 40
1.0
 40
1.0
 40
1.0
 40
1.0
 10
7.7284
 20
-0.67
 30
0.0
 10
7.7284
 20
-0.67
 30
0.0
 10
6.5105
 20
-0.67
 30
0.0
 10
6.5105
 20
-0.67
 30
0.0
  0
SPLINE
  5
7E
330
1F
100
AcDbEntity
  8
Standard layer
 62
   250
370
    30
100
AcDbSpline
210
0.0
220
0.0
230
1.0
 70
    24
 71
     3
 72
     8
 73
     4
 74
     0
 42
0.0000000001
 43
0.0000000001
 40
0.0
 40
0.0
 40
0.0
 40
0.0
 40
1.0
 40
1.0
 40
1.0
 40
1.0
 10
-0.8881
 20
1.345
 30
0.0
 10
-0.8881
 20
1.345
 30
0.0
 10
-0.9535
 20
1.3448
 30
0.0
 10
-0.9535
 20
1.3448
 30
0.0
  0
SPLINE
  5
7F
330
1F
100
AcDbEntity
  8
Standard layer
 62
   250
370
    30
100
AcDbSpline
210
0.0
220
0.0
230
1.0
 70
     8
 71
     3
 72
     8
 73
     4
 74
     0
 42
0.0000000001
 43
0.0000000001
 40
0.0
 40
0.0
 40
0.0
 40
0.0
 40
1.0
 40
1.0
 40
1.0
 40
1.0
 10
-0.9535
 20
1.3448
 30
0.0
 10
-1.2161
 20
1.2326
 30
0.0
 10
-1.1468
 20
0.8251
 30
0.0
 10
-1.1468
 20
0.618
 30
0.0
  0
SPLINE
  5
80
330
1F
100
AcDbEntity
  8
Standard layer
 62
   250
370
    30
100
AcDbSpline
210
0.0
220
0.0
230
1.0
 70
    24
 71
     3
 72
    12
 73
     8
 74
     0
 42
0.0000000001
 43
0.0000000001
 40
0.0
 40
0.0
 40
0.0
 40
0.0
 40
0.3333333333333333
 40
0.3333333333333333
 40
0.3333333333333333
 40
0.3333333333333333
 40
1.0
 40
1.0
 40
1.0
 40
1.0
 10
-1.1468
 20
0.618
 30
0.0
 10
-1.1468
 20
0.618
 30
0.0
 10
-1.1468
 20
-0.302
 30
0.0
 10
-1.1468
 20
-0.302
 30
0.0
 10
-1.1468
 20
-0.302
 30
0.0
 10
-1.1468
 20
-0.302
 30
0.0
 10
-1.1468
 20
-0.67
 30
0.0
 10
-1.1468
 20
-0.67
 30
0.0
  0
SPLINE
  5
81
330
1F
100
AcDbEntity
  8
Standard layer
 62
   250
370
    30
100
AcDbSpline
210
0.0
220
0.0
230
1.0
 70
    24
 71
     3
 72
     8
 73
     4
 74
     0
 42
0.0000000001
 43
0.0000000001
 40
0.0
 40
0.0
 40
0.0
 40
0.0
 40
1.0
 40
1.0
 40
1.0
 40
1.0
 10
-2.2862
 20
1.3541
 30
0.0
 10
-2.2862
 20
1.3541
 30
0.0
 10
-2.2862
 20
1.5841
 30
0.0
 10
-2.2862
 20
1.5841
 30
0.0
  0
SPLINE
  5
82
330
1F
100
AcDbEntity
  8
Standard layer
 62
   250
370
    30
100
AcDbSpline
210
0.0
220
0.0
230
1.0
 70
     8
 71
     3
 72
     8
 73
     4
 74
     0
 42
0.0000000001
 43
0.0000000001
 40
0.0
 40
0.0
 40
0.0
 40
0.0
 40
1.0
 40
1.0
 40
1.0
 40
1.0
 10
-2.2862
 20
1.5841
 30
0.0
 10
-2.2862
 20
1.7557
 30
0.0
 10
-2.3125
 20
1.9401
 30
0.0
 10
-2.1785
 20
2.0742
 30
0.0
  0
SPLINE
  5
83
330
1F
100
AcDbEntity
  8
Standard layer
 62
   250
370
    30
100
AcDbSpline
210
0.0
220
0.0
230
1.0
 70
     8
 71
     3
 72
    32
 73
    28
 74
     0
 42
0.0000000001
 43
0.0000000001
 40
0.0
 40
0.0
 40
0.0
 40
0.0
 40
0.125
 40
0.125
 40
0.125
 40
0.125
 40
0.25
 40
0.25
 40
0.25
 40
0.25
 40
0.375
 40
0.375
 40
0.375
 40
0.375
 40
0.5
 40
0.5
 40
0.5
 40
0.5
 40
0.625
 40
0.625
 40
0.625
 40
0.625
 40
0.75
 40
0.75
 40
0.75
 40
0.75
 40
1.0
 40
1.0
 40
1.0
 40
1.0
 10
-2.1785
 20
2.0742
 30
0.0
 10
-2.1785
 20
2.0742
 30
0.0
 10
-2.059
 20
2.154
 30
0.0
 10
-2.059
 20
2.154
 30
0.0
 10
-2.059
 20
2.154
 30
0.0
 10
-2.059
 20
2.154
 30
0.0
 10
-1.9182
 20
2.182
 30
0.0
 10
-1.9182
 20
2.182
 30
0.0
 10
-1.9182
 20
2.182
 30
0.0
 10
-1.9182
 20
2.182
 30
0.0
 10
-1.5502
 20
2.182
 30
0.0
 10
-1.5502
 20
2.182
 30
0.0
 10
-1.5502
 20
2.182
 30
0.0
 10
-1.5502
 20
2.182
 30
0.0
 10
6.9138
 20
2.182
 30
0.0
 10
6.9138
 20
2.182
 30
0.0
 10
6.9138
 20
2.182
 30
0.0
 10
6.9138
 20
2.182
 30
0.0
 10
7.2818
 20
2.182
 30
0.0
 10
7.2818
 20
2.182
 30
0.0
 10
7.2818
 20
2.182
 30
0.0
 10
7.2818
 20
2.182
 30
0.0
 10
7.4226
 20
2.154
 30
0.0
 10
7.4226
 20
2.154
 30
0.0
 10
7.4226
 20
2.154
 30
0.0
 10
7.4226
 20
2.154
 30
0.0
 10
7.5421
 20
2.0742
 30
0.0
 10
7.5421
 20
2.0742
 30
0.0
  0
SPLINE
  5
84
330
1F
100
AcDbEntity
  8
Standard layer
 62
   250
370
    30
100
AcDbSpline
210
0.0
220
0.0
230
1.0
 70
     8
 71
     3
 72
     8
 73
     4
 74
     0
 42
0.0000000001
 43
0.0000000001
 40
0.0
 40
0.0
 40
0.0
 40
0.0
 40
1.0
 40
1.0
 40
1.0
 40
1.0
 10
7.5421
 20
2.0742
 30
0.0
 10
7.6761
 20
1.9401
 30
0.0
 10
7.6498
 20
1.7557
 30
0.0
 10
7.6498
 20
1.5841
 30
0.0
  0
SPLINE
  5
85
330
1F
100
AcDbEntity
  8
Standard layer
 62
   250
370
    30
100
AcDbSpline
210
0.0
220
0.0
230
1.0
 70
    24
 71
     3
 72
     8
 73
     4
 74
     0
 42
0.0000000001
 43
0.0000000001
 40
0.0
 40
0.0
 40
0.0
 40
0.0
 40
1.0
 40
1.0
 40
1.0
 40
1.0
 10
7.6498
 20
1.5841
 30
0.0
 10
7.6498
 20
1.5841
 30
0.0
 10
7.6498
 20
1.3541
 30
0.0
 10
7.6498
 20
1.3541
 30
0.0
  0
SPLINE
  5
86
330
1F
100
AcDbEntity
  8
Standard layer
 62
   250
370
    30
100
AcDbSpline
210
0.0
220
0.0
230
1.0
 70
    24
 71
     3
 72
    12
 73
     8
 74
     0
 42
0.0000000001
 43
0.0000000001
 40
0.0
 40
0.0
 40
0.0
 40
0.0
 40
0.3333333333333333
 40
0.3333333333333333
 40
0.3333333333333333
 40
0.3333333333333333
 40
1.0
 40
1.0
 40
1.0
 40
1.0
 10
-2.3648
 20
-0.67
 30
0.0
 10
-2.3648
 20
-0.67
 30
0.0
 10
-2.3648
 20
-0.302
 30
0.0
 10
-2.3648
 20
-0.302
 30
0.0
 10
-2.3648
 20
-0.302
 30
0.0
 10
-2.3648
 20
-0.302
 30
0.0
 10
-2.3648
 20
0.618
 30
0.0
 10
-2.3648
 20
0.618
 30
0.0
  0
SPLINE
  5
87
330
1F
100
AcDbEntity
  8
Standard layer
 62
   250
370
    30
100
AcDbSpline
210
0.0
220
0.0
230
1.0
 70
     8
 71
     3
 72
     8
 73
     4
 74
     0
 42
0.0000000001
 43
0.0000000001
 40
0.0
 40
0.0
 40
0.0
 40
0.0
 40
1.0
 40
1.0
 40
1.0
 40
1.0
 10
-2.3648
 20
0.618
 30
0.0
 10
-2.3648
 20
0.861
 30
0.0
 10
-2.362
 20
1.1026
 30
0.0
 10
-2.3776
 20
1.3448
 30
0.0
  0
SPLINE
  5
88
330
1F
100
AcDbEntity
  8
Standard layer
 62
   250
370
    30
100
AcDbSpline
210
0.0
220
0.0
230
1.0
 70
    24
 71
     3
 72
    12
 73
     8
 74
     0
 42
0.0000000001
 43
0.0000000001
 40
0.0
 40
0.0
 40
0.0
 40
0.0
 40
0.3333333333333333
 40
0.3333333333333333
 40
0.3333333333333333
 40
0.3333333333333333
 40
1.0
 40
1.0
 40
1.0
 40
1.0
 10
-2.2725
 20
-0.67
 30
0.0
 10
-2.2725
 20
-0.67
 30
0.0
 10
-2.2725
 20
-0.302
 30
0.0
 10
-2.2725
 20
-0.302
 30
0.0
 10
-2.2725
 20
-0.302
 30
0.0
 10
-2.2725
 20
-0.302
 30
0.0
 10
-2.2725
 20
0.618
 30
0.0
 10
-2.2725
 20
0.618
 30
0.0
  0
SPLINE
  5
89
330
1F
100
AcDbEntity
  8
Standard layer
 62
   250
370
    30
100
AcDbSpline
210
0.0
220
0.0
230
1.0
 70
     8
 71
     3
 72
     8
 73
     4
 74
     0
 42
0.0000000001
 43
0.0000000001
 40
0.0
 40
0.0
 40
0.0
 40
0.0
 40
1.0
 40
1.0
 40
1.0
 40
1.0
 10
-2.2725
 20
0.618
 30
0.0
 10
-2.2725
 20
0.8644
 30
0.0
 10
-2.2706
 20
1.1084
 30
0.0
 10
-2.2862
 20
1.3541
 30
0.0
  0
SPLINE
  5
8A
330
1F
100
AcDbEntity
  8
Standard layer
 62
   250
370
    30
100
AcDbSpline
210
0.0
220
0.0
230
1.0
 70
    24
 71
     3
 72
    12
 73
     8
 74
     0
 42
0.0000000001
 43
0.0000000001
 40
0.0
 40
0.0
 40
0.0
 40
0.0
 40
0.3333333333333333
 40
0.3333333333333333
 40
0.3333333333333333
 40
0.3333333333333333
 40
1.0
 40
1.0
 40
1.0
 40
1.0
 10
-0.6265
 20
-0.67
 30
0.0
 10
-0.6265
 20
-0.67
 30
0.0
 10
-0.6265
 20
-0.302
 30
0.0
 10
-0.6265
 20
-0.302
 30
0.0
 10
-0.6265
 20
-0.302
 30
0.0
 10
-0.6265
 20
-0.302
 30
0.0
 10
-0.6265
 20
0.618
 30
0.0
 10
-0.6265
 20
0.618
 30
0.0
  0
SPLINE
  5
8B
330
1F
100
AcDbEntity
  8
Standard layer
 62
   250
370
    30
100
AcDbSpline
210
0.0
220
0.0
230
1.0
 70
     8
 71
     3
 72
     8
 73
     4
 74
     0
 42
0.0000000001
 43
0.0000000001
 40
0.0
 40
0.0
 40
0.0
 40
0.0
 40
1.0
 40
1.0
 40
1.0
 40
1.0
 10
-0.6265
 20
0.618
 30
0.0
 10
-0.6265
 20
0.8133
 30
0.0
 10
-0.558
 20
1.2558
 30
0.0
 10
-0.8378
 20
1.3448
 30
0.0
  0
SPLINE
  5
8C
330
1F
100
AcDbEntity
  8
Standard layer
 62
   250
370
    30
100
AcDbSpline
210
0.0
220
0.0
230
1.0
 70
    24
 71
     3
 72
     8
 73
     4
 74
     0
 42
0.0000000001
 43
0.0000000001
 40
0.0
 40
0.0
 40
0.0
 40
0.0
 40
1.0
 40
1.0
 40
1.0
 40
1.0
 10
-0.8378
 20
1.3448
 30
0.0
 10
-0.8378
 20
1.3448
 30
0.0
 10
-0.9535
 20
1.3448
 30
0.0
 10
-0.9535
 20
1.3448
 30
0.0
  0
SPLINE
  5
8D
330
1F
100
AcDbEntity
  8
Standard layer
 62
   250
370
    30
100
AcDbSpline
210
0.0
220
0.0
230
1.0
 70
    24
 71
     3
 72
    12
 73
     8
 74
     0
 42
0.0000000001
 43
0.0000000001
 40
0.0
 40
0.0
 40
0.0
 40
0.0
 40
0.3333333333333333
 40
0.3333333333333333
 40
0.3333333333333333
 40
0.3333333333333333
 40
1.0
 40
1.0
 40
1.0
 40
1.0
 10
-0.5613
 20
-0.67
 30
0.0
 10
-0.5613
 20
-0.67
 30
0.0
 10
-0.5613
 20
-0.302
 30
0.0
 10
-0.5613
 20
-0.302
 30
0.0
 10
-0.5613
 20
-0.302
 30
0.0
 10
-0.5613
 20
-0.302
 30
0.0
 10
-0.5613
 20
0.618
 30
0.0
 10
-0.5613
 20
0.618
 30
0.0
  0
SPLINE
  5
8E
330
1F
100
AcDbEntity
  8
Standard layer
 62
   250
370
    30
100
AcDbSpline
210
0.0
220
0.0
230
1.0
 70
     8
 71
     3
 72
     8
 73
     4
 74
     0
 42
0.0000000001
 43
0.0000000001
 40
0.0
 40
0.0
 40
0.0
 40
0.0
 40
1.0
 40
1.0
 40
1.0
 40
1.0
 10
-0.5613
 20
0.618
 30
0.0
 10
-0.5613
 20
0.8145
 30
0.0
 10
-0.4929
 20
1.2552
 30
0.0
 10
-0.773
 20
1.345
 30
0.0
  0
SPLINE
  5
8F
330
1F
100
AcDbEntity
  8
Standard layer
 62
   250
370
    30
100
AcDbSpline
210
0.0
220
0.0
230
1.0
 70
    24
 71
     3
 72
     8
 73
     4
 74
     0
 42
0.0000000001
 43
0.0000000001
 40
0.0
 40
0.0
 40
0.0
 40
0.0
 40
1.0
 40
1.0
 40
1.0
 40
1.0
 10
-0.773
 20
1.345
 30
0.0
 10
-0.773
 20
1.345
 30
0.0
 10
-0.8881
 20
1.345
 30
0.0
 10
-0.8881
 20
1.345
 30
0.0
  0
SPLINE
  5
90
330
1F
100
AcDbEntity
  8
Standard layer
 62
   250
370
    30
100
AcDbSpline
210
0.0
220
0.0
230
1.0
 70
    24
 71
     3
 72
     8
 73
     4
 74
     0
 42
0.0000000001
 43
0.0000000001
 40
0.0
 40
0.0
 40
0.0
 40
0.0
 40
1.0
 40
1.0
 40
1.0
 40
1.0
 10
2.6005
 20
1.345
 30
0.0
 10
2.6005
 20
1.345
 30
0.0
 10
2.4523
 20
1.2738
 30
0.0
 10
2.4523
 20
1.2738
 30
0.0
  0
SPLINE
  5
91
330
1F
100
AcDbEntity
  8
Standard layer
 62
   250
370
    30
100
AcDbSpline
210
0.0
220
0.0
230
1.0
 70
     8
 71
     3
 72
     8
 73
     4
 74
     0
 42
0.0000000001
 43
0.0000000001
 40
0.0
 40
0.0
 40
0.0
 40
0.0
 40
1.0
 40
1.0
 40
1.0
 40
1.0
 10
2.4523
 20
1.2738
 30
0.0
 10
2.2577
 20
1.1188
 30
0.0
 10
2.3138
 20
0.8266
 30
0.0
 10
2.3138
 20
0.618
 30
0.0
  0
SPLINE
  5
92
330
1F
100
AcDbEntity
  8
Standard layer
 62
   250
370
    30
100
AcDbSpline
210
0.0
220
0.0
230
1.0
 70
    24
 71
     3
 72
    12
 73
     8
 74
     0
 42
0.0000000001
 43
0.0000000001
 40
0.0
 40
0.0
 40
0.0
 40
0.0
 40
0.3333333333333333
 40
0.3333333333333333
 40
0.3333333333333333
 40
0.3333333333333333
 40
1.0
 40
1.0
 40
1.0
 40
1.0
 10
2.3138
 20
0.618
 30
0.0
 10
2.3138
 20
0.618
 30
0.0
 10
2.3138
 20
-0.302
 30
0.0
 10
2.3138
 20
-0.302
 30
0.0
 10
2.3138
 20
-0.302
 30
0.0
 10
2.3138
 20
-0.302
 30
0.0
 10
2.3138
 20
-0.67
 30
0.0
 10
2.3138
 20
-0.67
 30
0.0
  0
SPLINE
  5
93
330
1F
100
AcDbEntity
  8
Standard layer
 62
   250
370
    30
100
AcDbSpline
210
0.0
220
0.0
230
1.0
 70
     8
 71
     3
 72
     8
 73
     4
 74
     0
 42
0.0000000001
 43
0.0000000001
 40
0.0
 40
0.0
 40
0.0
 40
0.0
 40
1.0
 40
1.0
 40
1.0
 40
1.0
 10
3.0134
 20
1.1456
 30
0.0
 10
3.0771
 20
0.8664
 30
0.0
 10
3.0498
 20
1.0405
 30
0.0
 10
3.0498
 20
0.618
 30
0.0
  0
SPLINE
  5
94
330
1F
100
AcDbEntity
  8
Standard layer
 62
   250
370
    30
100
AcDbSpline
210
0.0
220
0.0
230
1.0
 70
    24
 71
     3
 72
    12
 73
     8
 74
     0
 42
0.0000000001
 43
0.0000000001
 40
0.0
 40
0.0
 40
0.0
 40
0.0
 40
0.3333333333333333
 40
0.3333333333333333
 40
0.3333333333333333
 40
0.3333333333333333
 40
1.0
 40
1.0
 40
1.0
 40
1.0
 10
3.0498
 20
0.618
 30
0.0
 10
3.0498
 20
0.618
 30
0.0
 10
3.0498
 20
-0.302
 30
0.0
 10
3.0498
 20
-0.302
 30
0.0
 10
3.0498
 20
-0.302
 30
0.0
 10
3.0498
 20
-0.302
 30
0.0
 10
3.0498
 20
-0.67
 30
0.0
 10
3.0498
 20
-0.67
 30
0.0
  0
SPLINE
  5
95
330
1F
100
AcDbEntity
  8
Standard layer
 62
   250
370
    30
100
AcDbSpline
210
0.0
220
0.0
230
1.0
 70
     8
 71
     3
 72
    12
 73
     8
 74
     0
 42
0.0000000001
 43
0.0000000001
 40
0.0
 40
0.0
 40
0.0
 40
0.0
 40
0.3333333333333333
 40
0.3333333333333333
 40
0.3333333333333333
 40
0.3333333333333333
 40
1.0
 40
1.0
 40
1.0
 40
1.0
 10
6.2518
 20
1.345
 30
0.0
 10
6.2518
 20
1.345
 30
0.0
 10
6.1367
 20
1.345
 30
0.0
 10
6.1367
 20
1.345
 30
0.0
 10
6.1367
 20
1.345
 30
0.0
 10
6.1367
 20
1.345
 30
0.0
 10
6.0283
 20
1.2735
 30
0.0
 10
6.0283
 20
1.2735
 30
0.0
  0
SPLINE
  5
96
330
1F
100
AcDbEntity
  8
Standard layer
 62
   250
370
    30
100
AcDbSpline
210
0.0
220
0.0
230
1.0
 70
     8
 71
     3
 72
     8
 73
     4
 74
     0
 42
0.0000000001
 43
0.0000000001
 40
0.0
 40
0.0
 40
0.0
 40
0.0
 40
1.0
 40
1.0
 40
1.0
 40
1.0
 10
6.0283
 20
1.2735
 30
0.0
 10
5.8754
 20
1.108
 30
0.0
 10
5.9248
 20
0.8085
 30
0.0
 10
5.9248
 20
0.618
 30
0.0
  0
SPLINE
  5
97
330
1F
100
AcDbEntity
  8
Standard layer
 62
   250
370
    30
100
AcDbSpline
210
0.0
220
0.0
230
1.0
 70
    24
 71
     3
 72
    12
 73
     8
 74
     0
 42
0.0000000001
 43
0.0000000001
 40
0.0
 40
0.0
 40
0.0
 40
0.0
 40
0.3333333333333333
 40
0.3333333333333333
 40
0.3333333333333333
 40
0.3333333333333333
 40
1.0
 40
1.0
 40
1.0
 40
1.0
 10
5.9248
 20
0.618
 30
0.0
 10
5.9248
 20
0.618
 30
0.0
 10
5.9248
 20
-0.302
 30
0.0
 10
5.9248
 20
-0.302
 30
0.0
 10
5.9248
 20
-0.302
 30
0.0
 10
5.9248
 20
-0.302
 30
0.0
 10
5.9248
 20
-0.67
 30
0.0
 10
5.9248
 20
-0.67
 30
0.0
  0
SPLINE
  5
98
330
1F
100
AcDbEntity
  8
Standard layer
 62
   250
370
    30
100
AcDbSpline
210
0.0
220
0.0
230
1.0
 70
     8
 71
     3
 72
    12
 73
     8
 74
     0
 42
0.0000000001
 43
0.0000000001
 40
0.0
 40
0.0
 40
0.0
 40
0.0
 40
0.3333333333333333
 40
0.3333333333333333
 40
0.3333333333333333
 40
0.3333333333333333
 40
1.0
 40
1.0
 40
1.0
 40
1.0
 10
6.3171
 20
1.3448
 30
0.0
 10
6.3171
 20
1.3448
 30
0.0
 10
6.2013
 20
1.3448
 30
0.0
 10
6.2013
 20
1.3448
 30
0.0
 10
6.2013
 20
1.3448
 30
0.0
 10
6.2013
 20
1.3448
 30
0.0
 10
6.0939
 20
1.2737
 30
0.0
 10
6.0939
 20
1.2737
 30
0.0
  0
SPLINE
  5
99
330
1F
100
AcDbEntity
  8
Standard layer
 62
   250
370
    30
100
AcDbSpline
210
0.0
220
0.0
230
1.0
 70
     8
 71
     3
 72
     8
 73
     4
 74
     0
 42
0.0000000001
 43
0.0000000001
 40
0.0
 40
0.0
 40
0.0
 40
0.0
 40
1.0
 40
1.0
 40
1.0
 40
1.0
 10
6.0939
 20
1.2737
 30
0.0
 10
5.9406
 20
1.1076
 30
0.0
 10
5.99
 20
0.8096
 30
0.0
 10
5.99
 20
0.618
 30
0.0
  0
SPLINE
  5
9A
330
1F
100
AcDbEntity
  8
Standard layer
 62
   250
370
    30
100
AcDbSpline
210
0.0
220
0.0
230
1.0
 70
    24
 71
     3
 72
    12
 73
     8
 74
     0
 42
0.0000000001
 43
0.0000000001
 40
0.0
 40
0.0
 40
0.0
 40
0.0
 40
0.3333333333333333
 40
0.3333333333333333
 40
0.3333333333333333
 40
0.3333333333333333
 40
1.0
 40
1.0
 40
1.0
 40
1.0
 10
5.99
 20
0.618
 30
0.0
 10
5.99
 20
0.618
 30
0.0
 10
5.99
 20
-0.302
 30
0.0
 10
5.99
 20
-0.302
 30
0.0
 10
5.99
 20
-0.302
 30
0.0
 10
5.99
 20
-0.302
 30
0.0
 10
5.99
 20
-0.67
 30
0.0
 10
5.99
 20
-0.67
 30
0.0
  0
SPLINE
  5
9B
330
1F
100
AcDbEntity
  8
Standard layer
 62
   250
370
    30
100
AcDbSpline
210
0.0
220
0.0
230
1.0
 70
    24
 71
     3
 72
    12
 73
     8
 74
     0
 42
0.0000000001
 43
0.0000000001
 40
0.0
 40
0.0
 40
0.0
 40
0.0
 40
0.3333333333333333
 40
0.3333333333333333
 40
0.3333333333333333
 40
0.3333333333333333
 40
1.0
 40
1.0
 40
1.0
 40
1.0
 10
6.5105
 20
-0.67
 30
0.0
 10
6.5105
 20
-0.67
 30
0.0
 10
6.5105
 20
-0.302
 30
0.0
 10
6.5105
 20
-0.302
 30
0.0
 10
6.5105
 20
-0.302
 30
0.0
 10
6.5105
 20
-0.302
 30
0.0
 10
6.5105
 20
0.618
 30
0.0
 10
6.5105
 20
0.618
 30
0.0
  0
SPLINE
  5
9C
330
1F
100
AcDbEntity
  8
Standard layer
 62
   250
370
    30
100
AcDbSpline
210
0.0
220
0.0
230
1.0
 70
     8
 71
     3
 72
     8
 73
     4
 74
     0
 42
0.0000000001
 43
0.0000000001
 40
0.0
 40
0.0
 40
0.0
 40
0.0
 40
1.0
 40
1.0
 40
1.0
 40
1.0
 10
6.5105
 20
0.618
 30
0.0
 10
6.5105
 20
0.8251
 30
0.0
 10
6.5798
 20
1.2326
 30
0.0
 10
6.3171
 20
1.3448
 30
0.0
  0
SPLINE
  5
9D
330
1F
100
AcDbEntity
  8
Standard layer
 62
   250
370
    30
100
AcDbSpline
210
0.0
220
0.0
230
1.0
 70
    24
 71
     3
 72
     8
 73
     4
 74
     0
 42
0.0000000001
 43
0.0000000001
 40
0.0
 40
0.0
 40
0.0
 40
0.0
 40
1.0
 40
1.0
 40
1.0
 40
1.0
 10
6.3171
 20
1.3448
 30
0.0
 10
6.3171
 20
1.3448
 30
0.0
 10
6.2518
 20
1.345
 30
0.0
 10
6.2518
 20
1.345
 30
0.0
  0
SPLINE
  5
9E
330
1F
100
AcDbEntity
  8
Standard layer
 62
   250
370
    30
100
AcDbSpline
210
0.0
220
0.0
230
1.0
 70
     8
 71
     3
 72
     8
 73
     4
 74
     0
 42
0.0000000001
 43
0.0000000001
 40
0.0
 40
0.0
 40
0.0
 40
0.0
 40
1.0
 40
1.0
 40
1.0
 40
1.0
 10
7.6498
 20
1.3541
 30
0.0
 10
7.6371
 20
1.1544
 30
0.0
 10
7.638
 20
0.9606
 30
0.0
 10
7.6377
 20
0.7592
 30
0.0
  0
SPLINE
  5
9F
330
1F
100
AcDbEntity
  8
Standard layer
 62
   250
370
    30
100
AcDbSpline
210
0.0
220
0.0
230
1.0
 70
     8
 71
     3
 72
    12
 73
     8
 74
     0
 42
0.0000000001
 43
0.0000000001
 40
0.0
 40
0.0
 40
0.0
 40
0.0
 40
0.3333333333333333
 40
0.3333333333333333
 40
0.3333333333333333
 40
0.3333333333333333
 40
1.0
 40
1.0
 40
1.0
 40
1.0
 10
7.6377
 20
0.7592
 30
0.0
 10
7.6377
 20
0.7592
 30
0.0
 10
7.6365
 20
-0.302
 30
0.0
 10
7.6365
 20
-0.302
 30
0.0
 10
7.6365
 20
-0.302
 30
0.0
 10
7.6365
 20
-0.302
 30
0.0
 10
7.6362
 20
-0.67
 30
0.0
 10
7.6362
 20
-0.67
 30
0.0
  0
SPLINE
  5
A0
330
1F
100
AcDbEntity
  8
Standard layer
 62
   250
370
    30
100
AcDbSpline
210
0.0
220
0.0
230
1.0
 70
     8
 71
     3
 72
     8
 73
     4
 74
     0
 42
0.0000000001
 43
0.0000000001
 40
0.0
 40
0.0
 40
0.0
 40
0.0
 40
1.0
 40
1.0
 40
1.0
 40
1.0
 10
7.7411
 20
1.3448
 30
0.0
 10
7.7289
 20
1.1547
 30
0.0
 10
7.7307
 20
0.9696
 30
0.0
 10
7.7304
 20
0.7777
 30
0.0
  0
SPLINE
  5
A1
330
1F
100
AcDbEntity
  8
Standard layer
 62
   250
370
    30
100
AcDbSpline
210
0.0
220
0.0
230
1.0
 70
     8
 71
     3
 72
    12
 73
     8
 74
     0
 42
0.0000000001
 43
0.0000000001
 40
0.0
 40
0.0
 40
0.0
 40
0.0
 40
0.3333333333333333
 40
0.3333333333333333
 40
0.3333333333333333
 40
0.3333333333333333
 40
1.0
 40
1.0
 40
1.0
 40
1.0
 10
7.7304
 20
0.7777
 30
0.0
 10
7.7304
 20
0.7777
 30
0.0
 10
7.7289
 20
-0.302
 30
0.0
 10
7.7289
 20
-0.302
 30
0.0
 10
7.7289
 20
-0.302
 30
0.0
 10
7.7289
 20
-0.302
 30
0.0
 10
7.7284
 20
-0.67
 30
0.0
 10
7.7284
 20
-0.67
 30
0.0
  0
SPLINE
  5
A2
330
1F
100
AcDbEntity
  8
Standard layer
 62
   250
370
    30
100
AcDbSpline
210
0.0
220
0.0
230
1.0
 70
    24
 71
     3
 72
     8
 73
     4
 74
     0
 42
0.0000000001
 43
0.0000000001
 40
0.0
 40
0.0
 40
0.0
 40
0.0
 40
1.0
 40
1.0
 40
1.0
 40
1.0
 10
-23.6736
 20
-1.0049
 30
0.0
 10
-23.6736
 20
-1.0049
 30
0.0
 10
-24.4497
 20
7.8655
 30
0.0
 10
-24.4497
 20
7.8655
 30
0.0
  0
SPLINE
  5
A3
330
1F
100
AcDbEntity
  8
Standard layer
 62
   250
370
    30
100
AcDbSpline
210
0.0
220
0.0
230
1.0
 70
    24
 71
     3
 72
     8
 73
     4
 74
     0
 42
0.0000000001
 43
0.0000000001
 40
0.0
 40
0.0
 40
0.0
 40
0.0
 40
1.0
 40
1.0
 40
1.0
 40
1.0
 10
-4.3546
 20
1.4604
 30
0.0
 10
-4.3546
 20
1.4604
 30
0.0
 10
-13.861
 20
0.6287
 30
0.0
 10
-13.861
 20
0.6287
 30
0.0
  0
SPLINE
  5
A4
330
1F
100
AcDbEntity
  8
Standard layer
 62
   250
370
    30
100
AcDbSpline
210
0.0
220
0.0
230
1.0
 70
    24
 71
     3
 72
     8
 73
     4
 74
     0
 42
0.0000000001
 43
0.0000000001
 40
0.0
 40
0.0
 40
0.0
 40
0.0
 40
1.0
 40
1.0
 40
1.0
 40
1.0
 10
-13.861
 20
0.6287
 30
0.0
 10
-13.861
 20
0.6287
 30
0.0
 10
-14.5024
 20
7.9606
 30
0.0
 10
-14.5024
 20
7.9606
 30
0.0
  0
SPLINE
  5
A5
330
1F
100
AcDbEntity
  8
Standard layer
 62
   250
370
    30
100
AcDbSpline
210
0.0
220
0.0
230
1.0
 70
    24
 71
     3
 72
     8
 73
     4
 74
     0
 42
0.0000000001
 43
0.0000000001
 40
0.0
 40
0.0
 40
0.0
 40
0.0
 40
1.0
 40
1.0
 40
1.0
 40
1.0
 10
-0.9982
 20
4.2567
 30
0.0
 10
-0.9982
 20
4.2567
 30
0.0
 10
-0.9982
 20
2.182
 30
0.0
 10
-0.9982
 20
2.182
 30
0.0
  0
SPLINE
  5
A6
330
1F
100
AcDbEntity
  8
Standard layer
 62
   250
370
    30
100
AcDbSpline
210
0.0
220
0.0
230
1.0
 70
     8
 71
     3
 72
    20
 73
    16
 74
     0
 42
0.0000000001
 43
0.0000000001
 40
0.0
 40
0.0
 40
0.0
 40
0.0
 40
0.2
 40
0.2
 40
0.2
 40
0.2
 40
0.4
 40
0.4
 40
0.4
 40
0.4
 40
0.6
 40
0.6
 40
0.6
 40
0.6
 40
1.0
 40
1.0
 40
1.0
 40
1.0
 10
-15.2014
 20
8.823
 30
0.0
 10
-15.2014
 20
8.823
 30
0.0
 10
-15.5681
 20
8.791
 30
0.0
 10
-15.5681
 20
8.791
 30
0.0
 10
-15.5681
 20
8.791
 30
0.0
 10
-15.5681
 20
8.791
 30
0.0
 10
-23.546
 20
8.093
 30
0.0
 10
-23.546
 20
8.093
 30
0.0
 10
-23.546
 20
8.093
 30
0.0
 10
-23.546
 20
8.093
 30
0.0
 10
-23.9126
 20
8.0609
 30
0.0
 10
-23.9126
 20
8.0609
 30
0.0
 10
-23.9126
 20
8.0609
 30
0.0
 10
-23.9126
 20
8.0609
 30
0.0
 10
-24.4497
 20
7.8655
 30
0.0
 10
-24.4497
 20
7.8655
 30
0.0
  0
SPLINE
  5
A7
330
1F
100
AcDbEntity
  8
Standard layer
 62
   250
370
    30
100
AcDbSpline
210
0.0
220
0.0
230
1.0
 70
     8
 71
     3
 72
     8
 73
     4
 74
     0
 42
0.0000000001
 43
0.0000000001
 40
0.0
 40
0.0
 40
0.0
 40
0.0
 40
1.0
 40
1.0
 40
1.0
 40
1.0
 10
-14.3995
 20
-0.342
 30
0.0
 10
-17.3033
 20
-0.596
 30
0.0
 10
-20.2071
 20
-0.8501
 30
0.0
 10
-23.1107
 20
-1.1042
 30
0.0
  0
SPLINE
  5
A8
330
1F
100
AcDbEntity
  8
Standard layer
 62
   250
370
    30
100
AcDbSpline
210
0.0
220
0.0
230
1.0
 70
    24
 71
     3
 72
     8
 73
     4
 74
     0
 42
0.0000000001
 43
0.0000000001
 40
0.0
 40
0.0
 40
0.0
 40
0.0
 40
1.0
 40
1.0
 40
1.0
 40
1.0
 10
-23.1107
 20
-1.1042
 30
0.0
 10
-23.1107
 20
-1.1042
 30
0.0
 10
-23.6736
 20
-1.0049
 30
0.0
 10
-23.6736
 20
-1.0049
 30
0.0
  0
SPLINE
  5
A9
330
1F
100
AcDbEntity
  8
Standard layer
 62
   250
370
    30
100
AcDbSpline
210
0.0
220
0.0
230
1.0
 70
     8
 71
     3
 72
    16
 73
    12
 74
     0
 42
0.0000000001
 43
0.0000000001
 40
0.0
 40
0.0
 40
0.0
 40
0.0
 40
0.25
 40
0.25
 40
0.25
 40
0.25
 40
0.5
 40
0.5
 40
0.5
 40
0.5
 40
1.0
 40
1.0
 40
1.0
 40
1.0
 10
-13.861
 20
0.6287
 30
0.0
 10
-13.861
 20
0.6287
 30
0.0
 10
-13.9249
 20
0.2663
 30
0.0
 10
-13.9249
 20
0.2663
 30
0.0
 10
-13.9249
 20
0.2663
 30
0.0
 10
-13.9249
 20
0.2663
 30
0.0
 10
-14.0237
 20
-0.2943
 30
0.0
 10
-14.0237
 20
-0.2943
 30
0.0
 10
-14.0237
 20
-0.2943
 30
0.0
 10
-14.0237
 20
-0.2943
 30
0.0
 10
-14.0876
 20
-0.6567
 30
0.0
 10
-14.0876
 20
-0.6567
 30
0.0
  0
SPLINE
  5
AA
330
1F
100
AcDbEntity
  8
Standard layer
 62
   250
370
    30
100
AcDbSpline
210
0.0
220
0.0
230
1.0
 70
     8
 71
     3
 72
     8
 73
     4
 74
     0
 42
0.0000000001
 43
0.0000000001
 40
0.0
 40
0.0
 40
0.0
 40
0.0
 40
1.0
 40
1.0
 40
1.0
 40
1.0
 10
-14.0876
 20
-0.6567
 30
0.0
 10
-14.091
 20
-0.6737
 30
0.0
 10
-14.1037
 20
-0.6849
 30
0.0
 10
-14.1207
 20
-0.6869
 30
0.0
  0
SPLINE
  5
AB
330
1F
100
AcDbEntity
  8
Standard layer
 62
   250
370
    30
100
AcDbSpline
210
0.0
220
0.0
230
1.0
 70
    24
 71
     3
 72
     8
 73
     4
 74
     0
 42
0.0000000001
 43
0.0000000001
 40
0.0
 40
0.0
 40
0.0
 40
0.0
 40
1.0
 40
1.0
 40
1.0
 40
1.0
 10
-14.1207
 20
-0.6869
 30
0.0
 10
-14.1207
 20
-0.6869
 30
0.0
 10
-14.3309
 20
-0.7053
 30
0.0
 10
-14.3309
 20
-0.7053
 30
0.0
  0
SPLINE
  5
AC
330
1F
100
AcDbEntity
  8
Standard layer
 62
   250
370
    30
100
AcDbSpline
210
0.0
220
0.0
230
1.0
 70
     8
 71
     3
 72
     8
 73
     4
 74
     0
 42
0.0000000001
 43
0.0000000001
 40
0.0
 40
0.0
 40
0.0
 40
0.0
 40
1.0
 40
1.0
 40
1.0
 40
1.0
 10
-14.3309
 20
-0.7053
 30
0.0
 10
-14.3526
 20
-0.6985
 30
0.0
 10
-14.3674
 20
-0.7007
 30
0.0
 10
-14.3707
 20
-0.6719
 30
0.0
  0
SPLINE
  5
AD
330
1F
100
AcDbEntity
  8
Standard layer
 62
   250
370
    30
100
AcDbSpline
210
0.0
220
0.0
230
1.0
 70
     8
 71
     3
 72
    28
 73
    24
 74
     0
 42
0.0000000001
 43
0.0000000001
 40
0.0
 40
0.0
 40
0.0
 40
0.0
 40
0.1428571428571428
 40
0.1428571428571428
 40
0.1428571428571428
 40
0.1428571428571428
 40
0.2857142857142857
 40
0.2857142857142857
 40
0.2857142857142857
 40
0.2857142857142857
 40
0.4285714285714285
 40
0.4285714285714285
 40
0.4285714285714285
 40
0.4285714285714285
 40
0.5714285714285714
 40
0.5714285714285714
 40
0.5714285714285714
 40
0.5714285714285714
 40
0.7142857142857143
 40
0.7142857142857143
 40
0.7142857142857143
 40
0.7142857142857143
 40
1.0
 40
1.0
 40
1.0
 40
1.0
 10
-14.3707
 20
-0.6719
 30
0.0
 10
-14.3707
 20
-0.6719
 30
0.0
 10
-14.4029
 20
-0.3053
 30
0.0
 10
-14.4029
 20
-0.3053
 30
0.0
 10
-14.4029
 20
-0.3053
 30
0.0
 10
-14.4029
 20
-0.3053
 30
0.0
 10
-15.1983
 20
8.7864
 30
0.0
 10
-15.1983
 20
8.7864
 30
0.0
 10
-15.1983
 20
8.7864
 30
0.0
 10
-15.1983
 20
8.7864
 30
0.0
 10
-15.2303
 20
9.153
 30
0.0
 10
-15.2303
 20
9.153
 30
0.0
 10
-15.2303
 20
9.153
 30
0.0
 10
-15.2303
 20
9.153
 30
0.0
 10
-15.2218
 20
9.1798
 30
0.0
 10
-15.2218
 20
9.1798
 30
0.0
 10
-15.2218
 20
9.1798
 30
0.0
 10
-15.2218
 20
9.1798
 30
0.0
 10
-15.1968
 20
9.1928
 30
0.0
 10
-15.1968
 20
9.1928
 30
0.0
 10
-15.1968
 20
9.1928
 30
0.0
 10
-15.1968
 20
9.1928
 30
0.0
 10
-14.9867
 20
9.2112
 30
0.0
 10
-14.9867
 20
9.2112
 30
0.0
  0
SPLINE
  5
AE
330
1F
100
AcDbEntity
  8
Standard layer
 62
   250
370
    30
100
AcDbSpline
210
0.0
220
0.0
230
1.0
 70
     8
 71
     3
 72
    12
 73
     8
 74
     0
 42
0.0000000001
 43
0.0000000001
 40
0.0
 40
0.0
 40
0.0
 40
0.0
 40
0.3333333333333333
 40
0.3333333333333333
 40
0.3333333333333333
 40
0.3333333333333333
 40
1.0
 40
1.0
 40
1.0
 40
1.0
 10
-14.9867
 20
9.2112
 30
0.0
 10
-14.9696
 20
9.2121
 30
0.0
 10
-14.9552
 20
9.2033
 30
0.0
 10
-14.9489
 20
9.1871
 30
0.0
 10
-14.9489
 20
9.1871
 30
0.0
 10
-14.7922
 20
8.7815
 30
0.0
 10
-14.6513
 20
8.3694
 30
0.0
 10
-14.5024
 20
7.9606
 30
0.0
  0
SPLINE
  5
AF
330
1F
100
AcDbEntity
  8
Standard layer
 62
   250
370
    30
100
AcDbSpline
210
0.0
220
0.0
230
1.0
 70
    24
 71
     3
 72
    12
 73
     8
 74
     0
 42
0.0000000001
 43
0.0000000001
 40
0.0
 40
0.0
 40
0.0
 40
0.0
 40
0.3333333333333333
 40
0.3333333333333333
 40
0.3333333333333333
 40
0.3333333333333333
 40
1.0
 40
1.0
 40
1.0
 40
1.0
 10
6.3618
 20
2.182
 30
0.0
 10
6.3618
 20
2.182
 30
0.0
 10
6.3618
 20
2.55
 30
0.0
 10
6.3618
 20
2.55
 30
0.0
 10
6.3618
 20
2.55
 30
0.0
 10
6.3618
 20
2.55
 30
0.0
 10
6.3618
 20
5.402
 30
0.0
 10
6.3618
 20
5.402
 30
0.0
  0
SPLINE
  5
B0
330
1F
100
AcDbEntity
  8
Standard layer
 62
   250
370
    30
100
AcDbSpline
210
0.0
220
0.0
230
1.0
 70
     8
 71
     3
 72
     8
 73
     4
 74
     0
 42
0.0000000001
 43
0.0000000001
 40
0.0
 40
0.0
 40
0.0
 40
0.0
 40
1.0
 40
1.0
 40
1.0
 40
1.0
 10
6.3618
 20
5.402
 30
0.0
 10
6.3618
 20
5.7072
 30
0.0
 10
6.3588
 20
6.0184
 30
0.0
 10
6.3099
 20
6.3211
 30
0.0
  0
SPLINE
  5
B1
330
1F
100
AcDbEntity
  8
Standard layer
 62
   250
370
    30
100
AcDbSpline
210
0.0
220
0.0
230
1.0
 70
     8
 71
     3
 72
    32
 73
    28
 74
     0
 42
0.0000000001
 43
0.0000000001
 40
0.0
 40
0.0
 40
0.0
 40
0.0
 40
0.125
 40
0.125
 40
0.125
 40
0.125
 40
0.25
 40
0.25
 40
0.25
 40
0.25
 40
0.375
 40
0.375
 40
0.375
 40
0.375
 40
0.5
 40
0.5
 40
0.5
 40
0.5
 40
0.625
 40
0.625
 40
0.625
 40
0.625
 40
0.75
 40
0.75
 40
0.75
 40
0.75
 40
1.0
 40
1.0
 40
1.0
 40
1.0
 10
6.3099
 20
6.3211
 30
0.0
 10
6.3099
 20
6.3211
 30
0.0
 10
6.1859
 20
6.8602
 30
0.0
 10
6.1859
 20
6.8602
 30
0.0
 10
6.1859
 20
6.8602
 30
0.0
 10
6.1859
 20
6.8602
 30
0.0
 10
6.084
 20
7.1173
 30
0.0
 10
6.084
 20
7.1173
 30
0.0
 10
6.084
 20
7.1173
 30
0.0
 10
6.084
 20
7.1173
 30
0.0
 10
5.9822
 20
7.3745
 30
0.0
 10
5.9822
 20
7.3745
 30
0.0
 10
5.9822
 20
7.3745
 30
0.0
 10
5.9822
 20
7.3745
 30
0.0
 10
5.8429
 20
7.6134
 30
0.0
 10
5.8429
 20
7.6134
 30
0.0
 10
5.8429
 20
7.6134
 30
0.0
 10
5.8429
 20
7.6134
 30
0.0
 10
5.7035
 20
7.8523
 30
0.0
 10
5.7035
 20
7.8523
 30
0.0
 10
5.7035
 20
7.8523
 30
0.0
 10
5.7035
 20
7.8523
 30
0.0
 10
5.5299
 20
8.0677
 30
0.0
 10
5.5299
 20
8.0677
 30
0.0
 10
5.5299
 20
8.0677
 30
0.0
 10
5.5299
 20
8.0677
 30
0.0
 10
5.3562
 20
8.2829
 30
0.0
 10
5.3562
 20
8.2829
 30
0.0
  0
SPLINE
  5
B2
330
1F
100
AcDbEntity
  8
Standard layer
 62
   250
370
    30
100
AcDbSpline
210
0.0
220
0.0
230
1.0
 70
     8
 71
     3
 72
    12
 73
     8
 74
     0
 42
0.0000000001
 43
0.0000000001
 40
0.0
 40
0.0
 40
0.0
 40
0.0
 40
0.3333333333333333
 40
0.3333333333333333
 40
0.3333333333333333
 40
0.3333333333333333
 40
1.0
 40
1.0
 40
1.0
 40
1.0
 10
5.3562
 20
8.2829
 30
0.0
 10
5.1664
 20
8.4849
 30
0.0
 10
4.9474
 20
8.6569
 30
0.0
 10
4.7183
 20
8.8103
 30
0.0
 10
4.7183
 20
8.8103
 30
0.0
 10
4.4892
 20
8.9637
 30
0.0
 10
4.2469
 20
9.1009
 30
0.0
 10
3.9878
 20
9.1995
 30
0.0
  0
SPLINE
  5
B3
330
1F
100
AcDbEntity
  8
Standard layer
 62
   250
370
    30
100
AcDbSpline
210
0.0
220
0.0
230
1.0
 70
     8
 71
     3
 72
    32
 73
    28
 74
     0
 42
0.0000000001
 43
0.0000000001
 40
0.0
 40
0.0
 40
0.0
 40
0.0
 40
0.125
 40
0.125
 40
0.125
 40
0.125
 40
0.25
 40
0.25
 40
0.25
 40
0.25
 40
0.375
 40
0.375
 40
0.375
 40
0.375
 40
0.5
 40
0.5
 40
0.5
 40
0.5
 40
0.625
 40
0.625
 40
0.625
 40
0.625
 40
0.75
 40
0.75
 40
0.75
 40
0.75
 40
1.0
 40
1.0
 40
1.0
 40
1.0
 10
3.9878
 20
9.1995
 30
0.0
 10
3.9878
 20
9.1995
 30
0.0
 10
3.7227
 20
9.2782
 30
0.0
 10
3.7227
 20
9.2782
 30
0.0
 10
3.7227
 20
9.2782
 30
0.0
 10
3.7227
 20
9.2782
 30
0.0
 10
3.4576
 20
9.3569
 30
0.0
 10
3.4576
 20
9.3569
 30
0.0
 10
3.4576
 20
9.3569
 30
0.0
 10
3.4576
 20
9.3569
 30
0.0
 10
2.9096
 20
9.4327
 30
0.0
 10
2.9096
 20
9.4327
 30
0.0
 10
2.9096
 20
9.4327
 30
0.0
 10
2.9096
 20
9.4327
 30
0.0
 10
2.3611
 20
9.436
 30
0.0
 10
2.3611
 20
9.436
 30
0.0
 10
2.3611
 20
9.436
 30
0.0
 10
2.3611
 20
9.436
 30
0.0
 10
1.9945
 20
9.404
 30
0.0
 10
1.9945
 20
9.404
 30
0.0
 10
1.9945
 20
9.404
 30
0.0
 10
1.9945
 20
9.404
 30
0.0
 10
-14.1359
 20
7.9928
 30
0.0
 10
-14.1359
 20
7.9928
 30
0.0
 10
-14.1359
 20
7.9928
 30
0.0
 10
-14.1359
 20
7.9928
 30
0.0
 10
-14.5024
 20
7.9606
 30
0.0
 10
-14.5024
 20
7.9606
 30
0.0
  0
SPLINE
  5
B4
330
1F
100
AcDbEntity
  8
Standard layer
 62
   250
370
    30
100
AcDbSpline
210
0.0
220
0.0
230
1.0
 70
     8
 71
     3
 72
    12
 73
     8
 74
     0
 42
0.0000000001
 43
0.0000000001
 40
0.0
 40
0.0
 40
0.0
 40
0.0
 40
0.3333333333333333
 40
0.3333333333333333
 40
0.3333333333333333
 40
0.3333333333333333
 40
1.0
 40
1.0
 40
1.0
 40
1.0
 10
1.4949
 20
4.4748
 30
0.0
 10
1.4949
 20
4.4748
 30
0.0
 10
1.1283
 20
4.4427
 30
0.0
 10
1.1283
 20
4.4427
 30
0.0
 10
1.1283
 20
4.4427
 30
0.0
 10
1.1283
 20
4.4427
 30
0.0
 10
-1.3419
 20
4.2266
 30
0.0
 10
-1.3419
 20
4.2266
 30
0.0
  0
SPLINE
  5
B5
330
1F
100
AcDbEntity
  8
Standard layer
 62
   250
370
    30
100
AcDbSpline
210
0.0
220
0.0
230
1.0
 70
     8
 71
     3
 72
    12
 73
     8
 74
     0
 42
0.0000000001
 43
0.0000000001
 40
0.0
 40
0.0
 40
0.0
 40
0.0
 40
0.3333333333333333
 40
0.3333333333333333
 40
0.3333333333333333
 40
0.3333333333333333
 40
1.0
 40
1.0
 40
1.0
 40
1.0
 10
-1.3419
 20
4.2266
 30
0.0
 10
-1.5087
 20
4.212
 30
0.0
 10
-1.7712
 20
4.2051
 30
0.0
 10
-1.943
 20
4.1425
 30
0.0
 10
-1.943
 20
4.1425
 30
0.0
 10
-2.224
 20
4.0401
 30
0.0
 10
-2.385
 20
3.8076
 30
0.0
 10
-2.5696
 20
3.5875
 30
0.0
  0
SPLINE
  5
B6
330
1F
100
AcDbEntity
  8
Standard layer
 62
   250
370
    30
100
AcDbSpline
210
0.0
220
0.0
230
1.0
 70
     8
 71
     3
 72
    12
 73
     8
 74
     0
 42
0.0000000001
 43
0.0000000001
 40
0.0
 40
0.0
 40
0.0
 40
0.0
 40
0.3333333333333333
 40
0.3333333333333333
 40
0.3333333333333333
 40
0.3333333333333333
 40
1.0
 40
1.0
 40
1.0
 40
1.0
 10
-2.5696
 20
3.5875
 30
0.0
 10
-2.5696
 20
3.5875
 30
0.0
 10
-4.118
 20
1.7423
 30
0.0
 10
-4.118
 20
1.7423
 30
0.0
 10
-4.118
 20
1.7423
 30
0.0
 10
-4.118
 20
1.7423
 30
0.0
 10
-4.3546
 20
1.4604
 30
0.0
 10
-4.3546
 20
1.4604
 30
0.0
  0
SPLINE
  5
B7
330
1F
100
AcDbEntity
  8
Standard layer
  6
New Line1
 62
   250
370
    15
100
AcDbSpline
210
0.0
220
0.0
230
1.0
 70
    24
 71
     3
 72
     8
 73
     4
 74
     0
 42
0.0000000001
 43
0.0000000001
 40
0.0
 40
0.0
 40
0.0
 40
0.0
 40
1.0
 40
1.0
 40
1.0
 40
1.0
 10
-28.5955
 20
-3.8401
 30
0.0
 10
-28.5955
 20
-3.8401
 30
0.0
 10
-29.7521
 20
9.2789
 30
0.0
 10
-29.7521
 20
9.2789
 30
0.0
  0
SPLINE
  5
B9
330
1F
100
AcDbEntity
  8
Standard layer
 62
   250
100
AcDbSpline
210
0.0
220
0.0
230
1.0
 70
    11
 71
     3
 72
   104
 73
   100
 74
     0
 42
0.0000000001
 43
0.0000000001
 40
0.0
 40
0.0
 40
0.0
 40
0.0
 40
0.0384615384615385
 40
0.0384615384615385
 40
0.0384615384615385
 40
0.0384615384615385
 40
0.0769230769230769
 40
0.0769230769230769
 40
0.0769230769230769
 40
0.0769230769230769
 40
0.1153846153846154
 40
0.1153846153846154
 40
0.1153846153846154
 40
0.1153846153846154
 40
0.1538461538461539
 40
0.1538461538461539
 40
0.1538461538461539
 40
0.1538461538461539
 40
0.1923076923076923
 40
0.1923076923076923
 40
0.1923076923076923
 40
0.1923076923076923
 40
0.2307692307692308
 40
0.2307692307692308
 40
0.2307692307692308
 40
0.2307692307692308
 40
0.2692307692307692
 40
0.2692307692307692
 40
0.2692307692307692
 40
0.2692307692307692
 40
0.3076923076923077
 40
0.3076923076923077
 40
0.3076923076923077
 40
0.3076923076923077
 40
0.3461538461538461
 40
0.3461538461538461
 40
0.3461538461538461
 40
0.3461538461538461
 40
0.3846153846153846
 40
0.3846153846153846
 40
0.3846153846153846
 40
0.3846153846153846
 40
0.4230769230769231
 40
0.4230769230769231
 40
0.4230769230769231
 40
0.4230769230769231
 40
0.4615384615384616
 40
0.4615384615384616
 40
0.4615384615384616
 40
0.4615384615384616
 40
0.5
 40
0.5
 40
0.5
 40
0.5
 40
0.5384615384615384
 40
0.5384615384615384
 40
0.5384615384615384
 40
0.5384615384615384
 40
0.5769230769230769
 40
0.5769230769230769
 40
0.5769230769230769
 40
0.5769230769230769
 40
0.6153846153846154
 40
0.6153846153846154
 40
0.6153846153846154
 40
0.6153846153846154
 40
0.6538461538461539
 40
0.6538461538461539
 40
0.6538461538461539
 40
0.6538461538461539
 40
0.6923076923076923
 40
0.6923076923076923
 40
0.6923076923076923
 40
0.6923076923076923
 40
0.7307692307692307
 40
0.7307692307692307
 40
0.7307692307692307
 40
0.7307692307692307
 40
0.7692307692307693
 40
0.7692307692307693
 40
0.7692307692307693
 40
0.7692307692307693
 40
0.8076923076923077
 40
0.8076923076923077
 40
0.8076923076923077
 40
0.8076923076923077
 40
0.8461538461538461
 40
0.8461538461538461
 40
0.8461538461538461
 40
0.8461538461538461
 40
0.8846153846153846
 40
0.8846153846153846
 40
0.8846153846153846
 40
0.8846153846153846
 40
0.9230769230769231
 40
0.9230769230769231
 40
0.9230769230769231
 40
0.9230769230769231
 40
1.0
 40
1.0
 40
1.0
 40
1.0
 10
-29.2105
 20
0.4327
 30
0.0
 10
-29.2105
 20
0.4327
 30
0.0
 10
-29.5644
 20
0.6471
 30
0.0
 10
-29.5644
 20
0.6471
 30
0.0
 10
-29.5644
 20
0.6471
 30
0.0
 10
-29.5049
 20
0.7465
 30
0.0
 10
-29.4617
 20
0.8535
 30
0.0
 10
-29.4359
 20
0.9673
 30
0.0
 10
-29.4359
 20
0.9673
 30
0.0
 10
-29.4102
 20
1.0819
 30
0.0
 10
-29.4024
 20
1.2002
 30
0.0
 10
-29.4131
 20
1.3226
 30
0.0
 10
-29.4131
 20
1.3226
 30
0.0
 10
-29.4241
 20
1.4482
 30
0.0
 10
-29.4534
 20
1.5683
 30
0.0
 10
-29.5003
 20
1.6818
 30
0.0
 10
-29.5003
 20
1.6818
 30
0.0
 10
-29.5473
 20
1.7951
 30
0.0
 10
-29.6115
 20
1.8986
 30
0.0
 10
-29.6936
 20
1.9914
 30
0.0
 10
-29.6936
 20
1.9914
 30
0.0
 10
-29.7752
 20
2.0848
 30
0.0
 10
-29.8742
 20
2.1639
 30
0.0
 10
-29.9904
 20
2.229
 30
0.0
 10
-29.9904
 20
2.229
 30
0.0
 10
-30.1063
 20
2.2936
 30
0.0
 10
-30.239
 20
2.3404
 30
0.0
 10
-30.3889
 20
2.3694
 30
0.0
 10
-30.3889
 20
2.3694
 30
0.0
 10
-30.5382
 20
2.3979
 30
0.0
 10
-30.7036
 20
2.4048
 30
0.0
 10
-30.8854
 20
2.3896
 30
0.0
 10
-30.8854
 20
2.3896
 30
0.0
 10
-31.0136
 20
2.3784
 30
0.0
 10
-31.1343
 20
2.3549
 30
0.0
 10
-31.2479
 20
2.3183
 30
0.0
 10
-31.2479
 20
2.3183
 30
0.0
 10
-31.3622
 20
2.2824
 30
0.0
 10
-31.4672
 20
2.2348
 30
0.0
 10
-31.5627
 20
2.1765
 30
0.0
 10
-31.5627
 20
2.1765
 30
0.0
 10
-31.6582
 20
2.1175
 30
0.0
 10
-31.7417
 20
2.0485
 30
0.0
 10
-31.8147
 20
1.9694
 30
0.0
 10
-31.8147
 20
1.9694
 30
0.0
 10
-31.8147
 20
1.9694
 30
0.0
 10
-32.1681
 20
2.18
 30
0.0
 10
-32.1681
 20
2.18
 30
0.0
 10
-32.1681
 20
2.18
 30
0.0
 10
-32.1681
 20
2.18
 30
0.0
 10
-32.2893
 20
1.9629
 30
0.0
 10
-32.2893
 20
1.9629
 30
0.0
 10
-32.2893
 20
1.9629
 30
0.0
 10
-32.2893
 20
1.9629
 30
0.0
 10
-31.9563
 20
1.7623
 30
0.0
 10
-31.9563
 20
1.7623
 30
0.0
 10
-31.9563
 20
1.7623
 30
0.0
 10
-32.0176
 20
1.6628
 30
0.0
 10
-32.061
 20
1.557
 30
0.0
 10
-32.0862
 20
1.4445
 30
0.0
 10
-32.0862
 20
1.4445
 30
0.0
 10
-32.1114
 20
1.3312
 30
0.0
 10
-32.1187
 20
1.2151
 30
0.0
 10
-32.1081
 20
1.0945
 30
0.0
 10
-32.1081
 20
1.0945
 30
0.0
 10
-32.0925
 20
0.9226
 30
0.0
 10
-32.0464
 20
0.767
 30
0.0
 10
-31.9698
 20
0.6262
 30
0.0
 10
-31.9698
 20
0.6262
 30
0.0
 10
-31.8933
 20
0.4862
 30
0.0
 10
-31.7901
 20
0.3674
 30
0.0
 10
-31.6613
 20
0.2695
 30
0.0
 10
-31.6613
 20
0.2695
 30
0.0
 10
-31.5327
 20
0.1711
 30
0.0
 10
-31.3823
 20
0.0998
 30
0.0
 10
-31.2101
 20
0.0538
 30
0.0
 10
-31.2101
 20
0.0538
 30
0.0
 10
-31.038
 20
0.0086
 30
0.0
 10
-30.8491
 20
-0.0061
 30
0.0
 10
-30.6423
 20
0.0114
 30
0.0
 10
-30.6423
 20
0.0114
 30
0.0
 10
-30.5121
 20
0.0228
 30
0.0
 10
-30.389
 20
0.0478
 30
0.0
 10
-30.2741
 20
0.0851
 30
0.0
 10
-30.2741
 20
0.0851
 30
0.0
 10
-30.1592
 20
0.1225
 30
0.0
 10
-30.0538
 20
0.1713
 30
0.0
 10
-29.9584
 20
0.2309
 30
0.0
 10
-29.9584
 20
0.2309
 30
0.0
 10
-29.863
 20
0.2912
 30
0.0
 10
-29.7788
 20
0.3609
 30
0.0
 10
-29.706
 20
0.44
 30
0.0
 10
-29.706
 20
0.44
 30
0.0
 10
-29.706
 20
0.44
 30
0.0
 10
-29.3487
 20
0.2297
 30
0.0
 10
-29.3487
 20
0.2297
 30
0.0
 10
-29.3487
 20
0.2297
 30
0.0
 10
-29.3487
 20
0.2297
 30
0.0
 10
-29.2105
 20
0.4327
 30
0.0
 10
-29.2105
 20
0.4327
 30
0.0
  0
SPLINE
  5
BA
330
1F
100
AcDbEntity
  8
Standard layer
 62
   250
100
AcDbSpline
210
0.0
220
0.0
230
1.0
 70
    11
 71
     3
 72
    52
 73
    48
 74
     0
 42
0.0000000001
 43
0.0000000001
 40
0.0
 40
0.0
 40
0.0
 40
0.0
 40
0.0769230769230769
 40
0.0769230769230769
 40
0.0769230769230769
 40
0.0769230769230769
 40
0.1538461538461539
 40
0.1538461538461539
 40
0.1538461538461539
 40
0.1538461538461539
 40
0.2307692307692308
 40
0.2307692307692308
 40
0.2307692307692308
 40
0.2307692307692308
 40
0.3076923076923077
 40
0.3076923076923077
 40
0.3076923076923077
 40
0.3076923076923077
 40
0.3846153846153846
 40
0.3846153846153846
 40
0.3846153846153846
 40
0.3846153846153846
 40
0.4615384615384616
 40
0.4615384615384616
 40
0.4615384615384616
 40
0.4615384615384616
 40
0.5384615384615384
 40
0.5384615384615384
 40
0.5384615384615384
 40
0.5384615384615384
 40
0.6153846153846154
 40
0.6153846153846154
 40
0.6153846153846154
 40
0.6153846153846154
 40
0.6923076923076923
 40
0.6923076923076923
 40
0.6923076923076923
 40
0.6923076923076923
 40
0.7692307692307693
 40
0.7692307692307693
 40
0.7692307692307693
 40
0.7692307692307693
 40
0.8461538461538461
 40
0.8461538461538461
 40
0.8461538461538461
 40
0.8461538461538461
 40
1.0
 40
1.0
 40
1.0
 40
1.0
 10
-30.0092
 20
0.6121
 30
0.0
 10
-30.0092
 20
0.6121
 30
0.0
 10
-30.0046
 20
0.6047
 30
0.0
 10
-30.0046
 20
0.6047
 30
0.0
 10
-30.0046
 20
0.6047
 30
0.0
 10
-30.0677
 20
0.5602
 30
0.0
 10
-30.1337
 20
0.5207
 30
0.0
 10
-30.2021
 20
0.4861
 30
0.0
 10
-30.2021
 20
0.4861
 30
0.0
 10
-30.2711
 20
0.4516
 30
0.0
 10
-30.3446
 20
0.4231
 30
0.0
 10
-30.4243
 20
0.4004
 30
0.0
 10
-30.4243
 20
0.4004
 30
0.0
 10
-30.5036
 20
0.378
 30
0.0
 10
-30.5918
 20
0.3625
 30
0.0
 10
-30.6878
 20
0.3541
 30
0.0
 10
-30.6878
 20
0.3541
 30
0.0
 10
-30.7987
 20
0.3444
 30
0.0
 10
-30.9066
 20
0.3466
 30
0.0
 10
-31.0136
 20
0.3599
 30
0.0
 10
-31.0136
 20
0.3599
 30
0.0
 10
-31.12
 20
0.374
 30
0.0
 10
-31.2209
 20
0.3996
 30
0.0
 10
-31.3151
 20
0.4368
 30
0.0
 10
-31.3151
 20
0.4368
 30
0.0
 10
-31.4099
 20
0.4746
 30
0.0
 10
-31.4947
 20
0.5243
 30
0.0
 10
-31.569
 20
0.5867
 30
0.0
 10
-31.569
 20
0.5867
 30
0.0
 10
-31.6439
 20
0.6489
 30
0.0
 10
-31.7044
 20
0.7235
 30
0.0
 10
-31.7509
 20
0.8103
 30
0.0
 10
-31.7509
 20
0.8103
 30
0.0
 10
-31.7981
 20
0.8977
 30
0.0
 10
-31.8263
 20
0.9978
 30
0.0
 10
-31.8369
 20
1.1105
 30
0.0
 10
-31.8369
 20
1.1105
 30
0.0
 10
-31.8448
 20
1.2091
 30
0.0
 10
-31.8367
 20
1.3008
 30
0.0
 10
-31.8115
 20
1.3848
 30
0.0
 10
-31.8115
 20
1.3848
 30
0.0
 10
-31.7871
 20
1.4693
 30
0.0
 10
-31.7491
 20
1.5466
 30
0.0
 10
-31.6982
 20
1.6174
 30
0.0
 10
-31.6982
 20
1.6174
 30
0.0
 10
-31.6982
 20
1.6174
 30
0.0
 10
-30.0092
 20
0.6121
 30
0.0
 10
-30.0092
 20
0.6121
 30
0.0
  0
SPLINE
  5
BB
330
1F
100
AcDbEntity
  8
Standard layer
 62
   250
100
AcDbSpline
210
0.0
220
0.0
230
1.0
 70
    11
 71
     3
 72
    48
 73
    44
 74
     0
 42
0.0000000001
 43
0.0000000001
 40
0.0
 40
0.0
 40
0.0
 40
0.0
 40
0.0833333333333333
 40
0.0833333333333333
 40
0.0833333333333333
 40
0.0833333333333333
 40
0.1666666666666667
 40
0.1666666666666667
 40
0.1666666666666667
 40
0.1666666666666667
 40
0.25
 40
0.25
 40
0.25
 40
0.25
 40
0.3333333333333333
 40
0.3333333333333333
 40
0.3333333333333333
 40
0.3333333333333333
 40
0.4166666666666667
 40
0.4166666666666667
 40
0.4166666666666667
 40
0.4166666666666667
 40
0.5
 40
0.5
 40
0.5
 40
0.5
 40
0.5833333333333334
 40
0.5833333333333334
 40
0.5833333333333334
 40
0.5833333333333334
 40
0.6666666666666666
 40
0.6666666666666666
 40
0.6666666666666666
 40
0.6666666666666666
 40
0.75
 40
0.75
 40
0.75
 40
0.75
 40
0.8333333333333334
 40
0.8333333333333334
 40
0.8333333333333334
 40
0.8333333333333334
 40
1.0
 40
1.0
 40
1.0
 40
1.0
 10
-31.5071
 20
1.7938
 30
0.0
 10
-31.5071
 20
1.7938
 30
0.0
 10
-31.5081
 20
1.8053
 30
0.0
 10
-31.5081
 20
1.8053
 30
0.0
 10
-31.5081
 20
1.8053
 30
0.0
 10
-31.4019
 20
1.8822
 30
0.0
 10
-31.2927
 20
1.9391
 30
0.0
 10
-31.1804
 20
1.9768
 30
0.0
 10
-31.1804
 20
1.9768
 30
0.0
 10
-31.0688
 20
2.0145
 30
0.0
 10
-30.9566
 20
2.038
 30
0.0
 10
-30.8437
 20
2.0466
 30
0.0
 10
-30.8437
 20
2.0466
 30
0.0
 10
-30.7265
 20
2.0568
 30
0.0
 10
-30.6132
 20
2.0544
 30
0.0
 10
-30.5035
 20
2.04
 30
0.0
 10
-30.5035
 20
2.04
 30
0.0
 10
-30.3939
 20
2.0256
 30
0.0
 10
-30.2915
 20
1.9988
 30
0.0
 10
-30.1966
 20
1.9603
 30
0.0
 10
-30.1966
 20
1.9603
 30
0.0
 10
-30.1017
 20
1.9213
 30
0.0
 10
-30.0175
 20
1.8709
 30
0.0
 10
-29.9444
 20
1.8084
 30
0.0
 10
-29.9444
 20
1.8084
 30
0.0
 10
-29.8708
 20
1.7454
 30
0.0
 10
-29.8111
 20
1.6714
 30
0.0
 10
-29.766
 20
1.5858
 30
0.0
 10
-29.766
 20
1.5858
 30
0.0
 10
-29.7208
 20
1.5001
 30
0.0
 10
-29.6935
 20
1.4032
 30
0.0
 10
-29.6833
 20
1.295
 30
0.0
 10
-29.6833
 20
1.295
 30
0.0
 10
-29.6741
 20
1.19
 30
0.0
 10
-29.6822
 20
1.0965
 30
0.0
 10
-29.7069
 20
1.0157
 30
0.0
 10
-29.7069
 20
1.0157
 30
0.0
 10
-29.7316
 20
0.9343
 30
0.0
 10
-29.7719
 20
0.8601
 30
0.0
 10
-29.8263
 20
0.7917
 30
0.0
 10
-29.8263
 20
0.7917
 30
0.0
 10
-29.8263
 20
0.7917
 30
0.0
 10
-31.5071
 20
1.7938
 30
0.0
 10
-31.5071
 20
1.7938
 30
0.0
  0
SPLINE
  5
BC
330
1F
100
AcDbEntity
  8
Standard layer
 62
   250
100
AcDbSpline
210
0.0
220
0.0
230
1.0
 70
    11
 71
     3
 72
   132
 73
   128
 74
     0
 42
0.0000000001
 43
0.0000000001
 40
0.0
 40
0.0
 40
0.0
 40
0.0
 40
0.0303030303030303
 40
0.0303030303030303
 40
0.0303030303030303
 40
0.0303030303030303
 40
0.0606060606060606
 40
0.0606060606060606
 40
0.0606060606060606
 40
0.0606060606060606
 40
0.0909090909090909
 40
0.0909090909090909
 40
0.0909090909090909
 40
0.0909090909090909
 40
0.1212121212121212
 40
0.1212121212121212
 40
0.1212121212121212
 40
0.1212121212121212
 40
0.1515151515151515
 40
0.1515151515151515
 40
0.1515151515151515
 40
0.1515151515151515
 40
0.1818181818181818
 40
0.1818181818181818
 40
0.1818181818181818
 40
0.1818181818181818
 40
0.2121212121212121
 40
0.2121212121212121
 40
0.2121212121212121
 40
0.2121212121212121
 40
0.2424242424242424
 40
0.2424242424242424
 40
0.2424242424242424
 40
0.2424242424242424
 40
0.2727272727272727
 40
0.2727272727272727
 40
0.2727272727272727
 40
0.2727272727272727
 40
0.303030303030303
 40
0.303030303030303
 40
0.303030303030303
 40
0.303030303030303
 40
0.3333333333333333
 40
0.3333333333333333
 40
0.3333333333333333
 40
0.3333333333333333
 40
0.3636363636363636
 40
0.3636363636363636
 40
0.3636363636363636
 40
0.3636363636363636
 40
0.3939393939393939
 40
0.3939393939393939
 40
0.3939393939393939
 40
0.3939393939393939
 40
0.4242424242424243
 40
0.4242424242424243
 40
0.4242424242424243
 40
0.4242424242424243
 40
0.4545454545454545
 40
0.4545454545454545
 40
0.4545454545454545
 40
0.4545454545454545
 40
0.4848484848484849
 40
0.4848484848484849
 40
0.4848484848484849
 40
0.4848484848484849
 40
0.5151515151515151
 40
0.5151515151515151
 40
0.5151515151515151
 40
0.5151515151515151
 40
0.5454545454545454
 40
0.5454545454545454
 40
0.5454545454545454
 40
0.5454545454545454
 40
0.5757575757575758
 40
0.5757575757575758
 40
0.5757575757575758
 40
0.5757575757575758
 40
0.6060606060606061
 40
0.6060606060606061
 40
0.6060606060606061
 40
0.6060606060606061
 40
0.6363636363636364
 40
0.6363636363636364
 40
0.6363636363636364
 40
0.6363636363636364
 40
0.6666666666666666
 40
0.6666666666666666
 40
0.6666666666666666
 40
0.6666666666666666
 40
0.696969696969697
 40
0.696969696969697
 40
0.696969696969697
 40
0.696969696969697
 40
0.7272727272727273
 40
0.7272727272727273
 40
0.7272727272727273
 40
0.7272727272727273
 40
0.7575757575757576
 40
0.7575757575757576
 40
0.7575757575757576
 40
0.7575757575757576
 40
0.7878787878787878
 40
0.7878787878787878
 40
0.7878787878787878
 40
0.7878787878787878
 40
0.8181818181818182
 40
0.8181818181818182
 40
0.8181818181818182
 40
0.8181818181818182
 40
0.8484848484848485
 40
0.8484848484848485
 40
0.8484848484848485
 40
0.8484848484848485
 40
0.8787878787878788
 40
0.8787878787878788
 40
0.8787878787878788
 40
0.8787878787878788
 40
0.9090909090909091
 40
0.9090909090909091
 40
0.9090909090909091
 40
0.9090909090909091
 40
0.9393939393939394
 40
0.9393939393939394
 40
0.9393939393939394
 40
0.9393939393939394
 40
1.0
 40
1.0
 40
1.0
 40
1.0
 10
-32.2311
 20
4.1028
 30
0.0
 10
-32.2311
 20
4.1028
 30
0.0
 10
-32.1259
 20
2.9005
 30
0.0
 10
-32.1259
 20
2.9005
 30
0.0
 10
-32.1259
 20
2.9005
 30
0.0
 10
-32.1259
 20
2.9005
 30
0.0
 10
-30.9056
 20
2.8436
 30
0.0
 10
-30.9056
 20
2.8436
 30
0.0
 10
-30.9056
 20
2.8436
 30
0.0
 10
-30.9161
 20
2.8895
 30
0.0
 10
-30.9258
 20
2.9405
 30
0.0
 10
-30.9354
 20
2.9982
 30
0.0
 10
-30.9354
 20
2.9982
 30
0.0
 10
-30.9449
 20
3.0551
 30
0.0
 10
-30.9532
 20
3.1206
 30
0.0
 10
-30.9596
 20
3.1934
 30
0.0
 10
-30.9596
 20
3.1934
 30
0.0
 10
-30.9734
 20
3.3596
 30
0.0
 10
-30.9615
 20
3.4977
 30
0.0
 10
-30.9244
 20
3.6075
 30
0.0
 10
-30.9244
 20
3.6075
 30
0.0
 10
-30.8866
 20
3.7179
 30
0.0
 10
-30.8292
 20
3.8021
 30
0.0
 10
-30.7511
 20
3.8602
 30
0.0
 10
-30.7511
 20
3.8602
 30
0.0
 10
-30.6724
 20
3.9184
 30
0.0
 10
-30.5787
 20
3.9519
 30
0.0
 10
-30.4697
 20
3.9607
 30
0.0
 10
-30.4697
 20
3.9607
 30
0.0
 10
-30.3854
 20
3.9688
 30
0.0
 10
-30.3086
 20
3.96
 30
0.0
 10
-30.2388
 20
3.9343
 30
0.0
 10
-30.2388
 20
3.9343
 30
0.0
 10
-30.1685
 20
3.9092
 30
0.0
 10
-30.108
 20
3.871
 30
0.0
 10
-30.0555
 20
3.8204
 30
0.0
 10
-30.0555
 20
3.8204
 30
0.0
 10
-30.0037
 20
3.7697
 30
0.0
 10
-29.9621
 20
3.7098
 30
0.0
 10
-29.9308
 20
3.6405
 30
0.0
 10
-29.9308
 20
3.6405
 30
0.0
 10
-29.8994
 20
3.5712
 30
0.0
 10
-29.8798
 20
3.4969
 30
0.0
 10
-29.8729
 20
3.417
 30
0.0
 10
-29.8729
 20
3.417
 30
0.0
 10
-29.8667
 20
3.339
 30
0.0
 10
-29.8674
 20
3.2649
 30
0.0
 10
-29.8762
 20
3.1946
 30
0.0
 10
-29.8762
 20
3.1946
 30
0.0
 10
-29.8843
 20
3.1245
 30
0.0
 10
-29.8963
 20
3.0611
 30
0.0
 10
-29.9128
 20
3.0045
 30
0.0
 10
-29.9128
 20
3.0045
 30
0.0
 10
-29.9292
 20
2.9479
 30
0.0
 10
-29.9466
 20
2.9009
 30
0.0
 10
-29.9647
 20
2.8637
 30
0.0
 10
-29.9647
 20
2.8637
 30
0.0
 10
-29.9647
 20
2.8637
 30
0.0
 10
-29.6982
 20
2.8013
 30
0.0
 10
-29.6982
 20
2.8013
 30
0.0
 10
-29.6982
 20
2.8013
 30
0.0
 10
-29.6755
 20
2.8454
 30
0.0
 10
-29.6555
 20
2.8998
 30
0.0
 10
-29.6372
 20
2.9643
 30
0.0
 10
-29.6372
 20
2.9643
 30
0.0
 10
-29.6195
 20
3.0289
 30
0.0
 10
-29.607
 20
3.1014
 30
0.0
 10
-29.5991
 20
3.1819
 30
0.0
 10
-29.5991
 20
3.1819
 30
0.0
 10
-29.5913
 20
3.2631
 30
0.0
 10
-29.5911
 20
3.3495
 30
0.0
 10
-29.5984
 20
3.441
 30
0.0
 10
-29.5984
 20
3.441
 30
0.0
 10
-29.6111
 20
3.5782
 30
0.0
 10
-29.644
 20
3.7012
 30
0.0
 10
-29.6964
 20
3.8116
 30
0.0
 10
-29.6964
 20
3.8116
 30
0.0
 10
-29.7489
 20
3.9219
 30
0.0
 10
-29.8175
 20
4.0153
 30
0.0
 10
-29.9021
 20
4.0916
 30
0.0
 10
-29.9021
 20
4.0916
 30
0.0
 10
-29.9867
 20
4.1686
 30
0.0
 10
-30.0832
 20
4.225
 30
0.0
 10
-30.1909
 20
4.2618
 30
0.0
 10
-30.1909
 20
4.2618
 30
0.0
 10
-30.2993
 20
4.2984
 30
0.0
 10
-30.4154
 20
4.3116
 30
0.0
 10
-30.5385
 20
4.3014
 30
0.0
 10
-30.5385
 20
4.3014
 30
0.0
 10
-30.6428
 20
4.2917
 30
0.0
 10
-30.7354
 20
4.2666
 30
0.0
 10
-30.8157
 20
4.2272
 30
0.0
 10
-30.8157
 20
4.2272
 30
0.0
 10
-30.8959
 20
4.1878
 30
0.0
 10
-30.9637
 20
4.139
 30
0.0
 10
-31.0196
 20
4.0796
 30
0.0
 10
-31.0196
 20
4.0796
 30
0.0
 10
-31.0754
 20
4.0201
 30
0.0
 10
-31.1184
 20
3.9553
 30
0.0
 10
-31.1487
 20
3.8858
 30
0.0
 10
-31.1487
 20
3.8858
 30
0.0
 10
-31.1896
 20
3.8037
 30
0.0
 10
-31.2169
 20
3.7162
 30
0.0
 10
-31.2302
 20
3.6223
 30
0.0
 10
-31.2302
 20
3.6223
 30
0.0
 10
-31.2434
 20
3.5283
 30
0.0
 10
-31.246
 20
3.4319
 30
0.0
 10
-31.2367
 20
3.3327
 30
0.0
 10
-31.2367
 20
3.3327
 30
0.0
 10
-31.2328
 20
3.2877
 30
0.0
 10
-31.2287
 20
3.2491
 30
0.0
 10
-31.224
 20
3.2177
 30
0.0
 10
-31.224
 20
3.2177
 30
0.0
 10
-31.2193
 20
3.1863
 30
0.0
 10
-31.2135
 20
3.1569
 30
0.0
 10
-31.2071
 20
3.1289
 30
0.0
 10
-31.2071
 20
3.1289
 30
0.0
 10
-31.2071
 20
3.1289
 30
0.0
 10
-31.8612
 20
3.169
 30
0.0
 10
-31.8612
 20
3.169
 30
0.0
 10
-31.8612
 20
3.169
 30
0.0
 10
-31.8612
 20
3.169
 30
0.0
 10
-31.9451
 20
4.1278
 30
0.0
 10
-31.9451
 20
4.1278
 30
0.0
 10
-31.9451
 20
4.1278
 30
0.0
 10
-31.9451
 20
4.1278
 30
0.0
 10
-32.2311
 20
4.1028
 30
0.0
 10
-32.2311
 20
4.1028
 30
0.0
  0
SPLINE
  5
BD
330
1F
100
AcDbEntity
  8
Standard layer
 62
   250
100
AcDbSpline
210
0.0
220
0.0
230
1.0
 70
    11
 71
     3
 72
    56
 73
    52
 74
     0
 42
0.0000000001
 43
0.0000000001
 40
0.0
 40
0.0
 40
0.0
 40
0.0
 40
0.0714285714285714
 40
0.0714285714285714
 40
0.0714285714285714
 40
0.0714285714285714
 40
0.1428571428571428
 40
0.1428571428571428
 40
0.1428571428571428
 40
0.1428571428571428
 40
0.2142857142857143
 40
0.2142857142857143
 40
0.2142857142857143
 40
0.2142857142857143
 40
0.2857142857142857
 40
0.2857142857142857
 40
0.2857142857142857
 40
0.2857142857142857
 40
0.3571428571428572
 40
0.3571428571428572
 40
0.3571428571428572
 40
0.3571428571428572
 40
0.4285714285714285
 40
0.4285714285714285
 40
0.4285714285714285
 40
0.4285714285714285
 40
0.5
 40
0.5
 40
0.5
 40
0.5
 40
0.5714285714285714
 40
0.5714285714285714
 40
0.5714285714285714
 40
0.5714285714285714
 40
0.6428571428571429
 40
0.6428571428571429
 40
0.6428571428571429
 40
0.6428571428571429
 40
0.7142857142857143
 40
0.7142857142857143
 40
0.7142857142857143
 40
0.7142857142857143
 40
0.7857142857142857
 40
0.7857142857142857
 40
0.7857142857142857
 40
0.7857142857142857
 40
0.8571428571428571
 40
0.8571428571428571
 40
0.8571428571428571
 40
0.8571428571428571
 40
1.0
 40
1.0
 40
1.0
 40
1.0
 10
-32.3896
 20
5.425
 30
0.0
 10
-32.3784
 20
5.2968
 30
0.0
 10
-32.3399
 20
5.182
 30
0.0
 10
-32.2737
 20
5.08
 30
0.0
 10
-32.2737
 20
5.08
 30
0.0
 10
-32.2077
 20
4.9779
 30
0.0
 10
-32.1165
 20
4.8932
 30
0.0
 10
-31.9989
 20
4.8242
 30
0.0
 10
-31.9989
 20
4.8242
 30
0.0
 10
-31.8811
 20
4.7552
 30
0.0
 10
-31.7393
 20
4.7067
 30
0.0
 10
-31.5731
 20
4.6777
 30
0.0
 10
-31.5731
 20
4.6777
 30
0.0
 10
-31.407
 20
4.6494
 30
0.0
 10
-31.2183
 20
4.6438
 30
0.0
 10
-31.0063
 20
4.6617
 30
0.0
 10
-31.0063
 20
4.6617
 30
0.0
 10
-30.729
 20
4.6899
 30
0.0
 10
-30.4976
 20
4.7471
 30
0.0
 10
-30.3117
 20
4.8341
 30
0.0
 10
-30.3117
 20
4.8341
 30
0.0
 10
-30.1259
 20
4.9212
 30
0.0
 10
-29.9888
 20
5.0312
 30
0.0
 10
-29.9004
 20
5.1636
 30
0.0
 10
-29.9004
 20
5.1636
 30
0.0
 10
-29.812
 20
5.2959
 30
0.0
 10
-29.7744
 20
5.4447
 30
0.0
 10
-29.7881
 20
5.6097
 30
0.0
 10
-29.7881
 20
5.6097
 30
0.0
 10
-29.805
 20
5.7945
 30
0.0
 10
-29.8703
 20
5.9472
 30
0.0
 10
-29.9835
 20
6.0685
 30
0.0
 10
-29.9835
 20
6.0685
 30
0.0
 10
-30.0967
 20
6.1897
 30
0.0
 10
-30.2548
 20
6.2759
 30
0.0
 10
-30.4579
 20
6.327
 30
0.0
 10
-30.4579
 20
6.327
 30
0.0
 10
-30.6611
 20
6.3787
 30
0.0
 10
-30.905
 20
6.3916
 30
0.0
 10
-31.1905
 20
6.3674
 30
0.0
 10
-31.1905
 20
6.3674
 30
0.0
 10
-31.4578
 20
6.3433
 30
0.0
 10
-31.6837
 20
6.2904
 30
0.0
 10
-31.8675
 20
6.2088
 30
0.0
 10
-31.8675
 20
6.2088
 30
0.0
 10
-32.0511
 20
6.1271
 30
0.0
 10
-32.1878
 20
6.0197
 30
0.0
 10
-32.2769
 20
5.8874
 30
0.0
 10
-32.2769
 20
5.8874
 30
0.0
 10
-32.3666
 20
5.7548
 30
0.0
 10
-32.4044
 20
5.6009
 30
0.0
 10
-32.3896
 20
5.425
 30
0.0
  0
SPLINE
  5
BE
330
1F
100
AcDbEntity
  8
Standard layer
 62
   250
100
AcDbSpline
210
0.0
220
0.0
230
1.0
 70
    11
 71
     3
 72
    56
 73
    52
 74
     0
 42
0.0000000001
 43
0.0000000001
 40
0.0
 40
0.0
 40
0.0
 40
0.0
 40
0.0714285714285714
 40
0.0714285714285714
 40
0.0714285714285714
 40
0.0714285714285714
 40
0.1428571428571428
 40
0.1428571428571428
 40
0.1428571428571428
 40
0.1428571428571428
 40
0.2142857142857143
 40
0.2142857142857143
 40
0.2142857142857143
 40
0.2142857142857143
 40
0.2857142857142857
 40
0.2857142857142857
 40
0.2857142857142857
 40
0.2857142857142857
 40
0.3571428571428572
 40
0.3571428571428572
 40
0.3571428571428572
 40
0.3571428571428572
 40
0.4285714285714285
 40
0.4285714285714285
 40
0.4285714285714285
 40
0.4285714285714285
 40
0.5
 40
0.5
 40
0.5
 40
0.5
 40
0.5714285714285714
 40
0.5714285714285714
 40
0.5714285714285714
 40
0.5714285714285714
 40
0.6428571428571429
 40
0.6428571428571429
 40
0.6428571428571429
 40
0.6428571428571429
 40
0.7142857142857143
 40
0.7142857142857143
 40
0.7142857142857143
 40
0.7142857142857143
 40
0.7857142857142857
 40
0.7857142857142857
 40
0.7857142857142857
 40
0.7857142857142857
 40
0.8571428571428571
 40
0.8571428571428571
 40
0.8571428571428571
 40
0.8571428571428571
 40
1.0
 40
1.0
 40
1.0
 40
1.0
 10
-32.1247
 20
5.4248
 30
0.0
 10
-32.1319
 20
5.5137
 30
0.0
 10
-32.1148
 20
5.5925
 30
0.0
 10
-32.0721
 20
5.6611
 30
0.0
 10
-32.0721
 20
5.6611
 30
0.0
 10
-32.0293
 20
5.7298
 30
0.0
 10
-31.965
 20
5.7887
 30
0.0
 10
-31.8785
 20
5.8378
 30
0.0
 10
-31.8785
 20
5.8378
 30
0.0
 10
-31.7925
 20
5.8869
 30
0.0
 10
-31.6869
 20
5.9272
 30
0.0
 10
-31.5638
 20
5.9582
 30
0.0
 10
-31.5638
 20
5.9582
 30
0.0
 10
-31.4399
 20
5.9891
 30
0.0
 10
-31.3003
 20
6.011
 30
0.0
 10
-31.145
 20
6.0246
 30
0.0
 10
-31.145
 20
6.0246
 30
0.0
 10
-30.9298
 20
6.0435
 30
0.0
 10
-30.7426
 20
6.0411
 30
0.0
 10
-30.5834
 20
6.0173
 30
0.0
 10
-30.5834
 20
6.0173
 30
0.0
 10
-30.4237
 20
5.9943
 30
0.0
 10
-30.2982
 20
5.9481
 30
0.0
 10
-30.2065
 20
5.8802
 30
0.0
 10
-30.2065
 20
5.8802
 30
0.0
 10
-30.1149
 20
5.8122
 30
0.0
 10
-30.0641
 20
5.7206
 30
0.0
 10
-30.0527
 20
5.606
 30
0.0
 10
-30.0527
 20
5.606
 30
0.0
 10
-30.0443
 20
5.5023
 30
0.0
 10
-30.0764
 20
5.4092
 30
0.0
 10
-30.1495
 20
5.3255
 30
0.0
 10
-30.1495
 20
5.3255
 30
0.0
 10
-30.2228
 20
5.2425
 30
0.0
 10
-30.3336
 20
5.1737
 30
0.0
 10
-30.4821
 20
5.1186
 30
0.0
 10
-30.4821
 20
5.1186
 30
0.0
 10
-30.6311
 20
5.0634
 30
0.0
 10
-30.8142
 20
5.0259
 30
0.0
 10
-31.0325
 20
5.0062
 30
0.0
 10
-31.0325
 20
5.0062
 30
0.0
 10
-31.2613
 20
4.9868
 30
0.0
 10
-31.4546
 20
4.9925
 30
0.0
 10
-31.6143
 20
5.0227
 30
0.0
 10
-31.6143
 20
5.0227
 30
0.0
 10
-31.7735
 20
5.053
 30
0.0
 10
-31.896
 20
5.1027
 30
0.0
 10
-31.9826
 20
5.1723
 30
0.0
 10
-31.9826
 20
5.1723
 30
0.0
 10
-32.0685
 20
5.2421
 30
0.0
 10
-32.1161
 20
5.3261
 30
0.0
 10
-32.1247
 20
5.4248
 30
0.0
  0
SPLINE
  5
BF
330
1F
100
AcDbEntity
  8
Standard layer
  6
New Line2
 62
   250
370
    15
100
AcDbSpline
210
0.0
220
0.0
230
1.0
 70
    24
 71
     3
 72
     8
 73
     4
 74
     0
 42
0.0000000001
 43
0.0000000001
 40
0.0
 40
0.0
 40
0.0
 40
0.0
 40
1.0
 40
1.0
 40
1.0
 40
1.0
 10
-29.4701
 20
-1.912
 30
0.0
 10
-29.4701
 20
-1.912
 30
0.0
 10
-24.8742
 20
-1.5099
 30
0.0
 10
-24.8742
 20
-1.5099
 30
0.0
  0
SPLINE
  5
C1
330
1F
100
AcDbEntity
  8
Standard layer
  6
New Line3
 62
   250
370
    15
100
AcDbSpline
210
0.0
220
0.0
230
1.0
 70
    24
 71
     3
 72
     8
 73
     4
 74
     0
 42
0.0000000001
 43
0.0000000001
 40
0.0
 40
0.0
 40
0.0
 40
0.0
 40
1.0
 40
1.0
 40
1.0
 40
1.0
 10
-30.1279
 20
7.3649
 30
0.0
 10
-30.1279
 20
7.3649
 30
0.0
 10
-25.4091
 20
7.7777
 30
0.0
 10
-25.4091
 20
7.7777
 30
0.0
  0
SPLINE
  5
C3
330
1F
100
AcDbEntity
  8
Standard layer
 62
   250
370
    18
100
AcDbSpline
210
0.0
220
0.0
230
1.0
 70
    24
 71
     3
 72
     8
 73
     4
 74
     0
 42
0.0000000001
 43
0.0000000001
 40
0.0
 40
0.0
 40
0.0
 40
0.0
 40
1.0
 40
1.0
 40
1.0
 40
1.0
 10
12.8649
 20
0.3559
 30
0.0
 10
12.8649
 20
0.3559
 30
0.0
 10
32.4044
 20
0.3559
 30
0.0
 10
32.4044
 20
0.3559
 30
0.0
  0
SPLINE
  5
C4
330
1F
100
AcDbEntity
  8
Standard layer
 62
   250
100
AcDbSpline
210
0.0
220
0.0
230
1.0
 70
    11
 71
     3
 72
   104
 73
   100
 74
     0
 42
0.0000000001
 43
0.0000000001
 40
0.0
 40
0.0
 40
0.0
 40
0.0
 40
0.0384615384615385
 40
0.0384615384615385
 40
0.0384615384615385
 40
0.0384615384615385
 40
0.0769230769230769
 40
0.0769230769230769
 40
0.0769230769230769
 40
0.0769230769230769
 40
0.1153846153846154
 40
0.1153846153846154
 40
0.1153846153846154
 40
0.1153846153846154
 40
0.1538461538461539
 40
0.1538461538461539
 40
0.1538461538461539
 40
0.1538461538461539
 40
0.1923076923076923
 40
0.1923076923076923
 40
0.1923076923076923
 40
0.1923076923076923
 40
0.2307692307692308
 40
0.2307692307692308
 40
0.2307692307692308
 40
0.2307692307692308
 40
0.2692307692307692
 40
0.2692307692307692
 40
0.2692307692307692
 40
0.2692307692307692
 40
0.3076923076923077
 40
0.3076923076923077
 40
0.3076923076923077
 40
0.3076923076923077
 40
0.3461538461538461
 40
0.3461538461538461
 40
0.3461538461538461
 40
0.3461538461538461
 40
0.3846153846153846
 40
0.3846153846153846
 40
0.3846153846153846
 40
0.3846153846153846
 40
0.4230769230769231
 40
0.4230769230769231
 40
0.4230769230769231
 40
0.4230769230769231
 40
0.4615384615384616
 40
0.4615384615384616
 40
0.4615384615384616
 40
0.4615384615384616
 40
0.5
 40
0.5
 40
0.5
 40
0.5
 40
0.5384615384615384
 40
0.5384615384615384
 40
0.5384615384615384
 40
0.5384615384615384
 40
0.5769230769230769
 40
0.5769230769230769
 40
0.5769230769230769
 40
0.5769230769230769
 40
0.6153846153846154
 40
0.6153846153846154
 40
0.6153846153846154
 40
0.6153846153846154
 40
0.6538461538461539
 40
0.6538461538461539
 40
0.6538461538461539
 40
0.6538461538461539
 40
0.6923076923076923
 40
0.6923076923076923
 40
0.6923076923076923
 40
0.6923076923076923
 40
0.7307692307692307
 40
0.7307692307692307
 40
0.7307692307692307
 40
0.7307692307692307
 40
0.7692307692307693
 40
0.7692307692307693
 40
0.7692307692307693
 40
0.7692307692307693
 40
0.8076923076923077
 40
0.8076923076923077
 40
0.8076923076923077
 40
0.8076923076923077
 40
0.8461538461538461
 40
0.8461538461538461
 40
0.8461538461538461
 40
0.8461538461538461
 40
0.8846153846153846
 40
0.8846153846153846
 40
0.8846153846153846
 40
0.8846153846153846
 40
0.9230769230769231
 40
0.9230769230769231
 40
0.9230769230769231
 40
0.9230769230769231
 40
1.0
 40
1.0
 40
1.0
 40
1.0
 10
25.9044
 20
0.5398
 30
0.0
 10
25.9044
 20
0.5398
 30
0.0
 10
26.1489
 20
0.8736
 30
0.0
 10
26.1489
 20
0.8736
 30
0.0
 10
26.1489
 20
0.8736
 30
0.0
 10
26.2427
 20
0.8057
 30
0.0
 10
26.3455
 20
0.7533
 30
0.0
 10
26.4567
 20
0.7177
 30
0.0
 10
26.4567
 20
0.7177
 30
0.0
 10
26.5686
 20
0.6821
 30
0.0
 10
26.6857
 20
0.664
 30
0.0
 10
26.8086
 20
0.664
 30
0.0
 10
26.8086
 20
0.664
 30
0.0
 10
26.9347
 20
0.664
 30
0.0
 10
27.0569
 20
0.6828
 30
0.0
 10
27.174
 20
0.7196
 30
0.0
 10
27.174
 20
0.7196
 30
0.0
 10
27.291
 20
0.7565
 30
0.0
 10
27.3997
 20
0.8115
 30
0.0
 10
27.4993
 20
0.8852
 30
0.0
 10
27.4993
 20
0.8852
 30
0.0
 10
27.5995
 20
0.9583
 30
0.0
 10
27.6869
 20
1.0501
 30
0.0
 10
27.7619
 20
1.1601
 30
0.0
 10
27.7619
 20
1.1601
 30
0.0
 10
27.8363
 20
1.27
 30
0.0
 10
27.8945
 20
1.3981
 30
0.0
 10
27.9365
 20
1.5449
 30
0.0
 10
27.9365
 20
1.5449
 30
0.0
 10
27.9779
 20
1.6911
 30
0.0
 10
27.9992
 20
1.8553
 30
0.0
 10
27.9999
 20
2.0377
 30
0.0
 10
27.9999
 20
2.0377
 30
0.0
 10
27.9999
 20
2.1664
 30
0.0
 10
27.987
 20
2.2887
 30
0.0
 10
27.9604
 20
2.4051
 30
0.0
 10
27.9604
 20
2.4051
 30
0.0
 10
27.9346
 20
2.5221
 30
0.0
 10
27.8964
 20
2.6308
 30
0.0
 10
27.8466
 20
2.731
 30
0.0
 10
27.8466
 20
2.731
 30
0.0
 10
27.7962
 20
2.8313
 30
0.0
 10
27.7347
 20
2.9205
 30
0.0
 10
27.6623
 20
3.0001
 30
0.0
 10
27.6623
 20
3.0001
 30
0.0
 10
27.6623
 20
3.0001
 30
0.0
 10
27.9029
 20
3.3338
 30
0.0
 10
27.9029
 20
3.3338
 30
0.0
 10
27.9029
 20
3.3338
 30
0.0
 10
27.9029
 20
3.3338
 30
0.0
 10
27.6972
 20
3.4735
 30
0.0
 10
27.6972
 20
3.4735
 30
0.0
 10
27.6972
 20
3.4735
 30
0.0
 10
27.6972
 20
3.4735
 30
0.0
 10
27.4683
 20
3.1592
 30
0.0
 10
27.4683
 20
3.1592
 30
0.0
 10
27.4683
 20
3.1592
 30
0.0
 10
27.3745
 20
3.229
 30
0.0
 10
27.2729
 20
3.2814
 30
0.0
 10
27.163
 20
3.3163
 30
0.0
 10
27.163
 20
3.3163
 30
0.0
 10
27.0524
 20
3.3513
 30
0.0
 10
26.9373
 20
3.3687
 30
0.0
 10
26.8163
 20
3.3687
 30
0.0
 10
26.8163
 20
3.3687
 30
0.0
 10
26.6437
 20
3.3681
 30
0.0
 10
26.4846
 20
3.3357
 30
0.0
 10
26.3377
 20
3.2717
 30
0.0
 10
26.3377
 20
3.2717
 30
0.0
 10
26.1916
 20
3.2077
 30
0.0
 10
26.0642
 20
3.1152
 30
0.0
 10
25.9555
 20
2.9955
 30
0.0
 10
25.9555
 20
2.9955
 30
0.0
 10
25.8462
 20
2.8759
 30
0.0
 10
25.7621
 20
2.7323
 30
0.0
 10
25.7013
 20
2.5648
 30
0.0
 10
25.7013
 20
2.5648
 30
0.0
 10
25.6412
 20
2.3973
 30
0.0
 10
25.6101
 20
2.2104
 30
0.0
 10
25.6095
 20
2.0028
 30
0.0
 10
25.6095
 20
2.0028
 30
0.0
 10
25.6095
 20
1.8721
 30
0.0
 10
25.6237
 20
1.7473
 30
0.0
 10
25.6509
 20
1.6296
 30
0.0
 10
25.6509
 20
1.6296
 30
0.0
 10
25.6781
 20
1.5119
 30
0.0
 10
25.7175
 20
1.4026
 30
0.0
 10
25.7686
 20
1.3024
 30
0.0
 10
25.7686
 20
1.3024
 30
0.0
 10
25.8203
 20
1.2021
 30
0.0
 10
25.8824
 20
1.1122
 30
0.0
 10
25.9549
 20
1.0327
 30
0.0
 10
25.9549
 20
1.0327
 30
0.0
 10
25.9549
 20
1.0327
 30
0.0
 10
25.7143
 20
0.6951
 30
0.0
 10
25.7143
 20
0.6951
 30
0.0
 10
25.7143
 20
0.6951
 30
0.0
 10
25.7143
 20
0.6951
 30
0.0
 10
25.9044
 20
0.5398
 30
0.0
 10
25.9044
 20
0.5398
 30
0.0
  0
SPLINE
  5
C5
330
1F
100
AcDbEntity
  8
Standard layer
 62
   250
100
AcDbSpline
210
0.0
220
0.0
230
1.0
 70
    11
 71
     3
 72
    52
 73
    48
 74
     0
 42
0.0000000001
 43
0.0000000001
 40
0.0
 40
0.0
 40
0.0
 40
0.0
 40
0.0769230769230769
 40
0.0769230769230769
 40
0.0769230769230769
 40
0.0769230769230769
 40
0.1538461538461539
 40
0.1538461538461539
 40
0.1538461538461539
 40
0.1538461538461539
 40
0.2307692307692308
 40
0.2307692307692308
 40
0.2307692307692308
 40
0.2307692307692308
 40
0.3076923076923077
 40
0.3076923076923077
 40
0.3076923076923077
 40
0.3076923076923077
 40
0.3846153846153846
 40
0.3846153846153846
 40
0.3846153846153846
 40
0.3846153846153846
 40
0.4615384615384616
 40
0.4615384615384616
 40
0.4615384615384616
 40
0.4615384615384616
 40
0.5384615384615384
 40
0.5384615384615384
 40
0.5384615384615384
 40
0.5384615384615384
 40
0.6153846153846154
 40
0.6153846153846154
 40
0.6153846153846154
 40
0.6153846153846154
 40
0.6923076923076923
 40
0.6923076923076923
 40
0.6923076923076923
 40
0.6923076923076923
 40
0.7692307692307693
 40
0.7692307692307693
 40
0.7692307692307693
 40
0.7692307692307693
 40
0.8461538461538461
 40
0.8461538461538461
 40
0.8461538461538461
 40
0.8461538461538461
 40
1.0
 40
1.0
 40
1.0
 40
1.0
 10
26.1528
 20
1.3198
 30
0.0
 10
26.1528
 20
1.3198
 30
0.0
 10
26.145
 20
1.3159
 30
0.0
 10
26.145
 20
1.3159
 30
0.0
 10
26.145
 20
1.3159
 30
0.0
 10
26.1062
 20
1.3826
 30
0.0
 10
26.0726
 20
1.4518
 30
0.0
 10
26.0441
 20
1.5229
 30
0.0
 10
26.0441
 20
1.5229
 30
0.0
 10
26.0157
 20
1.5947
 30
0.0
 10
25.9937
 20
1.6704
 30
0.0
 10
25.9781
 20
1.7518
 30
0.0
 10
25.9781
 20
1.7518
 30
0.0
 10
25.9626
 20
1.8327
 30
0.0
 10
25.9549
 20
1.9219
 30
0.0
 10
25.9549
 20
2.0183
 30
0.0
 10
25.9549
 20
2.0183
 30
0.0
 10
25.9549
 20
2.1296
 30
0.0
 10
25.9665
 20
2.2369
 30
0.0
 10
25.9891
 20
2.3423
 30
0.0
 10
25.9891
 20
2.3423
 30
0.0
 10
26.0124
 20
2.4471
 30
0.0
 10
26.0467
 20
2.5454
 30
0.0
 10
26.092
 20
2.636
 30
0.0
 10
26.092
 20
2.636
 30
0.0
 10
26.1379
 20
2.7271
 30
0.0
 10
26.1948
 20
2.8073
 30
0.0
 10
26.2634
 20
2.8759
 30
0.0
 10
26.2634
 20
2.8759
 30
0.0
 10
26.3319
 20
2.9451
 30
0.0
 10
26.4115
 20
2.9988
 30
0.0
 10
26.502
 20
3.0376
 30
0.0
 10
26.502
 20
3.0376
 30
0.0
 10
26.5932
 20
3.077
 30
0.0
 10
26.6954
 20
3.0964
 30
0.0
 10
26.8086
 20
3.0971
 30
0.0
 10
26.8086
 20
3.0971
 30
0.0
 10
26.9075
 20
3.0964
 30
0.0
 10
26.9981
 20
3.0803
 30
0.0
 10
27.0796
 20
3.0479
 30
0.0
 10
27.0796
 20
3.0479
 30
0.0
 10
27.1617
 20
3.0162
 30
0.0
 10
27.2354
 20
2.9716
 30
0.0
 10
27.3014
 20
2.9147
 30
0.0
 10
27.3014
 20
2.9147
 30
0.0
 10
27.3014
 20
2.9147
 30
0.0
 10
26.1528
 20
1.3198
 30
0.0
 10
26.1528
 20
1.3198
 30
0.0
  0
SPLINE
  5
C6
330
1F
100
AcDbEntity
  8
Standard layer
 62
   250
100
AcDbSpline
210
0.0
220
0.0
230
1.0
 70
    11
 71
     3
 72
    48
 73
    44
 74
     0
 42
0.0000000001
 43
0.0000000001
 40
0.0
 40
0.0
 40
0.0
 40
0.0
 40
0.0833333333333333
 40
0.0833333333333333
 40
0.0833333333333333
 40
0.0833333333333333
 40
0.1666666666666667
 40
0.1666666666666667
 40
0.1666666666666667
 40
0.1666666666666667
 40
0.25
 40
0.25
 40
0.25
 40
0.25
 40
0.3333333333333333
 40
0.3333333333333333
 40
0.3333333333333333
 40
0.3333333333333333
 40
0.4166666666666667
 40
0.4166666666666667
 40
0.4166666666666667
 40
0.4166666666666667
 40
0.5
 40
0.5
 40
0.5
 40
0.5
 40
0.5833333333333334
 40
0.5833333333333334
 40
0.5833333333333334
 40
0.5833333333333334
 40
0.6666666666666666
 40
0.6666666666666666
 40
0.6666666666666666
 40
0.6666666666666666
 40
0.75
 40
0.75
 40
0.75
 40
0.75
 40
0.8333333333333334
 40
0.8333333333333334
 40
0.8333333333333334
 40
0.8333333333333334
 40
1.0
 40
1.0
 40
1.0
 40
1.0
 10
27.4605
 20
2.709
 30
0.0
 10
27.4605
 20
2.709
 30
0.0
 10
27.4721
 20
2.709
 30
0.0
 10
27.4721
 20
2.709
 30
0.0
 10
27.4721
 20
2.709
 30
0.0
 10
27.5394
 20
2.5965
 30
0.0
 10
27.5866
 20
2.4827
 30
0.0
 10
27.6144
 20
2.3676
 30
0.0
 10
27.6144
 20
2.3676
 30
0.0
 10
27.6422
 20
2.2531
 30
0.0
 10
27.6558
 20
2.1393
 30
0.0
 10
27.6545
 20
2.0261
 30
0.0
 10
27.6545
 20
2.0261
 30
0.0
 10
27.6545
 20
1.9084
 30
0.0
 10
27.6422
 20
1.7958
 30
0.0
 10
27.6183
 20
1.6878
 30
0.0
 10
27.6183
 20
1.6878
 30
0.0
 10
27.5944
 20
1.5798
 30
0.0
 10
27.5588
 20
1.4802
 30
0.0
 10
27.5122
 20
1.389
 30
0.0
 10
27.5122
 20
1.389
 30
0.0
 10
27.465
 20
1.2978
 30
0.0
 10
27.4075
 20
1.2183
 30
0.0
 10
27.3389
 20
1.151
 30
0.0
 10
27.3389
 20
1.151
 30
0.0
 10
27.2697
 20
1.0831
 30
0.0
 10
27.1908
 20
1.0301
 30
0.0
 10
27.1016
 20
0.9926
 30
0.0
 10
27.1016
 20
0.9926
 30
0.0
 10
27.0123
 20
0.9551
 30
0.0
 10
26.9133
 20
0.9363
 30
0.0
 10
26.8047
 20
0.9356
 30
0.0
 10
26.8047
 20
0.9356
 30
0.0
 10
26.6993
 20
0.9356
 30
0.0
 10
26.6068
 20
0.9518
 30
0.0
 10
26.5285
 20
0.9835
 30
0.0
 10
26.5285
 20
0.9835
 30
0.0
 10
26.4496
 20
1.0152
 30
0.0
 10
26.3791
 20
1.0618
 30
0.0
 10
26.3157
 20
1.1219
 30
0.0
 10
26.3157
 20
1.1219
 30
0.0
 10
26.3157
 20
1.1219
 30
0.0
 10
27.4605
 20
2.709
 30
0.0
 10
27.4605
 20
2.709
 30
0.0
  0
SPLINE
  5
C7
330
1F
100
AcDbEntity
  8
Standard layer
 62
   250
100
AcDbSpline
210
0.0
220
0.0
230
1.0
 70
    11
 71
     3
 72
    48
 73
    44
 74
     0
 42
0.0000000001
 43
0.0000000001
 40
0.0
 40
0.0
 40
0.0
 40
0.0
 40
0.0833333333333333
 40
0.0833333333333333
 40
0.0833333333333333
 40
0.0833333333333333
 40
0.1666666666666667
 40
0.1666666666666667
 40
0.1666666666666667
 40
0.1666666666666667
 40
0.25
 40
0.25
 40
0.25
 40
0.25
 40
0.3333333333333333
 40
0.3333333333333333
 40
0.3333333333333333
 40
0.3333333333333333
 40
0.4166666666666667
 40
0.4166666666666667
 40
0.4166666666666667
 40
0.4166666666666667
 40
0.5
 40
0.5
 40
0.5
 40
0.5
 40
0.5833333333333334
 40
0.5833333333333334
 40
0.5833333333333334
 40
0.5833333333333334
 40
0.6666666666666666
 40
0.6666666666666666
 40
0.6666666666666666
 40
0.6666666666666666
 40
0.75
 40
0.75
 40
0.75
 40
0.75
 40
0.8333333333333334
 40
0.8333333333333334
 40
0.8333333333333334
 40
0.8333333333333334
 40
1.0
 40
1.0
 40
1.0
 40
1.0
 10
29.6957
 20
0.7067
 30
0.0
 10
29.6957
 20
0.7067
 30
0.0
 10
29.6957
 20
1.3974
 30
0.0
 10
29.6957
 20
1.3974
 30
0.0
 10
29.6957
 20
1.3974
 30
0.0
 10
29.6957
 20
1.3974
 30
0.0
 10
30.0488
 20
1.3974
 30
0.0
 10
30.0488
 20
1.3974
 30
0.0
 10
30.0488
 20
1.3974
 30
0.0
 10
30.0488
 20
1.3974
 30
0.0
 10
30.0488
 20
1.6613
 30
0.0
 10
30.0488
 20
1.6613
 30
0.0
 10
30.0488
 20
1.6613
 30
0.0
 10
30.0488
 20
1.6613
 30
0.0
 10
29.6957
 20
1.6613
 30
0.0
 10
29.6957
 20
1.6613
 30
0.0
 10
29.6957
 20
1.6613
 30
0.0
 10
29.6957
 20
1.6613
 30
0.0
 10
29.6957
 20
3.229
 30
0.0
 10
29.6957
 20
3.229
 30
0.0
 10
29.6957
 20
3.229
 30
0.0
 10
29.6957
 20
3.229
 30
0.0
 10
29.3271
 20
3.229
 30
0.0
 10
29.3271
 20
3.229
 30
0.0
 10
29.3271
 20
3.229
 30
0.0
 10
29.3271
 20
3.229
 30
0.0
 10
28.2017
 20
1.6186
 30
0.0
 10
28.2017
 20
1.6186
 30
0.0
 10
28.2017
 20
1.6186
 30
0.0
 10
28.2017
 20
1.6186
 30
0.0
 10
28.2017
 20
1.3974
 30
0.0
 10
28.2017
 20
1.3974
 30
0.0
 10
28.2017
 20
1.3974
 30
0.0
 10
28.2017
 20
1.3974
 30
0.0
 10
29.3736
 20
1.3974
 30
0.0
 10
29.3736
 20
1.3974
 30
0.0
 10
29.3736
 20
1.3974
 30
0.0
 10
29.3736
 20
1.3974
 30
0.0
 10
29.3736
 20
0.7067
 30
0.0
 10
29.3736
 20
0.7067
 30
0.0
 10
29.3736
 20
0.7067
 30
0.0
 10
29.3736
 20
0.7067
 30
0.0
 10
29.6957
 20
0.7067
 30
0.0
 10
29.6957
 20
0.7067
 30
0.0
  0
SPLINE
  5
C8
330
1F
100
AcDbEntity
  8
Standard layer
 62
   250
100
AcDbSpline
210
0.0
220
0.0
230
1.0
 70
    11
 71
     3
 72
    36
 73
    32
 74
     0
 42
0.0000000001
 43
0.0000000001
 40
0.0
 40
0.0
 40
0.0
 40
0.0
 40
0.1111111111111111
 40
0.1111111111111111
 40
0.1111111111111111
 40
0.1111111111111111
 40
0.2222222222222222
 40
0.2222222222222222
 40
0.2222222222222222
 40
0.2222222222222222
 40
0.3333333333333333
 40
0.3333333333333333
 40
0.3333333333333333
 40
0.3333333333333333
 40
0.4444444444444444
 40
0.4444444444444444
 40
0.4444444444444444
 40
0.4444444444444444
 40
0.5555555555555556
 40
0.5555555555555556
 40
0.5555555555555556
 40
0.5555555555555556
 40
0.6666666666666666
 40
0.6666666666666666
 40
0.6666666666666666
 40
0.6666666666666666
 40
0.7777777777777778
 40
0.7777777777777778
 40
0.7777777777777778
 40
0.7777777777777778
 40
1.0
 40
1.0
 40
1.0
 40
1.0
 10
28.5471
 20
1.6613
 30
0.0
 10
28.5471
 20
1.6613
 30
0.0
 10
28.5471
 20
1.6691
 30
0.0
 10
28.5471
 20
1.6691
 30
0.0
 10
28.5471
 20
1.6691
 30
0.0
 10
28.5471
 20
1.6691
 30
0.0
 10
29.1641
 20
2.5267
 30
0.0
 10
29.1641
 20
2.5267
 30
0.0
 10
29.1641
 20
2.5267
 30
0.0
 10
29.1983
 20
2.5842
 30
0.0
 10
29.2326
 20
2.6424
 30
0.0
 10
29.2663
 20
2.7013
 30
0.0
 10
29.2663
 20
2.7013
 30
0.0
 10
29.2992
 20
2.7608
 30
0.0
 10
29.3355
 20
2.8267
 30
0.0
 10
29.3736
 20
2.8992
 30
0.0
 10
29.3736
 20
2.8992
 30
0.0
 10
29.3736
 20
2.8992
 30
0.0
 10
29.3853
 20
2.8992
 30
0.0
 10
29.3853
 20
2.8992
 30
0.0
 10
29.3853
 20
2.8992
 30
0.0
 10
29.3775
 20
2.7672
 30
0.0
 10
29.3736
 20
2.6353
 30
0.0
 10
29.3736
 20
2.5034
 30
0.0
 10
29.3736
 20
2.5034
 30
0.0
 10
29.3736
 20
2.5034
 30
0.0
 10
29.3736
 20
1.6613
 30
0.0
 10
29.3736
 20
1.6613
 30
0.0
 10
29.3736
 20
1.6613
 30
0.0
 10
29.3736
 20
1.6613
 30
0.0
 10
28.5471
 20
1.6613
 30
0.0
 10
28.5471
 20
1.6613
 30
0.0
  0
SPLINE
  5
C9
330
1F
100
AcDbEntity
  8
Standard layer
 62
   250
100
AcDbSpline
210
0.0
220
0.0
230
1.0
 70
    11
 71
     3
 72
   132
 73
   128
 74
     0
 42
0.0000000001
 43
0.0000000001
 40
0.0
 40
0.0
 40
0.0
 40
0.0
 40
0.0303030303030303
 40
0.0303030303030303
 40
0.0303030303030303
 40
0.0303030303030303
 40
0.0606060606060606
 40
0.0606060606060606
 40
0.0606060606060606
 40
0.0606060606060606
 40
0.0909090909090909
 40
0.0909090909090909
 40
0.0909090909090909
 40
0.0909090909090909
 40
0.1212121212121212
 40
0.1212121212121212
 40
0.1212121212121212
 40
0.1212121212121212
 40
0.1515151515151515
 40
0.1515151515151515
 40
0.1515151515151515
 40
0.1515151515151515
 40
0.1818181818181818
 40
0.1818181818181818
 40
0.1818181818181818
 40
0.1818181818181818
 40
0.2121212121212121
 40
0.2121212121212121
 40
0.2121212121212121
 40
0.2121212121212121
 40
0.2424242424242424
 40
0.2424242424242424
 40
0.2424242424242424
 40
0.2424242424242424
 40
0.2727272727272727
 40
0.2727272727272727
 40
0.2727272727272727
 40
0.2727272727272727
 40
0.303030303030303
 40
0.303030303030303
 40
0.303030303030303
 40
0.303030303030303
 40
0.3333333333333333
 40
0.3333333333333333
 40
0.3333333333333333
 40
0.3333333333333333
 40
0.3636363636363636
 40
0.3636363636363636
 40
0.3636363636363636
 40
0.3636363636363636
 40
0.3939393939393939
 40
0.3939393939393939
 40
0.3939393939393939
 40
0.3939393939393939
 40
0.4242424242424243
 40
0.4242424242424243
 40
0.4242424242424243
 40
0.4242424242424243
 40
0.4545454545454545
 40
0.4545454545454545
 40
0.4545454545454545
 40
0.4545454545454545
 40
0.4848484848484849
 40
0.4848484848484849
 40
0.4848484848484849
 40
0.4848484848484849
 40
0.5151515151515151
 40
0.5151515151515151
 40
0.5151515151515151
 40
0.5151515151515151
 40
0.5454545454545454
 40
0.5454545454545454
 40
0.5454545454545454
 40
0.5454545454545454
 40
0.5757575757575758
 40
0.5757575757575758
 40
0.5757575757575758
 40
0.5757575757575758
 40
0.6060606060606061
 40
0.6060606060606061
 40
0.6060606060606061
 40
0.6060606060606061
 40
0.6363636363636364
 40
0.6363636363636364
 40
0.6363636363636364
 40
0.6363636363636364
 40
0.6666666666666666
 40
0.6666666666666666
 40
0.6666666666666666
 40
0.6666666666666666
 40
0.696969696969697
 40
0.696969696969697
 40
0.696969696969697
 40
0.696969696969697
 40
0.7272727272727273
 40
0.7272727272727273
 40
0.7272727272727273
 40
0.7272727272727273
 40
0.7575757575757576
 40
0.7575757575757576
 40
0.7575757575757576
 40
0.7575757575757576
 40
0.7878787878787878
 40
0.7878787878787878
 40
0.7878787878787878
 40
0.7878787878787878
 40
0.8181818181818182
 40
0.8181818181818182
 40
0.8181818181818182
 40
0.8181818181818182
 40
0.8484848484848485
 40
0.8484848484848485
 40
0.8484848484848485
 40
0.8484848484848485
 40
0.8787878787878788
 40
0.8787878787878788
 40
0.8787878787878788
 40
0.8787878787878788
 40
0.9090909090909091
 40
0.9090909090909091
 40
0.9090909090909091
 40
0.9090909090909091
 40
0.9393939393939394
 40
0.9393939393939394
 40
0.9393939393939394
 40
0.9393939393939394
 40
1.0
 40
1.0
 40
1.0
 40
1.0
 10
31.8145
 20
3.229
 30
0.0
 10
31.8145
 20
3.229
 30
0.0
 10
30.6076
 20
3.229
 30
0.0
 10
30.6076
 20
3.229
 30
0.0
 10
30.6076
 20
3.229
 30
0.0
 10
30.6076
 20
3.229
 30
0.0
 10
30.4446
 20
2.0183
 30
0.0
 10
30.4446
 20
2.0183
 30
0.0
 10
30.4446
 20
2.0183
 30
0.0
 10
30.4912
 20
2.0248
 30
0.0
 10
30.5429
 20
2.03
 30
0.0
 10
30.6012
 20
2.0345
 30
0.0
 10
30.6012
 20
2.0345
 30
0.0
 10
30.6587
 20
2.039
 30
0.0
 10
30.7247
 20
2.0416
 30
0.0
 10
30.7978
 20
2.0416
 30
0.0
 10
30.7978
 20
2.0416
 30
0.0
 10
30.9646
 20
2.0409
 30
0.0
 10
31.1011
 20
2.017
 30
0.0
 10
31.2072
 20
1.9704
 30
0.0
 10
31.2072
 20
1.9704
 30
0.0
 10
31.3139
 20
1.9232
 30
0.0
 10
31.3928
 20
1.8586
 30
0.0
 10
31.4439
 20
1.7758
 30
0.0
 10
31.4439
 20
1.7758
 30
0.0
 10
31.495
 20
1.6923
 30
0.0
 10
31.5202
 20
1.596
 30
0.0
 10
31.5195
 20
1.4867
 30
0.0
 10
31.5195
 20
1.4867
 30
0.0
 10
31.5202
 20
1.402
 30
0.0
 10
31.5047
 20
1.3263
 30
0.0
 10
31.473
 20
1.259
 30
0.0
 10
31.473
 20
1.259
 30
0.0
 10
31.4419
 20
1.1911
 30
0.0
 10
31.3986
 20
1.1342
 30
0.0
 10
31.3436
 20
1.0863
 30
0.0
 10
31.3436
 20
1.0863
 30
0.0
 10
31.2886
 20
1.0391
 30
0.0
 10
31.2253
 20
1.0029
 30
0.0
 10
31.1535
 20
0.9777
 30
0.0
 10
31.1535
 20
0.9777
 30
0.0
 10
31.0817
 20
0.9525
 30
0.0
 10
31.006
 20
0.9395
 30
0.0
 10
30.9258
 20
0.9395
 30
0.0
 10
30.9258
 20
0.9395
 30
0.0
 10
30.8476
 20
0.9402
 30
0.0
 10
30.7738
 20
0.9473
 30
0.0
 10
30.7046
 20
0.9622
 30
0.0
 10
30.7046
 20
0.9622
 30
0.0
 10
30.6354
 20
0.9764
 30
0.0
 10
30.5733
 20
0.9939
 30
0.0
 10
30.5184
 20
1.0152
 30
0.0
 10
30.5184
 20
1.0152
 30
0.0
 10
30.4634
 20
1.0365
 30
0.0
 10
30.4181
 20
1.0579
 30
0.0
 10
30.3826
 20
1.0792
 30
0.0
 10
30.3826
 20
1.0792
 30
0.0
 10
30.3826
 20
1.0792
 30
0.0
 10
30.2972
 20
0.8192
 30
0.0
 10
30.2972
 20
0.8192
 30
0.0
 10
30.2972
 20
0.8192
 30
0.0
 10
30.3392
 20
0.7927
 30
0.0
 10
30.3916
 20
0.7681
 30
0.0
 10
30.4543
 20
0.7442
 30
0.0
 10
30.4543
 20
0.7442
 30
0.0
 10
30.5171
 20
0.7209
 30
0.0
 10
30.5882
 20
0.7022
 30
0.0
 10
30.6678
 20
0.6873
 30
0.0
 10
30.6678
 20
0.6873
 30
0.0
 10
30.748
 20
0.6724
 30
0.0
 10
30.834
 20
0.6647
 30
0.0
 10
30.9258
 20
0.664
 30
0.0
 10
30.9258
 20
0.664
 30
0.0
 10
31.0636
 20
0.6647
 30
0.0
 10
31.189
 20
0.6867
 30
0.0
 10
31.3035
 20
0.7293
 30
0.0
 10
31.3035
 20
0.7293
 30
0.0
 10
31.418
 20
0.772
 30
0.0
 10
31.517
 20
0.8322
 30
0.0
 10
31.6004
 20
0.9098
 30
0.0
 10
31.6004
 20
0.9098
 30
0.0
 10
31.6845
 20
0.9874
 30
0.0
 10
31.7491
 20
1.0786
 30
0.0
 10
31.7951
 20
1.1827
 30
0.0
 10
31.7951
 20
1.1827
 30
0.0
 10
31.841
 20
1.2875
 30
0.0
 10
31.8643
 20
1.402
 30
0.0
 10
31.8649
 20
1.5255
 30
0.0
 10
31.8649
 20
1.5255
 30
0.0
 10
31.8643
 20
1.6303
 30
0.0
 10
31.8474
 20
1.7247
 30
0.0
 10
31.8151
 20
1.8081
 30
0.0
 10
31.8151
 20
1.8081
 30
0.0
 10
31.7828
 20
1.8915
 30
0.0
 10
31.7401
 20
1.9633
 30
0.0
 10
31.6858
 20
2.0241
 30
0.0
 10
31.6858
 20
2.0241
 30
0.0
 10
31.6314
 20
2.0849
 30
0.0
 10
31.5706
 20
2.1334
 30
0.0
 10
31.504
 20
2.1696
 30
0.0
 10
31.504
 20
2.1696
 30
0.0
 10
31.4258
 20
2.2175
 30
0.0
 10
31.341
 20
2.2524
 30
0.0
 10
31.2486
 20
2.2738
 30
0.0
 10
31.2486
 20
2.2738
 30
0.0
 10
31.1561
 20
2.2951
 30
0.0
 10
31.0603
 20
2.3061
 30
0.0
 10
30.9607
 20
2.3055
 30
0.0
 10
30.9607
 20
2.3055
 30
0.0
 10
30.9155
 20
2.3055
 30
0.0
 10
30.8767
 20
2.3048
 30
0.0
 10
30.845
 20
2.3029
 30
0.0
 10
30.845
 20
2.3029
 30
0.0
 10
30.8133
 20
2.3009
 30
0.0
 10
30.7835
 20
2.2977
 30
0.0
 10
30.7551
 20
2.2938
 30
0.0
 10
30.7551
 20
2.2938
 30
0.0
 10
30.7551
 20
2.2938
 30
0.0
 10
30.8521
 20
2.9419
 30
0.0
 10
30.8521
 20
2.9419
 30
0.0
 10
30.8521
 20
2.9419
 30
0.0
 10
30.8521
 20
2.9419
 30
0.0
 10
31.8145
 20
2.9419
 30
0.0
 10
31.8145
 20
2.9419
 30
0.0
 10
31.8145
 20
2.9419
 30
0.0
 10
31.8145
 20
2.9419
 30
0.0
 10
31.8145
 20
3.229
 30
0.0
 10
31.8145
 20
3.229
 30
0.0
  0
SPLINE
  5
CA
330
1F
100
AcDbEntity
  8
Standard layer
 62
   250
370
    15
100
AcDbSpline
210
0.0
220
0.0
230
1.0
 70
    24
 71
     3
 72
     8
 73
     4
 74
     0
 42
0.0000000001
 43
0.0000000001
 40
0.0
 40
0.0
 40
0.0
 40
0.0
 40
1.0
 40
1.0
 40
1.0
 40
1.0
 10
11.8826
 20
-6.527
 30
0.0
 10
11.8826
 20
-6.527
 30
0.0
 10
11.8826
 20
9.1269
 30
0.0
 10
11.8826
 20
9.1269
 30
0.0
  0
SPLINE
  5
CB
330
1F
100
AcDbEntity
  8
Standard layer
 62
   250
100
AcDbSpline
210
0.0
220
0.0
230
1.0
 70
    11
 71
     3
 72
   124
 73
   120
 74
     0
 42
0.0000000001
 43
0.0000000001
 40
0.0
 40
0.0
 40
0.0
 40
0.0
 40
0.032258064516129
 40
0.032258064516129
 40
0.032258064516129
 40
0.032258064516129
 40
0.0645161290322581
 40
0.0645161290322581
 40
0.0645161290322581
 40
0.0645161290322581
 40
0.0967741935483871
 40
0.0967741935483871
 40
0.0967741935483871
 40
0.0967741935483871
 40
0.1290322580645161
 40
0.1290322580645161
 40
0.1290322580645161
 40
0.1290322580645161
 40
0.1612903225806452
 40
0.1612903225806452
 40
0.1612903225806452
 40
0.1612903225806452
 40
0.1935483870967742
 40
0.1935483870967742
 40
0.1935483870967742
 40
0.1935483870967742
 40
0.2258064516129032
 40
0.2258064516129032
 40
0.2258064516129032
 40
0.2258064516129032
 40
0.2580645161290323
 40
0.2580645161290323
 40
0.2580645161290323
 40
0.2580645161290323
 40
0.2903225806451613
 40
0.2903225806451613
 40
0.2903225806451613
 40
0.2903225806451613
 40
0.3225806451612903
 40
0.3225806451612903
 40
0.3225806451612903
 40
0.3225806451612903
 40
0.3548387096774194
 40
0.3548387096774194
 40
0.3548387096774194
 40
0.3548387096774194
 40
0.3870967741935484
 40
0.3870967741935484
 40
0.3870967741935484
 40
0.3870967741935484
 40
0.4193548387096774
 40
0.4193548387096774
 40
0.4193548387096774
 40
0.4193548387096774
 40
0.4516129032258064
 40
0.4516129032258064
 40
0.4516129032258064
 40
0.4516129032258064
 40
0.4838709677419355
 40
0.4838709677419355
 40
0.4838709677419355
 40
0.4838709677419355
 40
0.5161290322580645
 40
0.5161290322580645
 40
0.5161290322580645
 40
0.5161290322580645
 40
0.5483870967741935
 40
0.5483870967741935
 40
0.5483870967741935
 40
0.5483870967741935
 40
0.5806451612903226
 40
0.5806451612903226
 40
0.5806451612903226
 40
0.5806451612903226
 40
0.6129032258064516
 40
0.6129032258064516
 40
0.6129032258064516
 40
0.6129032258064516
 40
0.6451612903225806
 40
0.6451612903225806
 40
0.6451612903225806
 40
0.6451612903225806
 40
0.6774193548387096
 40
0.6774193548387096
 40
0.6774193548387096
 40
0.6774193548387096
 40
0.7096774193548387
 40
0.7096774193548387
 40
0.7096774193548387
 40
0.7096774193548387
 40
0.7419354838709677
 40
0.7419354838709677
 40
0.7419354838709677
 40
0.7419354838709677
 40
0.7741935483870968
 40
0.7741935483870968
 40
0.7741935483870968
 40
0.7741935483870968
 40
0.8064516129032258
 40
0.8064516129032258
 40
0.8064516129032258
 40
0.8064516129032258
 40
0.8387096774193549
 40
0.8387096774193549
 40
0.8387096774193549
 40
0.8387096774193549
 40
0.8709677419354839
 40
0.8709677419354839
 40
0.8709677419354839
 40
0.8709677419354839
 40
0.9032258064516129
 40
0.9032258064516129
 40
0.9032258064516129
 40
0.9032258064516129
 40
0.9354838709677419
 40
0.9354838709677419
 40
0.9354838709677419
 40
0.9354838709677419
 40
1.0
 40
1.0
 40
1.0
 40
1.0
 10
11.5015
 20
0.1324
 30
0.0
 10
11.5034
 20
0.1732
 30
0.0
 10
11.5034
 20
0.2204
 30
0.0
 10
11.5002
 20
0.2734
 30
0.0
 10
11.5002
 20
0.2734
 30
0.0
 10
11.4976
 20
0.3265
 30
0.0
 10
11.4918
 20
0.3847
 30
0.0
 10
11.4821
 20
0.4467
 30
0.0
 10
11.4821
 20
0.4467
 30
0.0
 10
11.4718
 20
0.5379
 30
0.0
 10
11.4517
 20
0.6272
 30
0.0
 10
11.4232
 20
0.7145
 30
0.0
 10
11.4232
 20
0.7145
 30
0.0
 10
11.3941
 20
0.8018
 30
0.0
 10
11.356
 20
0.8852
 30
0.0
 10
11.3094
 20
0.9641
 30
0.0
 10
11.3094
 20
0.9641
 30
0.0
 10
11.2629
 20
1.0431
 30
0.0
 10
11.2079
 20
1.1148
 30
0.0
 10
11.1445
 20
1.1802
 30
0.0
 10
11.1445
 20
1.1802
 30
0.0
 10
11.0643
 20
1.2636
 30
0.0
 10
10.9679
 20
1.338
 30
0.0
 10
10.8541
 20
1.4033
 30
0.0
 10
10.8541
 20
1.4033
 30
0.0
 10
10.7409
 20
1.4686
 30
0.0
 10
10.6103
 20
1.5197
 30
0.0
 10
10.4622
 20
1.5572
 30
0.0
 10
10.4622
 20
1.5572
 30
0.0
 10
10.3141
 20
1.5947
 30
0.0
 10
10.1485
 20
1.6141
 30
0.0
 10
9.9648
 20
1.6148
 30
0.0
 10
9.9648
 20
1.6148
 30
0.0
 10
9.8012
 20
1.6148
 30
0.0
 10
9.6544
 20
1.5954
 30
0.0
 10
9.5231
 20
1.5572
 30
0.0
 10
9.5231
 20
1.5572
 30
0.0
 10
9.3918
 20
1.5191
 30
0.0
 10
9.2799
 20
1.4634
 30
0.0
 10
9.1868
 20
1.391
 30
0.0
 10
9.1868
 20
1.391
 30
0.0
 10
9.0937
 20
1.3186
 30
0.0
 10
9.0225
 20
1.2313
 30
0.0
 10
8.9727
 20
1.1284
 30
0.0
 10
8.9727
 20
1.1284
 30
0.0
 10
8.9229
 20
1.0256
 30
0.0
 10
8.8983
 20
0.9098
 30
0.0
 10
8.8977
 20
0.7805
 30
0.0
 10
8.8977
 20
0.7805
 30
0.0
 10
8.8983
 20
0.6511
 30
0.0
 10
8.9229
 20
0.5334
 30
0.0
 10
8.9708
 20
0.428
 30
0.0
 10
8.9708
 20
0.428
 30
0.0
 10
9.018
 20
0.3226
 30
0.0
 10
9.084
 20
0.232
 30
0.0
 10
9.1667
 20
0.1564
 30
0.0
 10
9.1667
 20
0.1564
 30
0.0
 10
9.2502
 20
0.08
 30
0.0
 10
9.3452
 20
0.0218
 30
0.0
 10
9.4526
 20
-0.0189
 30
0.0
 10
9.4526
 20
-0.0189
 30
0.0
 10
9.56
 20
-0.0597
 30
0.0
 10
9.6738
 20
-0.0804
 30
0.0
 10
9.7941
 20
-0.081
 30
0.0
 10
9.7941
 20
-0.081
 30
0.0
 10
9.9021
 20
-0.0804
 30
0.0
 10
10.003
 20
-0.0629
 30
0.0
 10
10.0961
 20
-0.0286
 30
0.0
 10
10.0961
 20
-0.0286
 30
0.0
 10
10.1899
 20
0.0063
 30
0.0
 10
10.2714
 20
0.0561
 30
0.0
 10
10.3419
 20
0.1208
 30
0.0
 10
10.3419
 20
0.1208
 30
0.0
 10
10.4117
 20
0.1855
 30
0.0
 10
10.4667
 20
0.2637
 30
0.0
 10
10.5062
 20
0.3543
 30
0.0
 10
10.5062
 20
0.3543
 30
0.0
 10
10.5456
 20
0.4455
 30
0.0
 10
10.5657
 20
0.547
 30
0.0
 10
10.5663
 20
0.6602
 30
0.0
 10
10.5663
 20
0.6602
 30
0.0
 10
10.5657
 20
0.7882
 30
0.0
 10
10.5424
 20
0.9027
 30
0.0
 10
10.4965
 20
1.003
 30
0.0
 10
10.4965
 20
1.003
 30
0.0
 10
10.4505
 20
1.1026
 30
0.0
 10
10.3846
 20
1.1879
 30
0.0
 10
10.2985
 20
1.2578
 30
0.0
 10
10.2985
 20
1.2578
 30
0.0
 10
10.2985
 20
1.2578
 30
0.0
 10
10.2985
 20
1.2694
 30
0.0
 10
10.2985
 20
1.2694
 30
0.0
 10
10.2985
 20
1.2694
 30
0.0
 10
10.446
 20
1.2455
 30
0.0
 10
10.5754
 20
1.2047
 30
0.0
 10
10.686
 20
1.1478
 30
0.0
 10
10.686
 20
1.1478
 30
0.0
 10
10.7972
 20
1.0903
 30
0.0
 10
10.8903
 20
1.0198
 30
0.0
 10
10.966
 20
0.9357
 30
0.0
 10
10.966
 20
0.9357
 30
0.0
 10
11.0358
 20
0.8633
 30
0.0
 10
11.0902
 20
0.7824
 30
0.0
 10
11.1303
 20
0.6925
 30
0.0
 10
11.1303
 20
0.6925
 30
0.0
 10
11.1704
 20
0.6026
 30
0.0
 10
11.1969
 20
0.5075
 30
0.0
 10
11.2105
 20
0.4079
 30
0.0
 10
11.2105
 20
0.4079
 30
0.0
 10
11.2163
 20
0.3504
 30
0.0
 10
11.2208
 20
0.2986
 30
0.0
 10
11.2234
 20
0.254
 30
0.0
 10
11.2234
 20
0.254
 30
0.0
 10
11.226
 20
0.2094
 30
0.0
 10
11.226
 20
0.1686
 30
0.0
 10
11.2221
 20
0.1324
 30
0.0
 10
11.2221
 20
0.1324
 30
0.0
 10
11.2221
 20
0.1324
 30
0.0
 10
11.5015
 20
0.1324
 30
0.0
 10
11.5015
 20
0.1324
 30
0.0
  0
SPLINE
  5
CC
330
1F
100
AcDbEntity
  8
Standard layer
 62
   250
100
AcDbSpline
210
0.0
220
0.0
230
1.0
 70
    11
 71
     3
 72
    64
 73
    60
 74
     0
 42
0.0000000001
 43
0.0000000001
 40
0.0
 40
0.0
 40
0.0
 40
0.0
 40
0.0625
 40
0.0625
 40
0.0625
 40
0.0625
 40
0.125
 40
0.125
 40
0.125
 40
0.125
 40
0.1875
 40
0.1875
 40
0.1875
 40
0.1875
 40
0.25
 40
0.25
 40
0.25
 40
0.25
 40
0.3125
 40
0.3125
 40
0.3125
 40
0.3125
 40
0.375
 40
0.375
 40
0.375
 40
0.375
 40
0.4375
 40
0.4375
 40
0.4375
 40
0.4375
 40
0.5
 40
0.5
 40
0.5
 40
0.5
 40
0.5625
 40
0.5625
 40
0.5625
 40
0.5625
 40
0.625
 40
0.625
 40
0.625
 40
0.625
 40
0.6875
 40
0.6875
 40
0.6875
 40
0.6875
 40
0.75
 40
0.75
 40
0.75
 40
0.75
 40
0.8125
 40
0.8125
 40
0.8125
 40
0.8125
 40
0.875
 40
0.875
 40
0.875
 40
0.875
 40
1.0
 40
1.0
 40
1.0
 40
1.0
 10
9.1577
 20
0.7494
 30
0.0
 10
9.1583
 20
0.8393
 30
0.0
 10
9.1777
 20
0.9176
 30
0.0
 10
9.2159
 20
0.9829
 30
0.0
 10
9.2159
 20
0.9829
 30
0.0
 10
9.254
 20
1.0482
 30
0.0
 10
9.3077
 20
1.1026
 30
0.0
 10
9.3763
 20
1.1446
 30
0.0
 10
9.3763
 20
1.1446
 30
0.0
 10
9.4448
 20
1.1873
 30
0.0
 10
9.5257
 20
1.2183
 30
0.0
 10
9.6175
 20
1.239
 30
0.0
 10
9.6175
 20
1.239
 30
0.0
 10
9.71
 20
1.2597
 30
0.0
 10
9.8103
 20
1.2694
 30
0.0
 10
9.9183
 20
1.2694
 30
0.0
 10
9.9183
 20
1.2694
 30
0.0
 10
9.9467
 20
1.2694
 30
0.0
 10
9.9713
 20
1.2668
 30
0.0
 10
9.9907
 20
1.261
 30
0.0
 10
9.9907
 20
1.261
 30
0.0
 10
10.0107
 20
1.2558
 30
0.0
 10
10.0295
 20
1.2481
 30
0.0
 10
10.0463
 20
1.2384
 30
0.0
 10
10.0463
 20
1.2384
 30
0.0
 10
10.0974
 20
1.2086
 30
0.0
 10
10.1427
 20
1.1692
 30
0.0
 10
10.1821
 20
1.1207
 30
0.0
 10
10.1821
 20
1.1207
 30
0.0
 10
10.2216
 20
1.0728
 30
0.0
 10
10.2526
 20
1.0165
 30
0.0
 10
10.2753
 20
0.9525
 30
0.0
 10
10.2753
 20
0.9525
 30
0.0
 10
10.2979
 20
0.8885
 30
0.0
 10
10.3095
 20
0.818
 30
0.0
 10
10.3102
 20
0.7417
 30
0.0
 10
10.3102
 20
0.7417
 30
0.0
 10
10.3095
 20
0.6427
 30
0.0
 10
10.2863
 20
0.5573
 30
0.0
 10
10.241
 20
0.4849
 30
0.0
 10
10.241
 20
0.4849
 30
0.0
 10
10.1957
 20
0.4125
 30
0.0
 10
10.1336
 20
0.3562
 30
0.0
 10
10.0534
 20
0.3168
 30
0.0
 10
10.0534
 20
0.3168
 30
0.0
 10
9.9732
 20
0.2773
 30
0.0
 10
9.8801
 20
0.2573
 30
0.0
 10
9.7747
 20
0.2566
 30
0.0
 10
9.7747
 20
0.2566
 30
0.0
 10
9.6531
 20
0.2573
 30
0.0
 10
9.5464
 20
0.2786
 30
0.0
 10
9.4545
 20
0.3206
 30
0.0
 10
9.4545
 20
0.3206
 30
0.0
 10
9.3621
 20
0.3627
 30
0.0
 10
9.2896
 20
0.4202
 30
0.0
 10
9.2372
 20
0.494
 30
0.0
 10
9.2372
 20
0.494
 30
0.0
 10
9.1848
 20
0.5677
 30
0.0
 10
9.1583
 20
0.6531
 30
0.0
 10
9.1577
 20
0.7494
 30
0.0
  0
SPLINE
  5
CD
330
1F
100
AcDbEntity
  8
Standard layer
 62
   250
100
AcDbSpline
210
0.0
220
0.0
230
1.0
 70
    11
 71
     3
 72
    56
 73
    52
 74
     0
 42
0.0000000001
 43
0.0000000001
 40
0.0
 40
0.0
 40
0.0
 40
0.0
 40
0.0714285714285714
 40
0.0714285714285714
 40
0.0714285714285714
 40
0.0714285714285714
 40
0.1428571428571428
 40
0.1428571428571428
 40
0.1428571428571428
 40
0.1428571428571428
 40
0.2142857142857143
 40
0.2142857142857143
 40
0.2142857142857143
 40
0.2142857142857143
 40
0.2857142857142857
 40
0.2857142857142857
 40
0.2857142857142857
 40
0.2857142857142857
 40
0.3571428571428572
 40
0.3571428571428572
 40
0.3571428571428572
 40
0.3571428571428572
 40
0.4285714285714285
 40
0.4285714285714285
 40
0.4285714285714285
 40
0.4285714285714285
 40
0.5
 40
0.5
 40
0.5
 40
0.5
 40
0.5714285714285714
 40
0.5714285714285714
 40
0.5714285714285714
 40
0.5714285714285714
 40
0.6428571428571429
 40
0.6428571428571429
 40
0.6428571428571429
 40
0.6428571428571429
 40
0.7142857142857143
 40
0.7142857142857143
 40
0.7142857142857143
 40
0.7142857142857143
 40
0.7857142857142857
 40
0.7857142857142857
 40
0.7857142857142857
 40
0.7857142857142857
 40
0.8571428571428571
 40
0.8571428571428571
 40
0.8571428571428571
 40
0.8571428571428571
 40
1.0
 40
1.0
 40
1.0
 40
1.0
 10
8.8977
 20
2.7712
 30
0.0
 10
8.8977
 20
2.6425
 30
0.0
 10
8.9261
 20
2.5248
 30
0.0
 10
8.9831
 20
2.4174
 30
0.0
 10
8.9831
 20
2.4174
 30
0.0
 10
9.04
 20
2.31
 30
0.0
 10
9.1234
 20
2.2176
 30
0.0
 10
9.2346
 20
2.1387
 30
0.0
 10
9.2346
 20
2.1387
 30
0.0
 10
9.3459
 20
2.0597
 30
0.0
 10
9.483
 20
1.999
 30
0.0
 10
9.646
 20
1.9556
 30
0.0
 10
9.646
 20
1.9556
 30
0.0
 10
9.809
 20
1.9129
 30
0.0
 10
9.9965
 20
1.8909
 30
0.0
 10
10.2093
 20
1.8903
 30
0.0
 10
10.2093
 20
1.8903
 30
0.0
 10
10.488
 20
1.8942
 30
0.0
 10
10.7235
 20
1.931
 30
0.0
 10
10.9162
 20
2.0015
 30
0.0
 10
10.9162
 20
2.0015
 30
0.0
 10
11.1089
 20
2.072
 30
0.0
 10
11.2551
 20
2.1697
 30
0.0
 10
11.3547
 20
2.2939
 30
0.0
 10
11.3547
 20
2.2939
 30
0.0
 10
11.4543
 20
2.418
 30
0.0
 10
11.5047
 20
2.5629
 30
0.0
 10
11.5054
 20
2.7285
 30
0.0
 10
11.5054
 20
2.7285
 30
0.0
 10
11.5047
 20
2.9141
 30
0.0
 10
11.453
 20
3.0719
 30
0.0
 10
11.3508
 20
3.2026
 30
0.0
 10
11.3508
 20
3.2026
 30
0.0
 10
11.2486
 20
3.3332
 30
0.0
 10
11.0986
 20
3.4328
 30
0.0
 10
10.9007
 20
3.5014
 30
0.0
 10
10.9007
 20
3.5014
 30
0.0
 10
10.7028
 20
3.5706
 30
0.0
 10
10.4609
 20
3.6048
 30
0.0
 10
10.1744
 20
3.6055
 30
0.0
 10
10.1744
 20
3.6055
 30
0.0
 10
9.906
 20
3.6048
 30
0.0
 10
9.6764
 20
3.5718
 30
0.0
 10
9.4862
 20
3.5065
 30
0.0
 10
9.4862
 20
3.5065
 30
0.0
 10
9.2961
 20
3.4412
 30
0.0
 10
9.1506
 20
3.3461
 30
0.0
 10
9.0503
 20
3.222
 30
0.0
 10
9.0503
 20
3.222
 30
0.0
 10
8.9494
 20
3.0978
 30
0.0
 10
8.8983
 20
2.9477
 30
0.0
 10
8.8977
 20
2.7712
 30
0.0
  0
SPLINE
  5
CE
330
1F
100
AcDbEntity
  8
Standard layer
 62
   250
100
AcDbSpline
210
0.0
220
0.0
230
1.0
 70
    11
 71
     3
 72
    56
 73
    52
 74
     0
 42
0.0000000001
 43
0.0000000001
 40
0.0
 40
0.0
 40
0.0
 40
0.0
 40
0.0714285714285714
 40
0.0714285714285714
 40
0.0714285714285714
 40
0.0714285714285714
 40
0.1428571428571428
 40
0.1428571428571428
 40
0.1428571428571428
 40
0.1428571428571428
 40
0.2142857142857143
 40
0.2142857142857143
 40
0.2142857142857143
 40
0.2142857142857143
 40
0.2857142857142857
 40
0.2857142857142857
 40
0.2857142857142857
 40
0.2857142857142857
 40
0.3571428571428572
 40
0.3571428571428572
 40
0.3571428571428572
 40
0.3571428571428572
 40
0.4285714285714285
 40
0.4285714285714285
 40
0.4285714285714285
 40
0.4285714285714285
 40
0.5
 40
0.5
 40
0.5
 40
0.5
 40
0.5714285714285714
 40
0.5714285714285714
 40
0.5714285714285714
 40
0.5714285714285714
 40
0.6428571428571429
 40
0.6428571428571429
 40
0.6428571428571429
 40
0.6428571428571429
 40
0.7142857142857143
 40
0.7142857142857143
 40
0.7142857142857143
 40
0.7142857142857143
 40
0.7857142857142857
 40
0.7857142857142857
 40
0.7857142857142857
 40
0.7857142857142857
 40
0.8571428571428571
 40
0.8571428571428571
 40
0.8571428571428571
 40
0.8571428571428571
 40
1.0
 40
1.0
 40
1.0
 40
1.0
 10
9.1616
 20
2.7479
 30
0.0
 10
9.1622
 20
2.8371
 30
0.0
 10
9.1861
 20
2.9141
 30
0.0
 10
9.2346
 20
2.9788
 30
0.0
 10
9.2346
 20
2.9788
 30
0.0
 10
9.2832
 20
3.0435
 30
0.0
 10
9.3524
 20
3.0965
 30
0.0
 10
9.4429
 20
3.1379
 30
0.0
 10
9.4429
 20
3.1379
 30
0.0
 10
9.5328
 20
3.1793
 30
0.0
 10
9.6415
 20
3.2103
 30
0.0
 10
9.7669
 20
3.2304
 30
0.0
 10
9.7669
 20
3.2304
 30
0.0
 10
9.893
 20
3.2504
 30
0.0
 10
10.034
 20
3.2601
 30
0.0
 10
10.1899
 20
3.2601
 30
0.0
 10
10.1899
 20
3.2601
 30
0.0
 10
10.4059
 20
3.2601
 30
0.0
 10
10.5922
 20
3.2414
 30
0.0
 10
10.7487
 20
3.2038
 30
0.0
 10
10.7487
 20
3.2038
 30
0.0
 10
10.9058
 20
3.167
 30
0.0
 10
11.0268
 20
3.1101
 30
0.0
 10
11.1122
 20
3.0344
 30
0.0
 10
11.1122
 20
3.0344
 30
0.0
 10
11.1975
 20
2.9587
 30
0.0
 10
11.2402
 20
2.863
 30
0.0
 10
11.2415
 20
2.7479
 30
0.0
 10
11.2415
 20
2.7479
 30
0.0
 10
11.2409
 20
2.6438
 30
0.0
 10
11.2008
 20
2.5539
 30
0.0
 10
11.1206
 20
2.4769
 30
0.0
 10
11.1206
 20
2.4769
 30
0.0
 10
11.0404
 20
2.4006
 30
0.0
 10
10.924
 20
2.3417
 30
0.0
 10
10.7713
 20
2.2997
 30
0.0
 10
10.7713
 20
2.2997
 30
0.0
 10
10.618
 20
2.2577
 30
0.0
 10
10.4324
 20
2.2363
 30
0.0
 10
10.2132
 20
2.2357
 30
0.0
 10
10.2132
 20
2.2357
 30
0.0
 10
9.9836
 20
2.2363
 30
0.0
 10
9.7915
 20
2.2589
 30
0.0
 10
9.635
 20
2.3029
 30
0.0
 10
9.635
 20
2.3029
 30
0.0
 10
9.4791
 20
2.3469
 30
0.0
 10
9.3614
 20
2.4071
 30
0.0
 10
9.2812
 20
2.484
 30
0.0
 10
9.2812
 20
2.484
 30
0.0
 10
9.2017
 20
2.561
 30
0.0
 10
9.1616
 20
2.6489
 30
0.0
 10
9.1616
 20
2.7479
 30
0.0
  0
SPLINE
  5
CF
330
1F
100
AcDbEntity
  8
Standard layer
 62
   250
370
    15
100
AcDbSpline
210
0.0
220
0.0
230
1.0
 70
    24
 71
     3
 72
     8
 73
     4
 74
     0
 42
0.0000000001
 43
0.0000000001
 40
0.0
 40
0.0
 40
0.0
 40
0.0
 40
1.0
 40
1.0
 40
1.0
 40
1.0
 10
12.5771
 20
9.4248
 30
0.0
 10
12.5771
 20
9.4248
 30
0.0
 10
5.3353
 20
9.4248
 30
0.0
 10
5.3353
 20
9.4248
 30
0.0
  0
SPLINE
  5
D0
330
1F
100
AcDbEntity
  8
Standard layer
  6
New Line4
 62
   250
370
    15
100
AcDbSpline
210
0.0
220
0.0
230
1.0
 70
    24
 71
     3
 72
     8
 73
     4
 74
     0
 42
0.0000000001
 43
0.0000000001
 40
0.0
 40
0.0
 40
0.0
 40
0.0
 40
1.0
 40
1.0
 40
1.0
 40
1.0
 10
-7.6778
 20
-7.2346
 30
0.0
 10
-7.6778
 20
-7.2346
 30
0.0
 10
-9.2756
 20
10.8894
 30
0.0
 10
-9.2756
 20
10.8894
 30
0.0
  0
SPLINE
  5
D2
330
1F
100
AcDbEntity
  8
Standard layer
 62
   250
100
AcDbSpline
210
0.0
220
0.0
230
1.0
 70
    11
 71
     3
 72
   104
 73
   100
 74
     0
 42
0.0000000001
 43
0.0000000001
 40
0.0
 40
0.0
 40
0.0
 40
0.0
 40
0.0384615384615385
 40
0.0384615384615385
 40
0.0384615384615385
 40
0.0384615384615385
 40
0.0769230769230769
 40
0.0769230769230769
 40
0.0769230769230769
 40
0.0769230769230769
 40
0.1153846153846154
 40
0.1153846153846154
 40
0.1153846153846154
 40
0.1153846153846154
 40
0.1538461538461539
 40
0.1538461538461539
 40
0.1538461538461539
 40
0.1538461538461539
 40
0.1923076923076923
 40
0.1923076923076923
 40
0.1923076923076923
 40
0.1923076923076923
 40
0.2307692307692308
 40
0.2307692307692308
 40
0.2307692307692308
 40
0.2307692307692308
 40
0.2692307692307692
 40
0.2692307692307692
 40
0.2692307692307692
 40
0.2692307692307692
 40
0.3076923076923077
 40
0.3076923076923077
 40
0.3076923076923077
 40
0.3076923076923077
 40
0.3461538461538461
 40
0.3461538461538461
 40
0.3461538461538461
 40
0.3461538461538461
 40
0.3846153846153846
 40
0.3846153846153846
 40
0.3846153846153846
 40
0.3846153846153846
 40
0.4230769230769231
 40
0.4230769230769231
 40
0.4230769230769231
 40
0.4230769230769231
 40
0.4615384615384616
 40
0.4615384615384616
 40
0.4615384615384616
 40
0.4615384615384616
 40
0.5
 40
0.5
 40
0.5
 40
0.5
 40
0.5384615384615384
 40
0.5384615384615384
 40
0.5384615384615384
 40
0.5384615384615384
 40
0.5769230769230769
 40
0.5769230769230769
 40
0.5769230769230769
 40
0.5769230769230769
 40
0.6153846153846154
 40
0.6153846153846154
 40
0.6153846153846154
 40
0.6153846153846154
 40
0.6538461538461539
 40
0.6538461538461539
 40
0.6538461538461539
 40
0.6538461538461539
 40
0.6923076923076923
 40
0.6923076923076923
 40
0.6923076923076923
 40
0.6923076923076923
 40
0.7307692307692307
 40
0.7307692307692307
 40
0.7307692307692307
 40
0.7307692307692307
 40
0.7692307692307693
 40
0.7692307692307693
 40
0.7692307692307693
 40
0.7692307692307693
 40
0.8076923076923077
 40
0.8076923076923077
 40
0.8076923076923077
 40
0.8076923076923077
 40
0.8461538461538461
 40
0.8461538461538461
 40
0.8461538461538461
 40
0.8461538461538461
 40
0.8846153846153846
 40
0.8846153846153846
 40
0.8846153846153846
 40
0.8846153846153846
 40
0.9230769230769231
 40
0.9230769230769231
 40
0.9230769230769231
 40
0.9230769230769231
 40
1.0
 40
1.0
 40
1.0
 40
1.0
 10
-7.9371
 20
-6.6945
 30
0.0
 10
-7.9371
 20
-6.6945
 30
0.0
 10
-8.291
 20
-6.4801
 30
0.0
 10
-8.291
 20
-6.4801
 30
0.0
 10
-8.291
 20
-6.4801
 30
0.0
 10
-8.2315
 20
-6.3807
 30
0.0
 10
-8.1883
 20
-6.2737
 30
0.0
 10
-8.1625
 20
-6.1599
 30
0.0
 10
-8.1625
 20
-6.1599
 30
0.0
 10
-8.1368
 20
-6.0453
 30
0.0
 10
-8.129
 20
-5.927
 30
0.0
 10
-8.1397
 20
-5.8046
 30
0.0
 10
-8.1397
 20
-5.8046
 30
0.0
 10
-8.1507
 20
-5.679
 30
0.0
 10
-8.18
 20
-5.5589
 30
0.0
 10
-8.2269
 20
-5.4454
 30
0.0
 10
-8.2269
 20
-5.4454
 30
0.0
 10
-8.2739
 20
-5.3321
 30
0.0
 10
-8.3381
 20
-5.2286
 30
0.0
 10
-8.4202
 20
-5.1358
 30
0.0
 10
-8.4202
 20
-5.1358
 30
0.0
 10
-8.5018
 20
-5.0424
 30
0.0
 10
-8.6008
 20
-4.9633
 30
0.0
 10
-8.717
 20
-4.8982
 30
0.0
 10
-8.717
 20
-4.8982
 30
0.0
 10
-8.8329
 20
-4.8336
 30
0.0
 10
-8.9656
 20
-4.7868
 30
0.0
 10
-9.1155
 20
-4.7578
 30
0.0
 10
-9.1155
 20
-4.7578
 30
0.0
 10
-9.2648
 20
-4.7293
 30
0.0
 10
-9.4302
 20
-4.7224
 30
0.0
 10
-9.612
 20
-4.7376
 30
0.0
 10
-9.612
 20
-4.7376
 30
0.0
 10
-9.7402
 20
-4.7488
 30
0.0
 10
-9.8609
 20
-4.7723
 30
0.0
 10
-9.9745
 20
-4.8089
 30
0.0
 10
-9.9745
 20
-4.8089
 30
0.0
 10
-10.0888
 20
-4.8448
 30
0.0
 10
-10.1938
 20
-4.8924
 30
0.0
 10
-10.2893
 20
-4.9507
 30
0.0
 10
-10.2893
 20
-4.9507
 30
0.0
 10
-10.3848
 20
-5.0097
 30
0.0
 10
-10.4683
 20
-5.0787
 30
0.0
 10
-10.5413
 20
-5.1578
 30
0.0
 10
-10.5413
 20
-5.1578
 30
0.0
 10
-10.5413
 20
-5.1578
 30
0.0
 10
-10.8947
 20
-4.9472
 30
0.0
 10
-10.8947
 20
-4.9472
 30
0.0
 10
-10.8947
 20
-4.9472
 30
0.0
 10
-10.8947
 20
-4.9472
 30
0.0
 10
-11.0159
 20
-5.1643
 30
0.0
 10
-11.0159
 20
-5.1643
 30
0.0
 10
-11.0159
 20
-5.1643
 30
0.0
 10
-11.0159
 20
-5.1643
 30
0.0
 10
-10.6829
 20
-5.3649
 30
0.0
 10
-10.6829
 20
-5.3649
 30
0.0
 10
-10.6829
 20
-5.3649
 30
0.0
 10
-10.7442
 20
-5.4644
 30
0.0
 10
-10.7876
 20
-5.5702
 30
0.0
 10
-10.8128
 20
-5.6827
 30
0.0
 10
-10.8128
 20
-5.6827
 30
0.0
 10
-10.838
 20
-5.796
 30
0.0
 10
-10.8453
 20
-5.9121
 30
0.0
 10
-10.8347
 20
-6.0327
 30
0.0
 10
-10.8347
 20
-6.0327
 30
0.0
 10
-10.8191
 20
-6.2046
 30
0.0
 10
-10.773
 20
-6.3602
 30
0.0
 10
-10.6964
 20
-6.501
 30
0.0
 10
-10.6964
 20
-6.501
 30
0.0
 10
-10.6199
 20
-6.641
 30
0.0
 10
-10.5167
 20
-6.7598
 30
0.0
 10
-10.3879
 20
-6.8577
 30
0.0
 10
-10.3879
 20
-6.8577
 30
0.0
 10
-10.2593
 20
-6.9561
 30
0.0
 10
-10.1089
 20
-7.0274
 30
0.0
 10
-9.9367
 20
-7.0734
 30
0.0
 10
-9.9367
 20
-7.0734
 30
0.0
 10
-9.7646
 20
-7.1186
 30
0.0
 10
-9.5757
 20
-7.1333
 30
0.0
 10
-9.3689
 20
-7.1158
 30
0.0
 10
-9.3689
 20
-7.1158
 30
0.0
 10
-9.2387
 20
-7.1044
 30
0.0
 10
-9.1156
 20
-7.0794
 30
0.0
 10
-9.0007
 20
-7.0421
 30
0.0
 10
-9.0007
 20
-7.0421
 30
0.0
 10
-8.8858
 20
-7.0047
 30
0.0
 10
-8.7804
 20
-6.9559
 30
0.0
 10
-8.685
 20
-6.8963
 30
0.0
 10
-8.685
 20
-6.8963
 30
0.0
 10
-8.5896
 20
-6.836
 30
0.0
 10
-8.5054
 20
-6.7663
 30
0.0
 10
-8.4326
 20
-6.6872
 30
0.0
 10
-8.4326
 20
-6.6872
 30
0.0
 10
-8.4326
 20
-6.6872
 30
0.0
 10
-8.0753
 20
-6.8975
 30
0.0
 10
-8.0753
 20
-6.8975
 30
0.0
 10
-8.0753
 20
-6.8975
 30
0.0
 10
-8.0753
 20
-6.8975
 30
0.0
 10
-7.9371
 20
-6.6945
 30
0.0
 10
-7.9371
 20
-6.6945
 30
0.0
  0
SPLINE
  5
D3
330
1F
100
AcDbEntity
  8
Standard layer
 62
   250
100
AcDbSpline
210
0.0
220
0.0
230
1.0
 70
    11
 71
     3
 72
    52
 73
    48
 74
     0
 42
0.0000000001
 43
0.0000000001
 40
0.0
 40
0.0
 40
0.0
 40
0.0
 40
0.0769230769230769
 40
0.0769230769230769
 40
0.0769230769230769
 40
0.0769230769230769
 40
0.1538461538461539
 40
0.1538461538461539
 40
0.1538461538461539
 40
0.1538461538461539
 40
0.2307692307692308
 40
0.2307692307692308
 40
0.2307692307692308
 40
0.2307692307692308
 40
0.3076923076923077
 40
0.3076923076923077
 40
0.3076923076923077
 40
0.3076923076923077
 40
0.3846153846153846
 40
0.3846153846153846
 40
0.3846153846153846
 40
0.3846153846153846
 40
0.4615384615384616
 40
0.4615384615384616
 40
0.4615384615384616
 40
0.4615384615384616
 40
0.5384615384615384
 40
0.5384615384615384
 40
0.5384615384615384
 40
0.5384615384615384
 40
0.6153846153846154
 40
0.6153846153846154
 40
0.6153846153846154
 40
0.6153846153846154
 40
0.6923076923076923
 40
0.6923076923076923
 40
0.6923076923076923
 40
0.6923076923076923
 40
0.7692307692307693
 40
0.7692307692307693
 40
0.7692307692307693
 40
0.7692307692307693
 40
0.8461538461538461
 40
0.8461538461538461
 40
0.8461538461538461
 40
0.8461538461538461
 40
1.0
 40
1.0
 40
1.0
 40
1.0
 10
-8.7358
 20
-6.5151
 30
0.0
 10
-8.7358
 20
-6.5151
 30
0.0
 10
-8.7312
 20
-6.5225
 30
0.0
 10
-8.7312
 20
-6.5225
 30
0.0
 10
-8.7312
 20
-6.5225
 30
0.0
 10
-8.7943
 20
-6.567
 30
0.0
 10
-8.8603
 20
-6.6065
 30
0.0
 10
-8.9287
 20
-6.6411
 30
0.0
 10
-8.9287
 20
-6.6411
 30
0.0
 10
-8.9977
 20
-6.6756
 30
0.0
 10
-9.0712
 20
-6.7041
 30
0.0
 10
-9.1509
 20
-6.7268
 30
0.0
 10
-9.1509
 20
-6.7268
 30
0.0
 10
-9.2302
 20
-6.7492
 30
0.0
 10
-9.3184
 20
-6.7647
 30
0.0
 10
-9.4144
 20
-6.7731
 30
0.0
 10
-9.4144
 20
-6.7731
 30
0.0
 10
-9.5253
 20
-6.7828
 30
0.0
 10
-9.6332
 20
-6.7806
 30
0.0
 10
-9.7402
 20
-6.7673
 30
0.0
 10
-9.7402
 20
-6.7673
 30
0.0
 10
-9.8466
 20
-6.7532
 30
0.0
 10
-9.9475
 20
-6.7276
 30
0.0
 10
-10.0417
 20
-6.6904
 30
0.0
 10
-10.0417
 20
-6.6904
 30
0.0
 10
-10.1365
 20
-6.6526
 30
0.0
 10
-10.2213
 20
-6.6029
 30
0.0
 10
-10.2956
 20
-6.5405
 30
0.0
 10
-10.2956
 20
-6.5405
 30
0.0
 10
-10.3705
 20
-6.4783
 30
0.0
 10
-10.431
 20
-6.4037
 30
0.0
 10
-10.4775
 20
-6.3169
 30
0.0
 10
-10.4775
 20
-6.3169
 30
0.0
 10
-10.5247
 20
-6.2295
 30
0.0
 10
-10.5529
 20
-6.1294
 30
0.0
 10
-10.5635
 20
-6.0167
 30
0.0
 10
-10.5635
 20
-6.0167
 30
0.0
 10
-10.5714
 20
-5.9181
 30
0.0
 10
-10.5633
 20
-5.8264
 30
0.0
 10
-10.5381
 20
-5.7424
 30
0.0
 10
-10.5381
 20
-5.7424
 30
0.0
 10
-10.5137
 20
-5.6579
 30
0.0
 10
-10.4757
 20
-5.5806
 30
0.0
 10
-10.4248
 20
-5.5098
 30
0.0
 10
-10.4248
 20
-5.5098
 30
0.0
 10
-10.4248
 20
-5.5098
 30
0.0
 10
-8.7358
 20
-6.5151
 30
0.0
 10
-8.7358
 20
-6.5151
 30
0.0
  0
SPLINE
  5
D4
330
1F
100
AcDbEntity
  8
Standard layer
 62
   250
100
AcDbSpline
210
0.0
220
0.0
230
1.0
 70
    11
 71
     3
 72
    48
 73
    44
 74
     0
 42
0.0000000001
 43
0.0000000001
 40
0.0
 40
0.0
 40
0.0
 40
0.0
 40
0.0833333333333333
 40
0.0833333333333333
 40
0.0833333333333333
 40
0.0833333333333333
 40
0.1666666666666667
 40
0.1666666666666667
 40
0.1666666666666667
 40
0.1666666666666667
 40
0.25
 40
0.25
 40
0.25
 40
0.25
 40
0.3333333333333333
 40
0.3333333333333333
 40
0.3333333333333333
 40
0.3333333333333333
 40
0.4166666666666667
 40
0.4166666666666667
 40
0.4166666666666667
 40
0.4166666666666667
 40
0.5
 40
0.5
 40
0.5
 40
0.5
 40
0.5833333333333334
 40
0.5833333333333334
 40
0.5833333333333334
 40
0.5833333333333334
 40
0.6666666666666666
 40
0.6666666666666666
 40
0.6666666666666666
 40
0.6666666666666666
 40
0.75
 40
0.75
 40
0.75
 40
0.75
 40
0.8333333333333334
 40
0.8333333333333334
 40
0.8333333333333334
 40
0.8333333333333334
 40
1.0
 40
1.0
 40
1.0
 40
1.0
 10
-10.2337
 20
-5.3334
 30
0.0
 10
-10.2337
 20
-5.3334
 30
0.0
 10
-10.2347
 20
-5.3219
 30
0.0
 10
-10.2347
 20
-5.3219
 30
0.0
 10
-10.2347
 20
-5.3219
 30
0.0
 10
-10.1285
 20
-5.245
 30
0.0
 10
-10.0193
 20
-5.1881
 30
0.0
 10
-9.907
 20
-5.1504
 30
0.0
 10
-9.907
 20
-5.1504
 30
0.0
 10
-9.7954
 20
-5.1127
 30
0.0
 10
-9.6832
 20
-5.0892
 30
0.0
 10
-9.5703
 20
-5.0806
 30
0.0
 10
-9.5703
 20
-5.0806
 30
0.0
 10
-9.4531
 20
-5.0704
 30
0.0
 10
-9.3398
 20
-5.0728
 30
0.0
 10
-9.2301
 20
-5.0872
 30
0.0
 10
-9.2301
 20
-5.0872
 30
0.0
 10
-9.1205
 20
-5.1016
 30
0.0
 10
-9.0181
 20
-5.1284
 30
0.0
 10
-8.9232
 20
-5.1669
 30
0.0
 10
-8.9232
 20
-5.1669
 30
0.0
 10
-8.8283
 20
-5.2059
 30
0.0
 10
-8.7441
 20
-5.2563
 30
0.0
 10
-8.671
 20
-5.3188
 30
0.0
 10
-8.671
 20
-5.3188
 30
0.0
 10
-8.5974
 20
-5.3818
 30
0.0
 10
-8.5377
 20
-5.4558
 30
0.0
 10
-8.4926
 20
-5.5414
 30
0.0
 10
-8.4926
 20
-5.5414
 30
0.0
 10
-8.4474
 20
-5.6271
 30
0.0
 10
-8.4201
 20
-5.724
 30
0.0
 10
-8.4099
 20
-5.8322
 30
0.0
 10
-8.4099
 20
-5.8322
 30
0.0
 10
-8.4007
 20
-5.9372
 30
0.0
 10
-8.4088
 20
-6.0307
 30
0.0
 10
-8.4335
 20
-6.1115
 30
0.0
 10
-8.4335
 20
-6.1115
 30
0.0
 10
-8.4582
 20
-6.1929
 30
0.0
 10
-8.4985
 20
-6.2671
 30
0.0
 10
-8.5529
 20
-6.3355
 30
0.0
 10
-8.5529
 20
-6.3355
 30
0.0
 10
-8.5529
 20
-6.3355
 30
0.0
 10
-10.2337
 20
-5.3334
 30
0.0
 10
-10.2337
 20
-5.3334
 30
0.0
  0
SPLINE
  5
D5
330
1F
100
AcDbEntity
  8
Standard layer
 62
   250
100
AcDbSpline
210
0.0
220
0.0
230
1.0
 70
    11
 71
     3
 72
    48
 73
    44
 74
     0
 42
0.0000000001
 43
0.0000000001
 40
0.0
 40
0.0
 40
0.0
 40
0.0
 40
0.0833333333333333
 40
0.0833333333333333
 40
0.0833333333333333
 40
0.0833333333333333
 40
0.1666666666666667
 40
0.1666666666666667
 40
0.1666666666666667
 40
0.1666666666666667
 40
0.25
 40
0.25
 40
0.25
 40
0.25
 40
0.3333333333333333
 40
0.3333333333333333
 40
0.3333333333333333
 40
0.3333333333333333
 40
0.4166666666666667
 40
0.4166666666666667
 40
0.4166666666666667
 40
0.4166666666666667
 40
0.5
 40
0.5
 40
0.5
 40
0.5
 40
0.5833333333333334
 40
0.5833333333333334
 40
0.5833333333333334
 40
0.5833333333333334
 40
0.6666666666666666
 40
0.6666666666666666
 40
0.6666666666666666
 40
0.6666666666666666
 40
0.75
 40
0.75
 40
0.75
 40
0.75
 40
0.8333333333333334
 40
0.8333333333333334
 40
0.8333333333333334
 40
0.8333333333333334
 40
1.0
 40
1.0
 40
1.0
 40
1.0
 10
-8.4338
 20
-2.9322
 30
0.0
 10
-8.4338
 20
-2.9322
 30
0.0
 10
-9.1219
 20
-2.9924
 30
0.0
 10
-9.1219
 20
-2.9924
 30
0.0
 10
-9.1219
 20
-2.9924
 30
0.0
 10
-9.1219
 20
-2.9924
 30
0.0
 10
-9.1527
 20
-2.6407
 30
0.0
 10
-9.1527
 20
-2.6407
 30
0.0
 10
-9.1527
 20
-2.6407
 30
0.0
 10
-9.1527
 20
-2.6407
 30
0.0
 10
-9.4156
 20
-2.6637
 30
0.0
 10
-9.4156
 20
-2.6637
 30
0.0
 10
-9.4156
 20
-2.6637
 30
0.0
 10
-9.4156
 20
-2.6637
 30
0.0
 10
-9.3848
 20
-3.0154
 30
0.0
 10
-9.3848
 20
-3.0154
 30
0.0
 10
-9.3848
 20
-3.0154
 30
0.0
 10
-9.3848
 20
-3.0154
 30
0.0
 10
-10.9465
 20
-3.1521
 30
0.0
 10
-10.9465
 20
-3.1521
 30
0.0
 10
-10.9465
 20
-3.1521
 30
0.0
 10
-10.9465
 20
-3.1521
 30
0.0
 10
-10.9144
 20
-3.5192
 30
0.0
 10
-10.9144
 20
-3.5192
 30
0.0
 10
-10.9144
 20
-3.5192
 30
0.0
 10
-10.9144
 20
-3.5192
 30
0.0
 10
-9.212
 20
-4.5
 30
0.0
 10
-9.212
 20
-4.5
 30
0.0
 10
-9.212
 20
-4.5
 30
0.0
 10
-9.212
 20
-4.5
 30
0.0
 10
-8.9917
 20
-4.4807
 30
0.0
 10
-8.9917
 20
-4.4807
 30
0.0
 10
-8.9917
 20
-4.4807
 30
0.0
 10
-8.9917
 20
-4.4807
 30
0.0
 10
-9.0938
 20
-3.3133
 30
0.0
 10
-9.0938
 20
-3.3133
 30
0.0
 10
-9.0938
 20
-3.3133
 30
0.0
 10
-9.0938
 20
-3.3133
 30
0.0
 10
-8.4058
 20
-3.2531
 30
0.0
 10
-8.4058
 20
-3.2531
 30
0.0
 10
-8.4058
 20
-3.2531
 30
0.0
 10
-8.4058
 20
-3.2531
 30
0.0
 10
-8.4338
 20
-2.9322
 30
0.0
 10
-8.4338
 20
-2.9322
 30
0.0
  0
SPLINE
  5
D6
330
1F
100
AcDbEntity
  8
Standard layer
 62
   250
100
AcDbSpline
210
0.0
220
0.0
230
1.0
 70
    11
 71
     3
 72
    36
 73
    32
 74
     0
 42
0.0000000001
 43
0.0000000001
 40
0.0
 40
0.0
 40
0.0
 40
0.0
 40
0.1111111111111111
 40
0.1111111111111111
 40
0.1111111111111111
 40
0.1111111111111111
 40
0.2222222222222222
 40
0.2222222222222222
 40
0.2222222222222222
 40
0.2222222222222222
 40
0.3333333333333333
 40
0.3333333333333333
 40
0.3333333333333333
 40
0.3333333333333333
 40
0.4444444444444444
 40
0.4444444444444444
 40
0.4444444444444444
 40
0.4444444444444444
 40
0.5555555555555556
 40
0.5555555555555556
 40
0.5555555555555556
 40
0.5555555555555556
 40
0.6666666666666666
 40
0.6666666666666666
 40
0.6666666666666666
 40
0.6666666666666666
 40
0.7777777777777778
 40
0.7777777777777778
 40
0.7777777777777778
 40
0.7777777777777778
 40
1.0
 40
1.0
 40
1.0
 40
1.0
 10
-9.2847
 20
-4.1596
 30
0.0
 10
-9.2847
 20
-4.1596
 30
0.0
 10
-9.2925
 20
-4.1603
 30
0.0
 10
-9.2925
 20
-4.1603
 30
0.0
 10
-9.2925
 20
-4.1603
 30
0.0
 10
-9.2925
 20
-4.1603
 30
0.0
 10
-10.2006
 20
-3.6204
 30
0.0
 10
-10.2006
 20
-3.6204
 30
0.0
 10
-10.2006
 20
-3.6204
 30
0.0
 10
-10.2608
 20
-3.5914
 30
0.0
 10
-10.3218
 20
-3.5623
 30
0.0
 10
-10.3834
 20
-3.5338
 30
0.0
 10
-10.3834
 20
-3.5338
 30
0.0
 10
-10.4456
 20
-3.5062
 30
0.0
 10
-10.5144
 20
-3.4758
 30
0.0
 10
-10.5899
 20
-3.4442
 30
0.0
 10
-10.5899
 20
-3.4442
 30
0.0
 10
-10.5899
 20
-3.4442
 30
0.0
 10
-10.5909
 20
-3.4325
 30
0.0
 10
-10.5909
 20
-3.4325
 30
0.0
 10
-10.5909
 20
-3.4325
 30
0.0
 10
-10.4588
 20
-3.4288
 30
0.0
 10
-10.327
 20
-3.4212
 30
0.0
 10
-10.1956
 20
-3.4097
 30
0.0
 10
-10.1956
 20
-3.4097
 30
0.0
 10
-10.1956
 20
-3.4097
 30
0.0
 10
-9.3567
 20
-3.3363
 30
0.0
 10
-9.3567
 20
-3.3363
 30
0.0
 10
-9.3567
 20
-3.3363
 30
0.0
 10
-9.3567
 20
-3.3363
 30
0.0
 10
-9.2847
 20
-4.1596
 30
0.0
 10
-9.2847
 20
-4.1596
 30
0.0
  0
SPLINE
  5
D7
330
1F
100
AcDbEntity
  8
Standard layer
 62
   250
100
AcDbSpline
210
0.0
220
0.0
230
1.0
 70
    11
 71
     3
 72
    56
 73
    52
 74
     0
 42
0.0000000001
 43
0.0000000001
 40
0.0
 40
0.0
 40
0.0
 40
0.0
 40
0.0714285714285714
 40
0.0714285714285714
 40
0.0714285714285714
 40
0.0714285714285714
 40
0.1428571428571428
 40
0.1428571428571428
 40
0.1428571428571428
 40
0.1428571428571428
 40
0.2142857142857143
 40
0.2142857142857143
 40
0.2142857142857143
 40
0.2142857142857143
 40
0.2857142857142857
 40
0.2857142857142857
 40
0.2857142857142857
 40
0.2857142857142857
 40
0.3571428571428572
 40
0.3571428571428572
 40
0.3571428571428572
 40
0.3571428571428572
 40
0.4285714285714285
 40
0.4285714285714285
 40
0.4285714285714285
 40
0.4285714285714285
 40
0.5
 40
0.5
 40
0.5
 40
0.5
 40
0.5714285714285714
 40
0.5714285714285714
 40
0.5714285714285714
 40
0.5714285714285714
 40
0.6428571428571429
 40
0.6428571428571429
 40
0.6428571428571429
 40
0.6428571428571429
 40
0.7142857142857143
 40
0.7142857142857143
 40
0.7142857142857143
 40
0.7142857142857143
 40
0.7857142857142857
 40
0.7857142857142857
 40
0.7857142857142857
 40
0.7857142857142857
 40
0.8571428571428571
 40
0.8571428571428571
 40
0.8571428571428571
 40
0.8571428571428571
 40
1.0
 40
1.0
 40
1.0
 40
1.0
 10
-11.1162
 20
-1.7022
 30
0.0
 10
-11.105
 20
-1.8304
 30
0.0
 10
-11.0665
 20
-1.9452
 30
0.0
 10
-11.0003
 20
-2.0472
 30
0.0
 10
-11.0003
 20
-2.0472
 30
0.0
 10
-10.9343
 20
-2.1493
 30
0.0
 10
-10.8431
 20
-2.234
 30
0.0
 10
-10.7255
 20
-2.303
 30
0.0
 10
-10.7255
 20
-2.303
 30
0.0
 10
-10.6077
 20
-2.372
 30
0.0
 10
-10.4659
 20
-2.4205
 30
0.0
 10
-10.2997
 20
-2.4495
 30
0.0
 10
-10.2997
 20
-2.4495
 30
0.0
 10
-10.1336
 20
-2.4778
 30
0.0
 10
-9.9449
 20
-2.4834
 30
0.0
 10
-9.7329
 20
-2.4655
 30
0.0
 10
-9.7329
 20
-2.4655
 30
0.0
 10
-9.4556
 20
-2.4373
 30
0.0
 10
-9.2242
 20
-2.3801
 30
0.0
 10
-9.0383
 20
-2.2931
 30
0.0
 10
-9.0383
 20
-2.2931
 30
0.0
 10
-8.8525
 20
-2.206
 30
0.0
 10
-8.7154
 20
-2.096
 30
0.0
 10
-8.627
 20
-1.9636
 30
0.0
 10
-8.627
 20
-1.9636
 30
0.0
 10
-8.5386
 20
-1.8313
 30
0.0
 10
-8.501
 20
-1.6825
 30
0.0
 10
-8.5147
 20
-1.5175
 30
0.0
 10
-8.5147
 20
-1.5175
 30
0.0
 10
-8.5316
 20
-1.3327
 30
0.0
 10
-8.5969
 20
-1.18
 30
0.0
 10
-8.7101
 20
-1.0587
 30
0.0
 10
-8.7101
 20
-1.0587
 30
0.0
 10
-8.8233
 20
-0.9375
 30
0.0
 10
-8.9814
 20
-0.8513
 30
0.0
 10
-9.1845
 20
-0.8002
 30
0.0
 10
-9.1845
 20
-0.8002
 30
0.0
 10
-9.3877
 20
-0.7485
 30
0.0
 10
-9.6316
 20
-0.7356
 30
0.0
 10
-9.9171
 20
-0.7598
 30
0.0
 10
-9.9171
 20
-0.7598
 30
0.0
 10
-10.1844
 20
-0.7839
 30
0.0
 10
-10.4103
 20
-0.8368
 30
0.0
 10
-10.5941
 20
-0.9184
 30
0.0
 10
-10.5941
 20
-0.9184
 30
0.0
 10
-10.7777
 20
-1.0001
 30
0.0
 10
-10.9144
 20
-1.1075
 30
0.0
 10
-11.0035
 20
-1.2398
 30
0.0
 10
-11.0035
 20
-1.2398
 30
0.0
 10
-11.0932
 20
-1.3724
 30
0.0
 10
-11.131
 20
-1.5263
 30
0.0
 10
-11.1162
 20
-1.7022
 30
0.0
  0
SPLINE
  5
D8
330
1F
100
AcDbEntity
  8
Standard layer
 62
   250
100
AcDbSpline
210
0.0
220
0.0
230
1.0
 70
    11
 71
     3
 72
    56
 73
    52
 74
     0
 42
0.0000000001
 43
0.0000000001
 40
0.0
 40
0.0
 40
0.0
 40
0.0
 40
0.0714285714285714
 40
0.0714285714285714
 40
0.0714285714285714
 40
0.0714285714285714
 40
0.1428571428571428
 40
0.1428571428571428
 40
0.1428571428571428
 40
0.1428571428571428
 40
0.2142857142857143
 40
0.2142857142857143
 40
0.2142857142857143
 40
0.2142857142857143
 40
0.2857142857142857
 40
0.2857142857142857
 40
0.2857142857142857
 40
0.2857142857142857
 40
0.3571428571428572
 40
0.3571428571428572
 40
0.3571428571428572
 40
0.3571428571428572
 40
0.4285714285714285
 40
0.4285714285714285
 40
0.4285714285714285
 40
0.4285714285714285
 40
0.5
 40
0.5
 40
0.5
 40
0.5
 40
0.5714285714285714
 40
0.5714285714285714
 40
0.5714285714285714
 40
0.5714285714285714
 40
0.6428571428571429
 40
0.6428571428571429
 40
0.6428571428571429
 40
0.6428571428571429
 40
0.7142857142857143
 40
0.7142857142857143
 40
0.7142857142857143
 40
0.7142857142857143
 40
0.7857142857142857
 40
0.7857142857142857
 40
0.7857142857142857
 40
0.7857142857142857
 40
0.8571428571428571
 40
0.8571428571428571
 40
0.8571428571428571
 40
0.8571428571428571
 40
1.0
 40
1.0
 40
1.0
 40
1.0
 10
-10.8513
 20
-1.7024
 30
0.0
 10
-10.8585
 20
-1.6135
 30
0.0
 10
-10.8414
 20
-1.5347
 30
0.0
 10
-10.7987
 20
-1.4661
 30
0.0
 10
-10.7987
 20
-1.4661
 30
0.0
 10
-10.7559
 20
-1.3974
 30
0.0
 10
-10.6916
 20
-1.3385
 30
0.0
 10
-10.6051
 20
-1.2894
 30
0.0
 10
-10.6051
 20
-1.2894
 30
0.0
 10
-10.5191
 20
-1.2403
 30
0.0
 10
-10.4135
 20
-1.2
 30
0.0
 10
-10.2904
 20
-1.169
 30
0.0
 10
-10.2904
 20
-1.169
 30
0.0
 10
-10.1665
 20
-1.1381
 30
0.0
 10
-10.0269
 20
-1.1162
 30
0.0
 10
-9.8716
 20
-1.1026
 30
0.0
 10
-9.8716
 20
-1.1026
 30
0.0
 10
-9.6564
 20
-1.0837
 30
0.0
 10
-9.4692
 20
-1.0861
 30
0.0
 10
-9.31
 20
-1.1099
 30
0.0
 10
-9.31
 20
-1.1099
 30
0.0
 10
-9.1503
 20
-1.1329
 30
0.0
 10
-9.0248
 20
-1.1791
 30
0.0
 10
-8.9331
 20
-1.247
 30
0.0
 10
-8.9331
 20
-1.247
 30
0.0
 10
-8.8415
 20
-1.315
 30
0.0
 10
-8.7907
 20
-1.4066
 30
0.0
 10
-8.7793
 20
-1.5212
 30
0.0
 10
-8.7793
 20
-1.5212
 30
0.0
 10
-8.7709
 20
-1.6249
 30
0.0
 10
-8.803
 20
-1.718
 30
0.0
 10
-8.8761
 20
-1.8017
 30
0.0
 10
-8.8761
 20
-1.8017
 30
0.0
 10
-8.9494
 20
-1.8847
 30
0.0
 10
-9.0602
 20
-1.9535
 30
0.0
 10
-9.2087
 20
-2.0086
 30
0.0
 10
-9.2087
 20
-2.0086
 30
0.0
 10
-9.3577
 20
-2.0638
 30
0.0
 10
-9.5408
 20
-2.1013
 30
0.0
 10
-9.7591
 20
-2.121
 30
0.0
 10
-9.7591
 20
-2.121
 30
0.0
 10
-9.9879
 20
-2.1404
 30
0.0
 10
-10.1812
 20
-2.1347
 30
0.0
 10
-10.3409
 20
-2.1045
 30
0.0
 10
-10.3409
 20
-2.1045
 30
0.0
 10
-10.5001
 20
-2.0742
 30
0.0
 10
-10.6226
 20
-2.0245
 30
0.0
 10
-10.7092
 20
-1.9549
 30
0.0
 10
-10.7092
 20
-1.9549
 30
0.0
 10
-10.7951
 20
-1.8851
 30
0.0
 10
-10.8427
 20
-1.8011
 30
0.0
 10
-10.8513
 20
-1.7024
 30
0.0
  0
SPLINE
  5
D9
330
1F
100
AcDbEntity
  8
Standard layer
  6
New Line5
 62
   250
370
    18
100
AcDbSpline
210
0.0
220
0.0
230
1.0
 70
    24
 71
     3
 72
     8
 73
     4
 74
     0
 42
0.0000000001
 43
0.0000000001
 40
0.0
 40
0.0
 40
0.0
 40
0.0
 40
1.0
 40
1.0
 40
1.0
 40
1.0
 10
14.9451
 20
0.0055
 30
0.0
 10
14.9451
 20
0.0055
 30
0.0
 10
14.9451
 20
1.8909
 30
0.0
 10
14.9451
 20
1.8909
 30
0.0
  0
SPLINE
  5
DB
330
1F
100
AcDbEntity
  8
Standard layer
  6
New Line6
 62
   250
370
    18
100
AcDbSpline
210
0.0
220
0.0
230
1.0
 70
    24
 71
     3
 72
     8
 73
     4
 74
     0
 42
0.0000000001
 43
0.0000000001
 40
0.0
 40
0.0
 40
0.0
 40
0.0
 40
1.0
 40
1.0
 40
1.0
 40
1.0
 10
23.2683
 20
0.1049
 30
0.0
 10
23.2683
 20
0.1049
 30
0.0
 10
23.2683
 20
1.6594
 30
0.0
 10
23.2683
 20
1.6594
 30
0.0
  0
SPLINE
  5
DD
330
1F
100
AcDbEntity
  8
Standard layer
  6
New Line7
 62
   250
370
    15
100
AcDbSpline
210
0.0
220
0.0
230
1.0
 70
    24
 71
     3
 72
     8
 73
     4
 74
     0
 42
0.0000000001
 43
0.0000000001
 40
0.0
 40
0.0
 40
0.0
 40
0.0
 40
1.0
 40
1.0
 40
1.0
 40
1.0
 10
-24.6489
 20
3.2677
 30
0.0
 10
-24.6489
 20
3.2677
 30
0.0
 10
4.0352
 20
5.7772
 30
0.0
 10
4.0352
 20
5.7772
 30
0.0
  0
SPLINE
  5
DF
330
1F
100
AcDbEntity
  8
Standard layer
  6
New Line8
 62
   250
370
    15
100
AcDbSpline
210
0.0
220
0.0
230
1.0
 70
    24
 71
     3
 72
     8
 73
     4
 74
     0
 42
0.0000000001
 43
0.0000000001
 40
0.0
 40
0.0
 40
0.0
 40
0.0
 40
1.0
 40
1.0
 40
1.0
 40
1.0
 10
2.677
 20
6.6745
 30
0.0
 10
2.677
 20
6.6745
 30
0.0
 10
2.677
 20
-5.0972
 30
0.0
 10
2.677
 20
-5.0972
 30
0.0
  0
SPLINE
  5
E1
330
1F
100
AcDbEntity
  8
Standard layer
  6
New Line9
 62
   250
370
    15
100
AcDbSpline
210
0.0
220
0.0
230
1.0
 70
    24
 71
     3
 72
     8
 73
     4
 74
     0
 42
0.0000000001
 43
0.0000000001
 40
0.0
 40
0.0
 40
0.0
 40
0.0
 40
1.0
 40
1.0
 40
1.0
 40
1.0
 10
19.1844
 20
2.8844
 30
0.0
 10
19.1844
 20
2.8844
 30
0.0
 10
19.1844
 20
-4.7444
 30
0.0
 10
19.1844
 20
-4.7444
 30
0.0
  0
SPLINE
  5
E3
330
1F
100
AcDbEntity
  8
Standard layer
 62
   250
370
     9
100
AcDbSpline
210
0.0
220
0.0
230
1.0
 70
    11
 71
     3
 72
    32
 73
    28
 74
     0
 42
0.0000000001
 43
0.0000000001
 40
0.0
 40
0.0
 40
0.0
 40
0.0
 40
0.125
 40
0.125
 40
0.125
 40
0.125
 40
0.25
 40
0.25
 40
0.25
 40
0.25
 40
0.375
 40
0.375
 40
0.375
 40
0.375
 40
0.5
 40
0.5
 40
0.5
 40
0.5
 40
0.625
 40
0.625
 40
0.625
 40
0.625
 40
0.75
 40
0.75
 40
0.75
 40
0.75
 40
1.0
 40
1.0
 40
1.0
 40
1.0
 10
12.2978
 20
8.0807
 30
0.0
 10
12.2978
 20
8.0807
 30
0.0
 10
12.2978
 20
8.0807
 30
0.0
 10
12.2978
 20
8.0807
 30
0.0
 10
12.2978
 20
8.0807
 30
0.0
 10
12.2978
 20
8.0807
 30
0.0
 10
12.2978
 20
8.0807
 30
0.0
 10
12.2978
 20
8.0807
 30
0.0
 10
12.2978
 20
8.0807
 30
0.0
 10
12.2978
 20
8.0807
 30
0.0
 10
11.8544
 20
9.3535
 30
0.0
 10
11.8544
 20
9.3535
 30
0.0
 10
11.8544
 20
9.3535
 30
0.0
 10
11.8544
 20
9.3535
 30
0.0
 10
11.411
 20
8.0807
 30
0.0
 10
11.411
 20
8.0807
 30
0.0
 10
11.411
 20
8.0807
 30
0.0
 10
11.411
 20
8.0807
 30
0.0
 10
11.411
 20
8.0807
 30
0.0
 10
11.411
 20
8.0807
 30
0.0
 10
11.411
 20
8.0807
 30
0.0
 10
11.411
 20
8.0807
 30
0.0
 10
11.411
 20
8.0807
 30
0.0
 10
11.411
 20
8.0807
 30
0.0
 10
11.411
 20
8.0807
 30
0.0
 10
11.411
 20
8.0807
 30
0.0
 10
12.2978
 20
8.0807
 30
0.0
 10
12.2978
 20
8.0807
 30
0.0
  0
SPLINE
  5
E4
330
1F
100
AcDbEntity
  8
Standard layer
 62
   250
370
     9
100
AcDbSpline
210
0.0
220
0.0
230
1.0
 70
    11
 71
     3
 72
    32
 73
    28
 74
     0
 42
0.0000000001
 43
0.0000000001
 40
0.0
 40
0.0
 40
0.0
 40
0.0
 40
0.125
 40
0.125
 40
0.125
 40
0.125
 40
0.25
 40
0.25
 40
0.25
 40
0.25
 40
0.375
 40
0.375
 40
0.375
 40
0.375
 40
0.5
 40
0.5
 40
0.5
 40
0.5
 40
0.625
 40
0.625
 40
0.625
 40
0.625
 40
0.75
 40
0.75
 40
0.75
 40
0.75
 40
1.0
 40
1.0
 40
1.0
 40
1.0
 10
13.6648
 20
-0.1058
 30
0.0
 10
13.6648
 20
-0.1058
 30
0.0
 10
13.6648
 20
-0.1058
 30
0.0
 10
13.6648
 20
-0.1058
 30
0.0
 10
13.6648
 20
-0.1058
 30
0.0
 10
13.6648
 20
-0.1058
 30
0.0
 10
13.6648
 20
-0.1058
 30
0.0
 10
13.6648
 20
-0.1058
 30
0.0
 10
13.6648
 20
-0.1058
 30
0.0
 10
13.6648
 20
-0.1058
 30
0.0
 10
14.9376
 20
0.3376
 30
0.0
 10
14.9376
 20
0.3376
 30
0.0
 10
14.9376
 20
0.3376
 30
0.0
 10
14.9376
 20
0.3376
 30
0.0
 10
13.6648
 20
0.781
 30
0.0
 10
13.6648
 20
0.781
 30
0.0
 10
13.6648
 20
0.781
 30
0.0
 10
13.6648
 20
0.781
 30
0.0
 10
13.6648
 20
0.781
 30
0.0
 10
13.6648
 20
0.781
 30
0.0
 10
13.6648
 20
0.781
 30
0.0
 10
13.6648
 20
0.781
 30
0.0
 10
13.6648
 20
0.781
 30
0.0
 10
13.6648
 20
0.781
 30
0.0
 10
13.6648
 20
0.781
 30
0.0
 10
13.6648
 20
0.781
 30
0.0
 10
13.6648
 20
-0.1058
 30
0.0
 10
13.6648
 20
-0.1058
 30
0.0
  0
SPLINE
  5
E5
330
1F
100
AcDbEntity
  8
Standard layer
 62
   250
370
     9
100
AcDbSpline
210
0.0
220
0.0
230
1.0
 70
    11
 71
     3
 72
    32
 73
    28
 74
     0
 42
0.0000000001
 43
0.0000000001
 40
0.0
 40
0.0
 40
0.0
 40
0.0
 40
0.125
 40
0.125
 40
0.125
 40
0.125
 40
0.25
 40
0.25
 40
0.25
 40
0.25
 40
0.375
 40
0.375
 40
0.375
 40
0.375
 40
0.5
 40
0.5
 40
0.5
 40
0.5
 40
0.625
 40
0.625
 40
0.625
 40
0.625
 40
0.75
 40
0.75
 40
0.75
 40
0.75
 40
1.0
 40
1.0
 40
1.0
 40
1.0
 10
-7.8722
 20
-0.1586
 30
0.0
 10
-7.8722
 20
-0.1586
 30
0.0
 10
-7.8722
 20
-0.1586
 30
0.0
 10
-7.8722
 20
-0.1586
 30
0.0
 10
-7.8722
 20
-0.1586
 30
0.0
 10
-7.8722
 20
-0.1586
 30
0.0
 10
-7.8722
 20
-0.1586
 30
0.0
 10
-7.8722
 20
-0.1586
 30
0.0
 10
-7.8722
 20
-0.1586
 30
0.0
 10
-7.8722
 20
-0.1586
 30
0.0
 10
-8.4248
 20
1.0707
 30
0.0
 10
-8.4248
 20
1.0707
 30
0.0
 10
-8.4248
 20
1.0707
 30
0.0
 10
-8.4248
 20
1.0707
 30
0.0
 10
-8.7556
 20
-0.2359
 30
0.0
 10
-8.7556
 20
-0.2359
 30
0.0
 10
-8.7556
 20
-0.2359
 30
0.0
 10
-8.7556
 20
-0.2359
 30
0.0
 10
-8.7556
 20
-0.2359
 30
0.0
 10
-8.7556
 20
-0.2359
 30
0.0
 10
-8.7556
 20
-0.2359
 30
0.0
 10
-8.7556
 20
-0.2359
 30
0.0
 10
-8.7556
 20
-0.2359
 30
0.0
 10
-8.7556
 20
-0.2359
 30
0.0
 10
-8.7556
 20
-0.2359
 30
0.0
 10
-8.7556
 20
-0.2359
 30
0.0
 10
-7.8722
 20
-0.1586
 30
0.0
 10
-7.8722
 20
-0.1586
 30
0.0
  0
SPLINE
  5
E6
330
1F
100
AcDbEntity
  8
Standard layer
 62
   250
370
     9
100
AcDbSpline
210
0.0
220
0.0
230
1.0
 70
    11
 71
     3
 72
    32
 73
    28
 74
     0
 42
0.0000000001
 43
0.0000000001
 40
0.0
 40
0.0
 40
0.0
 40
0.0
 40
0.125
 40
0.125
 40
0.125
 40
0.125
 40
0.25
 40
0.25
 40
0.25
 40
0.25
 40
0.375
 40
0.375
 40
0.375
 40
0.375
 40
0.5
 40
0.5
 40
0.5
 40
0.5
 40
0.625
 40
0.625
 40
0.625
 40
0.625
 40
0.75
 40
0.75
 40
0.75
 40
0.75
 40
1.0
 40
1.0
 40
1.0
 40
1.0
 10
-28.2232
 20
-3.1351
 30
0.0
 10
-28.2232
 20
-3.1351
 30
0.0
 10
-28.2232
 20
-3.1351
 30
0.0
 10
-28.2232
 20
-3.1351
 30
0.0
 10
-28.2232
 20
-3.1351
 30
0.0
 10
-28.2232
 20
-3.1351
 30
0.0
 10
-28.2232
 20
-3.1351
 30
0.0
 10
-28.2232
 20
-3.1351
 30
0.0
 10
-28.2232
 20
-3.1351
 30
0.0
 10
-28.2232
 20
-3.1351
 30
0.0
 10
-28.7758
 20
-1.9058
 30
0.0
 10
-28.7758
 20
-1.9058
 30
0.0
 10
-28.7758
 20
-1.9058
 30
0.0
 10
-28.7758
 20
-1.9058
 30
0.0
 10
-29.1066
 20
-3.2124
 30
0.0
 10
-29.1066
 20
-3.2124
 30
0.0
 10
-29.1066
 20
-3.2124
 30
0.0
 10
-29.1066
 20
-3.2124
 30
0.0
 10
-29.1066
 20
-3.2124
 30
0.0
 10
-29.1066
 20
-3.2124
 30
0.0
 10
-29.1066
 20
-3.2124
 30
0.0
 10
-29.1066
 20
-3.2124
 30
0.0
 10
-29.1066
 20
-3.2124
 30
0.0
 10
-29.1066
 20
-3.2124
 30
0.0
 10
-29.1066
 20
-3.2124
 30
0.0
 10
-29.1066
 20
-3.2124
 30
0.0
 10
-28.2232
 20
-3.1351
 30
0.0
 10
-28.2232
 20
-3.1351
 30
0.0
  0
SPLINE
  5
E7
330
1F
100
AcDbEntity
  8
Standard layer
 62
   250
370
     9
100
AcDbSpline
210
0.0
220
0.0
230
1.0
 70
    11
 71
     3
 72
    32
 73
    28
 74
     0
 42
0.0000000001
 43
0.0000000001
 40
0.0
 40
0.0
 40
0.0
 40
0.0
 40
0.125
 40
0.125
 40
0.125
 40
0.125
 40
0.25
 40
0.25
 40
0.25
 40
0.25
 40
0.375
 40
0.375
 40
0.375
 40
0.375
 40
0.5
 40
0.5
 40
0.5
 40
0.5
 40
0.625
 40
0.625
 40
0.625
 40
0.625
 40
0.75
 40
0.75
 40
0.75
 40
0.75
 40
1.0
 40
1.0
 40
1.0
 40
1.0
 10
12.3506
 20
-5.4676
 30
0.0
 10
12.3506
 20
-5.4676
 30
0.0
 10
12.3506
 20
-5.4676
 30
0.0
 10
12.3506
 20
-5.4676
 30
0.0
 10
12.3506
 20
-5.4676
 30
0.0
 10
12.3506
 20
-5.4676
 30
0.0
 10
12.3506
 20
-5.4676
 30
0.0
 10
12.3506
 20
-5.4676
 30
0.0
 10
12.3506
 20
-5.4676
 30
0.0
 10
12.3506
 20
-5.4676
 30
0.0
 10
11.9072
 20
-6.7404
 30
0.0
 10
11.9072
 20
-6.7404
 30
0.0
 10
11.9072
 20
-6.7404
 30
0.0
 10
11.9072
 20
-6.7404
 30
0.0
 10
11.4638
 20
-5.4676
 30
0.0
 10
11.4638
 20
-5.4676
 30
0.0
 10
11.4638
 20
-5.4676
 30
0.0
 10
11.4638
 20
-5.4676
 30
0.0
 10
11.4638
 20
-5.4676
 30
0.0
 10
11.4638
 20
-5.4676
 30
0.0
 10
11.4638
 20
-5.4676
 30
0.0
 10
11.4638
 20
-5.4676
 30
0.0
 10
11.4638
 20
-5.4676
 30
0.0
 10
11.4638
 20
-5.4676
 30
0.0
 10
11.4638
 20
-5.4676
 30
0.0
 10
11.4638
 20
-5.4676
 30
0.0
 10
12.3506
 20
-5.4676
 30
0.0
 10
12.3506
 20
-5.4676
 30
0.0
  0
SPLINE
  5
E8
330
1F
100
AcDbEntity
  8
Standard layer
 62
   250
370
     9
100
AcDbSpline
210
0.0
220
0.0
230
1.0
 70
    11
 71
     3
 72
    32
 73
    28
 74
     0
 42
0.0000000001
 43
0.0000000001
 40
0.0
 40
0.0
 40
0.0
 40
0.0
 40
0.125
 40
0.125
 40
0.125
 40
0.125
 40
0.25
 40
0.25
 40
0.25
 40
0.25
 40
0.375
 40
0.375
 40
0.375
 40
0.375
 40
0.5
 40
0.5
 40
0.5
 40
0.5
 40
0.625
 40
0.625
 40
0.625
 40
0.625
 40
0.75
 40
0.75
 40
0.75
 40
0.75
 40
1.0
 40
1.0
 40
1.0
 40
1.0
 10
24.5244
 20
-0.0263
 30
0.0
 10
24.5244
 20
-0.0263
 30
0.0
 10
24.5244
 20
-0.0263
 30
0.0
 10
24.5244
 20
-0.0263
 30
0.0
 10
24.5244
 20
-0.0263
 30
0.0
 10
24.5244
 20
-0.0263
 30
0.0
 10
24.5244
 20
-0.0263
 30
0.0
 10
24.5244
 20
-0.0263
 30
0.0
 10
24.5244
 20
-0.0263
 30
0.0
 10
24.5244
 20
-0.0263
 30
0.0
 10
23.2516
 20
0.4171
 30
0.0
 10
23.2516
 20
0.4171
 30
0.0
 10
23.2516
 20
0.4171
 30
0.0
 10
23.2516
 20
0.4171
 30
0.0
 10
24.5244
 20
0.8605
 30
0.0
 10
24.5244
 20
0.8605
 30
0.0
 10
24.5244
 20
0.8605
 30
0.0
 10
24.5244
 20
0.8605
 30
0.0
 10
24.5244
 20
0.8605
 30
0.0
 10
24.5244
 20
0.8605
 30
0.0
 10
24.5244
 20
0.8605
 30
0.0
 10
24.5244
 20
0.8605
 30
0.0
 10
24.5244
 20
0.8605
 30
0.0
 10
24.5244
 20
0.8605
 30
0.0
 10
24.5244
 20
0.8605
 30
0.0
 10
24.5244
 20
0.8605
 30
0.0
 10
24.5244
 20
-0.0263
 30
0.0
 10
24.5244
 20
-0.0263
 30
0.0
  0
SPLINE
  5
E9
330
1F
100
AcDbEntity
  8
Standard layer
 62
   250
370
     9
100
AcDbSpline
210
0.0
220
0.0
230
1.0
 70
    11
 71
     3
 72
    32
 73
    28
 74
     0
 42
0.0000000001
 43
0.0000000001
 40
0.0
 40
0.0
 40
0.0
 40
0.0
 40
0.125
 40
0.125
 40
0.125
 40
0.125
 40
0.25
 40
0.25
 40
0.25
 40
0.25
 40
0.375
 40
0.375
 40
0.375
 40
0.375
 40
0.5
 40
0.5
 40
0.5
 40
0.5
 40
0.625
 40
0.625
 40
0.625
 40
0.625
 40
0.75
 40
0.75
 40
0.75
 40
0.75
 40
1.0
 40
1.0
 40
1.0
 40
1.0
 10
-8.7609
 20
9.8388
 30
0.0
 10
-8.7609
 20
9.8388
 30
0.0
 10
-8.7609
 20
9.8388
 30
0.0
 10
-8.7609
 20
9.8388
 30
0.0
 10
-8.7609
 20
9.8388
 30
0.0
 10
-8.7609
 20
9.8388
 30
0.0
 10
-8.7609
 20
9.8388
 30
0.0
 10
-8.7609
 20
9.8388
 30
0.0
 10
-8.7609
 20
9.8388
 30
0.0
 10
-8.7609
 20
9.8388
 30
0.0
 10
-9.0917
 20
8.5322
 30
0.0
 10
-9.0917
 20
8.5322
 30
0.0
 10
-9.0917
 20
8.5322
 30
0.0
 10
-9.0917
 20
8.5322
 30
0.0
 10
-9.6443
 20
9.7615
 30
0.0
 10
-9.6443
 20
9.7615
 30
0.0
 10
-9.6443
 20
9.7615
 30
0.0
 10
-9.6443
 20
9.7615
 30
0.0
 10
-9.6443
 20
9.7615
 30
0.0
 10
-9.6443
 20
9.7615
 30
0.0
 10
-9.6443
 20
9.7615
 30
0.0
 10
-9.6443
 20
9.7615
 30
0.0
 10
-9.6443
 20
9.7615
 30
0.0
 10
-9.6443
 20
9.7615
 30
0.0
 10
-9.6443
 20
9.7615
 30
0.0
 10
-9.6443
 20
9.7615
 30
0.0
 10
-8.7609
 20
9.8388
 30
0.0
 10
-8.7609
 20
9.8388
 30
0.0
  0
SPLINE
  5
EA
330
1F
100
AcDbEntity
  8
Standard layer
 62
   250
370
     9
100
AcDbSpline
210
0.0
220
0.0
230
1.0
 70
    11
 71
     3
 72
    32
 73
    28
 74
     0
 42
0.0000000001
 43
0.0000000001
 40
0.0
 40
0.0
 40
0.0
 40
0.0
 40
0.125
 40
0.125
 40
0.125
 40
0.125
 40
0.25
 40
0.25
 40
0.25
 40
0.25
 40
0.375
 40
0.375
 40
0.375
 40
0.375
 40
0.5
 40
0.5
 40
0.5
 40
0.5
 40
0.625
 40
0.625
 40
0.625
 40
0.625
 40
0.75
 40
0.75
 40
0.75
 40
0.75
 40
1.0
 40
1.0
 40
1.0
 40
1.0
 10
-29.2662
 20
8.7364
 30
0.0
 10
-29.2662
 20
8.7364
 30
0.0
 10
-29.2662
 20
8.7364
 30
0.0
 10
-29.2662
 20
8.7364
 30
0.0
 10
-29.2662
 20
8.7364
 30
0.0
 10
-29.2662
 20
8.7364
 30
0.0
 10
-29.2662
 20
8.7364
 30
0.0
 10
-29.2662
 20
8.7364
 30
0.0
 10
-29.2662
 20
8.7364
 30
0.0
 10
-29.2662
 20
8.7364
 30
0.0
 10
-29.597
 20
7.4298
 30
0.0
 10
-29.597
 20
7.4298
 30
0.0
 10
-29.597
 20
7.4298
 30
0.0
 10
-29.597
 20
7.4298
 30
0.0
 10
-30.1496
 20
8.6591
 30
0.0
 10
-30.1496
 20
8.6591
 30
0.0
 10
-30.1496
 20
8.6591
 30
0.0
 10
-30.1496
 20
8.6591
 30
0.0
 10
-30.1496
 20
8.6591
 30
0.0
 10
-30.1496
 20
8.6591
 30
0.0
 10
-30.1496
 20
8.6591
 30
0.0
 10
-30.1496
 20
8.6591
 30
0.0
 10
-30.1496
 20
8.6591
 30
0.0
 10
-30.1496
 20
8.6591
 30
0.0
 10
-30.1496
 20
8.6591
 30
0.0
 10
-30.1496
 20
8.6591
 30
0.0
 10
-29.2662
 20
8.7364
 30
0.0
 10
-29.2662
 20
8.7364
 30
0.0
  0
SPLINE
  5
EB
330
1F
100
AcDbEntity
  8
Standard layer
 62
   250
370
    18
100
AcDbSpline
210
0.0
220
0.0
230
1.0
 70
    24
 71
     3
 72
     8
 73
     4
 74
     0
 42
0.0000000001
 43
0.0000000001
 40
0.0
 40
0.0
 40
0.0
 40
0.0
 40
1.0
 40
1.0
 40
1.0
 40
1.0
 10
2.6737
 20
-10.8344
 30
0.0
 10
2.6737
 20
-10.8344
 30
0.0
 10
2.6737
 20
-4.7054
 30
0.0
 10
2.6737
 20
-4.7054
 30
0.0
  0
SPLINE
  5
EC
330
1F
100
AcDbEntity
  8
Standard layer
 62
   250
370
    18
100
AcDbSpline
210
0.0
220
0.0
230
1.0
 70
    24
 71
     3
 72
     8
 73
     4
 74
     0
 42
0.0000000001
 43
0.0000000001
 40
0.0
 40
0.0
 40
0.0
 40
0.0
 40
1.0
 40
1.0
 40
1.0
 40
1.0
 10
19.1772
 20
-10.8895
 30
0.0
 10
19.1772
 20
-10.8895
 30
0.0
 10
19.1772
 20
-4.5621
 30
0.0
 10
19.1772
 20
-4.5621
 30
0.0
  0
SPLINE
  5
ED
330
1F
100
AcDbEntity
  8
Standard layer
 62
   250
370
    15
100
AcDbSpline
210
0.0
220
0.0
230
1.0
 70
    24
 71
     3
 72
     8
 73
     4
 74
     0
 42
0.0000000001
 43
0.0000000001
 40
0.0
 40
0.0
 40
0.0
 40
0.0
 40
1.0
 40
1.0
 40
1.0
 40
1.0
 10
18.8324
 20
-10.3554
 30
0.0
 10
18.8324
 20
-10.3554
 30
0.0
 10
2.793
 20
-10.3554
 30
0.0
 10
2.793
 20
-10.3554
 30
0.0
  0
SPLINE
  5
EE
330
1F
100
AcDbEntity
  8
Standard layer
 62
   250
100
AcDbSpline
210
0.0
220
0.0
230
1.0
 70
    11
 71
     3
 72
   124
 73
   120
 74
     0
 42
0.0000000001
 43
0.0000000001
 40
0.0
 40
0.0
 40
0.0
 40
0.0
 40
0.032258064516129
 40
0.032258064516129
 40
0.032258064516129
 40
0.032258064516129
 40
0.0645161290322581
 40
0.0645161290322581
 40
0.0645161290322581
 40
0.0645161290322581
 40
0.0967741935483871
 40
0.0967741935483871
 40
0.0967741935483871
 40
0.0967741935483871
 40
0.1290322580645161
 40
0.1290322580645161
 40
0.1290322580645161
 40
0.1290322580645161
 40
0.1612903225806452
 40
0.1612903225806452
 40
0.1612903225806452
 40
0.1612903225806452
 40
0.1935483870967742
 40
0.1935483870967742
 40
0.1935483870967742
 40
0.1935483870967742
 40
0.2258064516129032
 40
0.2258064516129032
 40
0.2258064516129032
 40
0.2258064516129032
 40
0.2580645161290323
 40
0.2580645161290323
 40
0.2580645161290323
 40
0.2580645161290323
 40
0.2903225806451613
 40
0.2903225806451613
 40
0.2903225806451613
 40
0.2903225806451613
 40
0.3225806451612903
 40
0.3225806451612903
 40
0.3225806451612903
 40
0.3225806451612903
 40
0.3548387096774194
 40
0.3548387096774194
 40
0.3548387096774194
 40
0.3548387096774194
 40
0.3870967741935484
 40
0.3870967741935484
 40
0.3870967741935484
 40
0.3870967741935484
 40
0.4193548387096774
 40
0.4193548387096774
 40
0.4193548387096774
 40
0.4193548387096774
 40
0.4516129032258064
 40
0.4516129032258064
 40
0.4516129032258064
 40
0.4516129032258064
 40
0.4838709677419355
 40
0.4838709677419355
 40
0.4838709677419355
 40
0.4838709677419355
 40
0.5161290322580645
 40
0.5161290322580645
 40
0.5161290322580645
 40
0.5161290322580645
 40
0.5483870967741935
 40
0.5483870967741935
 40
0.5483870967741935
 40
0.5483870967741935
 40
0.5806451612903226
 40
0.5806451612903226
 40
0.5806451612903226
 40
0.5806451612903226
 40
0.6129032258064516
 40
0.6129032258064516
 40
0.6129032258064516
 40
0.6129032258064516
 40
0.6451612903225806
 40
0.6451612903225806
 40
0.6451612903225806
 40
0.6451612903225806
 40
0.6774193548387096
 40
0.6774193548387096
 40
0.6774193548387096
 40
0.6774193548387096
 40
0.7096774193548387
 40
0.7096774193548387
 40
0.7096774193548387
 40
0.7096774193548387
 40
0.7419354838709677
 40
0.7419354838709677
 40
0.7419354838709677
 40
0.7419354838709677
 40
0.7741935483870968
 40
0.7741935483870968
 40
0.7741935483870968
 40
0.7741935483870968
 40
0.8064516129032258
 40
0.8064516129032258
 40
0.8064516129032258
 40
0.8064516129032258
 40
0.8387096774193549
 40
0.8387096774193549
 40
0.8387096774193549
 40
0.8387096774193549
 40
0.8709677419354839
 40
0.8709677419354839
 40
0.8709677419354839
 40
0.8709677419354839
 40
0.9032258064516129
 40
0.9032258064516129
 40
0.9032258064516129
 40
0.9032258064516129
 40
0.9354838709677419
 40
0.9354838709677419
 40
0.9354838709677419
 40
0.9354838709677419
 40
1.0
 40
1.0
 40
1.0
 40
1.0
 10
9.7011
 20
-10.01
 30
0.0
 10
9.7419
 20
-10.0119
 30
0.0
 10
9.7891
 20
-10.0119
 30
0.0
 10
9.8421
 20
-10.0087
 30
0.0
 10
9.8421
 20
-10.0087
 30
0.0
 10
9.8952
 20
-10.0061
 30
0.0
 10
9.9534
 20
-10.0002
 30
0.0
 10
10.0154
 20
-9.9906
 30
0.0
 10
10.0154
 20
-9.9906
 30
0.0
 10
10.1066
 20
-9.9802
 30
0.0
 10
10.1959
 20
-9.9602
 30
0.0
 10
10.2832
 20
-9.9317
 30
0.0
 10
10.2832
 20
-9.9317
 30
0.0
 10
10.3705
 20
-9.9026
 30
0.0
 10
10.454
 20
-9.8644
 30
0.0
 10
10.5329
 20
-9.8179
 30
0.0
 10
10.5329
 20
-9.8179
 30
0.0
 10
10.6118
 20
-9.7713
 30
0.0
 10
10.6836
 20
-9.7163
 30
0.0
 10
10.7489
 20
-9.6529
 30
0.0
 10
10.7489
 20
-9.6529
 30
0.0
 10
10.8323
 20
-9.5727
 30
0.0
 10
10.9067
 20
-9.4764
 30
0.0
 10
10.972
 20
-9.3625
 30
0.0
 10
10.972
 20
-9.3625
 30
0.0
 10
11.0373
 20
-9.2494
 30
0.0
 10
11.0884
 20
-9.1187
 30
0.0
 10
11.1259
 20
-8.9706
 30
0.0
 10
11.1259
 20
-8.9706
 30
0.0
 10
11.1635
 20
-8.8225
 30
0.0
 10
11.1829
 20
-8.6569
 30
0.0
 10
11.1835
 20
-8.4732
 30
0.0
 10
11.1835
 20
-8.4732
 30
0.0
 10
11.1835
 20
-8.3096
 30
0.0
 10
11.1641
 20
-8.1628
 30
0.0
 10
11.1259
 20
-8.0315
 30
0.0
 10
11.1259
 20
-8.0315
 30
0.0
 10
11.0878
 20
-7.9002
 30
0.0
 10
11.0322
 20
-7.7883
 30
0.0
 10
10.9597
 20
-7.6952
 30
0.0
 10
10.9597
 20
-7.6952
 30
0.0
 10
10.8873
 20
-7.6021
 30
0.0
 10
10.8
 20
-7.5309
 30
0.0
 10
10.6971
 20
-7.4811
 30
0.0
 10
10.6971
 20
-7.4811
 30
0.0
 10
10.5943
 20
-7.4313
 30
0.0
 10
10.4785
 20
-7.4067
 30
0.0
 10
10.3492
 20
-7.4061
 30
0.0
 10
10.3492
 20
-7.4061
 30
0.0
 10
10.2198
 20
-7.4067
 30
0.0
 10
10.1021
 20
-7.4313
 30
0.0
 10
9.9967
 20
-7.4792
 30
0.0
 10
9.9967
 20
-7.4792
 30
0.0
 10
9.8913
 20
-7.5264
 30
0.0
 10
9.8007
 20
-7.5923
 30
0.0
 10
9.7251
 20
-7.6751
 30
0.0
 10
9.7251
 20
-7.6751
 30
0.0
 10
9.6487
 20
-7.7586
 30
0.0
 10
9.5905
 20
-7.8536
 30
0.0
 10
9.5498
 20
-7.961
 30
0.0
 10
9.5498
 20
-7.961
 30
0.0
 10
9.509
 20
-8.0684
 30
0.0
 10
9.4883
 20
-8.1822
 30
0.0
 10
9.4877
 20
-8.3025
 30
0.0
 10
9.4877
 20
-8.3025
 30
0.0
 10
9.4883
 20
-8.4105
 30
0.0
 10
9.5058
 20
-8.5114
 30
0.0
 10
9.5401
 20
-8.6045
 30
0.0
 10
9.5401
 20
-8.6045
 30
0.0
 10
9.575
 20
-8.6983
 30
0.0
 10
9.6248
 20
-8.7798
 30
0.0
 10
9.6895
 20
-8.8503
 30
0.0
 10
9.6895
 20
-8.8503
 30
0.0
 10
9.7542
 20
-8.9202
 30
0.0
 10
9.8324
 20
-8.9751
 30
0.0
 10
9.923
 20
-9.0146
 30
0.0
 10
9.923
 20
-9.0146
 30
0.0
 10
10.0141
 20
-9.054
 30
0.0
 10
10.1157
 20
-9.0741
 30
0.0
 10
10.2289
 20
-9.0747
 30
0.0
 10
10.2289
 20
-9.0747
 30
0.0
 10
10.3569
 20
-9.0741
 30
0.0
 10
10.4714
 20
-9.0508
 30
0.0
 10
10.5717
 20
-9.0049
 30
0.0
 10
10.5717
 20
-9.0049
 30
0.0
 10
10.6713
 20
-8.959
 30
0.0
 10
10.7566
 20
-8.893
 30
0.0
 10
10.8265
 20
-8.807
 30
0.0
 10
10.8265
 20
-8.807
 30
0.0
 10
10.8265
 20
-8.807
 30
0.0
 10
10.8381
 20
-8.807
 30
0.0
 10
10.8381
 20
-8.807
 30
0.0
 10
10.8381
 20
-8.807
 30
0.0
 10
10.8142
 20
-8.9544
 30
0.0
 10
10.7735
 20
-9.0838
 30
0.0
 10
10.7165
 20
-9.1944
 30
0.0
 10
10.7165
 20
-9.1944
 30
0.0
 10
10.659
 20
-9.3056
 30
0.0
 10
10.5885
 20
-9.3988
 30
0.0
 10
10.5044
 20
-9.4744
 30
0.0
 10
10.5044
 20
-9.4744
 30
0.0
 10
10.432
 20
-9.5443
 30
0.0
 10
10.3511
 20
-9.5986
 30
0.0
 10
10.2612
 20
-9.6387
 30
0.0
 10
10.2612
 20
-9.6387
 30
0.0
 10
10.1713
 20
-9.6788
 30
0.0
 10
10.0762
 20
-9.7053
 30
0.0
 10
9.9766
 20
-9.7189
 30
0.0
 10
9.9766
 20
-9.7189
 30
0.0
 10
9.9191
 20
-9.7247
 30
0.0
 10
9.8673
 20
-9.7293
 30
0.0
 10
9.8227
 20
-9.7318
 30
0.0
 10
9.8227
 20
-9.7318
 30
0.0
 10
9.7781
 20
-9.7344
 30
0.0
 10
9.7373
 20
-9.7344
 30
0.0
 10
9.7011
 20
-9.7305
 30
0.0
 10
9.7011
 20
-9.7305
 30
0.0
 10
9.7011
 20
-9.7305
 30
0.0
 10
9.7011
 20
-10.01
 30
0.0
 10
9.7011
 20
-10.01
 30
0.0
  0
SPLINE
  5
EF
330
1F
100
AcDbEntity
  8
Standard layer
 62
   250
100
AcDbSpline
210
0.0
220
0.0
230
1.0
 70
    11
 71
     3
 72
    64
 73
    60
 74
     0
 42
0.0000000001
 43
0.0000000001
 40
0.0
 40
0.0
 40
0.0
 40
0.0
 40
0.0625
 40
0.0625
 40
0.0625
 40
0.0625
 40
0.125
 40
0.125
 40
0.125
 40
0.125
 40
0.1875
 40
0.1875
 40
0.1875
 40
0.1875
 40
0.25
 40
0.25
 40
0.25
 40
0.25
 40
0.3125
 40
0.3125
 40
0.3125
 40
0.3125
 40
0.375
 40
0.375
 40
0.375
 40
0.375
 40
0.4375
 40
0.4375
 40
0.4375
 40
0.4375
 40
0.5
 40
0.5
 40
0.5
 40
0.5
 40
0.5625
 40
0.5625
 40
0.5625
 40
0.5625
 40
0.625
 40
0.625
 40
0.625
 40
0.625
 40
0.6875
 40
0.6875
 40
0.6875
 40
0.6875
 40
0.75
 40
0.75
 40
0.75
 40
0.75
 40
0.8125
 40
0.8125
 40
0.8125
 40
0.8125
 40
0.875
 40
0.875
 40
0.875
 40
0.875
 40
1.0
 40
1.0
 40
1.0
 40
1.0
 10
10.3181
 20
-7.6661
 30
0.0
 10
10.408
 20
-7.6667
 30
0.0
 10
10.4863
 20
-7.6861
 30
0.0
 10
10.5516
 20
-7.7243
 30
0.0
 10
10.5516
 20
-7.7243
 30
0.0
 10
10.6169
 20
-7.7624
 30
0.0
 10
10.6713
 20
-7.8161
 30
0.0
 10
10.7133
 20
-7.8847
 30
0.0
 10
10.7133
 20
-7.8847
 30
0.0
 10
10.756
 20
-7.9532
 30
0.0
 10
10.787
 20
-8.0341
 30
0.0
 10
10.8077
 20
-8.1259
 30
0.0
 10
10.8077
 20
-8.1259
 30
0.0
 10
10.8284
 20
-8.2184
 30
0.0
 10
10.8381
 20
-8.3187
 30
0.0
 10
10.8381
 20
-8.4267
 30
0.0
 10
10.8381
 20
-8.4267
 30
0.0
 10
10.8381
 20
-8.4551
 30
0.0
 10
10.8356
 20
-8.4797
 30
0.0
 10
10.8297
 20
-8.4991
 30
0.0
 10
10.8297
 20
-8.4991
 30
0.0
 10
10.8246
 20
-8.5192
 30
0.0
 10
10.8168
 20
-8.5379
 30
0.0
 10
10.8071
 20
-8.5547
 30
0.0
 10
10.8071
 20
-8.5547
 30
0.0
 10
10.7773
 20
-8.6058
 30
0.0
 10
10.7379
 20
-8.6511
 30
0.0
 10
10.6894
 20
-8.6905
 30
0.0
 10
10.6894
 20
-8.6905
 30
0.0
 10
10.6415
 20
-8.73
 30
0.0
 10
10.5852
 20
-8.761
 30
0.0
 10
10.5212
 20
-8.7837
 30
0.0
 10
10.5212
 20
-8.7837
 30
0.0
 10
10.4572
 20
-8.8063
 30
0.0
 10
10.3867
 20
-8.818
 30
0.0
 10
10.3104
 20
-8.8186
 30
0.0
 10
10.3104
 20
-8.8186
 30
0.0
 10
10.2114
 20
-8.818
 30
0.0
 10
10.1261
 20
-8.7947
 30
0.0
 10
10.0536
 20
-8.7494
 30
0.0
 10
10.0536
 20
-8.7494
 30
0.0
 10
9.9812
 20
-8.7041
 30
0.0
 10
9.9249
 20
-8.6421
 30
0.0
 10
9.8854
 20
-8.5618
 30
0.0
 10
9.8854
 20
-8.5618
 30
0.0
 10
9.846
 20
-8.4816
 30
0.0
 10
9.826
 20
-8.3885
 30
0.0
 10
9.8253
 20
-8.2831
 30
0.0
 10
9.8253
 20
-8.2831
 30
0.0
 10
9.826
 20
-8.1615
 30
0.0
 10
9.8473
 20
-8.0548
 30
0.0
 10
9.8893
 20
-7.9629
 30
0.0
 10
9.8893
 20
-7.9629
 30
0.0
 10
9.9314
 20
-7.8705
 30
0.0
 10
9.9889
 20
-7.798
 30
0.0
 10
10.0627
 20
-7.7456
 30
0.0
 10
10.0627
 20
-7.7456
 30
0.0
 10
10.1364
 20
-7.6932
 30
0.0
 10
10.2218
 20
-7.6667
 30
0.0
 10
10.3181
 20
-7.6661
 30
0.0
  0
SPLINE
  5
F0
330
1F
100
AcDbEntity
  8
Standard layer
 62
   250
100
AcDbSpline
210
0.0
220
0.0
230
1.0
 70
    11
 71
     3
 72
    56
 73
    52
 74
     0
 42
0.0000000001
 43
0.0000000001
 40
0.0
 40
0.0
 40
0.0
 40
0.0
 40
0.0714285714285714
 40
0.0714285714285714
 40
0.0714285714285714
 40
0.0714285714285714
 40
0.1428571428571428
 40
0.1428571428571428
 40
0.1428571428571428
 40
0.1428571428571428
 40
0.2142857142857143
 40
0.2142857142857143
 40
0.2142857142857143
 40
0.2142857142857143
 40
0.2857142857142857
 40
0.2857142857142857
 40
0.2857142857142857
 40
0.2857142857142857
 40
0.3571428571428572
 40
0.3571428571428572
 40
0.3571428571428572
 40
0.3571428571428572
 40
0.4285714285714285
 40
0.4285714285714285
 40
0.4285714285714285
 40
0.4285714285714285
 40
0.5
 40
0.5
 40
0.5
 40
0.5
 40
0.5714285714285714
 40
0.5714285714285714
 40
0.5714285714285714
 40
0.5714285714285714
 40
0.6428571428571429
 40
0.6428571428571429
 40
0.6428571428571429
 40
0.6428571428571429
 40
0.7142857142857143
 40
0.7142857142857143
 40
0.7142857142857143
 40
0.7142857142857143
 40
0.7857142857142857
 40
0.7857142857142857
 40
0.7857142857142857
 40
0.7857142857142857
 40
0.8571428571428571
 40
0.8571428571428571
 40
0.8571428571428571
 40
0.8571428571428571
 40
1.0
 40
1.0
 40
1.0
 40
1.0
 10
12.3399
 20
-7.4061
 30
0.0
 10
12.2112
 20
-7.4061
 30
0.0
 10
12.0935
 20
-7.4345
 30
0.0
 10
11.9861
 20
-7.4914
 30
0.0
 10
11.9861
 20
-7.4914
 30
0.0
 10
11.8788
 20
-7.5484
 30
0.0
 10
11.7863
 20
-7.6318
 30
0.0
 10
11.7074
 20
-7.743
 30
0.0
 10
11.7074
 20
-7.743
 30
0.0
 10
11.6285
 20
-7.8543
 30
0.0
 10
11.5677
 20
-7.9914
 30
0.0
 10
11.5243
 20
-8.1544
 30
0.0
 10
11.5243
 20
-8.1544
 30
0.0
 10
11.4817
 20
-8.3174
 30
0.0
 10
11.4597
 20
-8.5049
 30
0.0
 10
11.459
 20
-8.7177
 30
0.0
 10
11.459
 20
-8.7177
 30
0.0
 10
11.4629
 20
-8.9965
 30
0.0
 10
11.4998
 20
-9.2319
 30
0.0
 10
11.5703
 20
-9.4246
 30
0.0
 10
11.5703
 20
-9.4246
 30
0.0
 10
11.6408
 20
-9.6174
 30
0.0
 10
11.7384
 20
-9.7635
 30
0.0
 10
11.8626
 20
-9.8631
 30
0.0
 10
11.8626
 20
-9.8631
 30
0.0
 10
11.9868
 20
-9.9627
 30
0.0
 10
12.1317
 20
-10.0132
 30
0.0
 10
12.2972
 20
-10.0138
 30
0.0
 10
12.2972
 20
-10.0138
 30
0.0
 10
12.4829
 20
-10.0132
 30
0.0
 10
12.6407
 20
-9.9614
 30
0.0
 10
12.7713
 20
-9.8593
 30
0.0
 10
12.7713
 20
-9.8593
 30
0.0
 10
12.902
 20
-9.7571
 30
0.0
 10
13.0016
 20
-9.607
 30
0.0
 10
13.0701
 20
-9.4091
 30
0.0
 10
13.0701
 20
-9.4091
 30
0.0
 10
13.1393
 20
-9.2112
 30
0.0
 10
13.1736
 20
-8.9693
 30
0.0
 10
13.1743
 20
-8.6828
 30
0.0
 10
13.1743
 20
-8.6828
 30
0.0
 10
13.1736
 20
-8.4144
 30
0.0
 10
13.1406
 20
-8.1848
 30
0.0
 10
13.0753
 20
-7.9946
 30
0.0
 10
13.0753
 20
-7.9946
 30
0.0
 10
13.01
 20
-7.8045
 30
0.0
 10
12.9149
 20
-7.6589
 30
0.0
 10
12.7907
 20
-7.5587
 30
0.0
 10
12.7907
 20
-7.5587
 30
0.0
 10
12.6665
 20
-7.4578
 30
0.0
 10
12.5165
 20
-7.4067
 30
0.0
 10
12.3399
 20
-7.4061
 30
0.0
  0
SPLINE
  5
F1
330
1F
100
AcDbEntity
  8
Standard layer
 62
   250
100
AcDbSpline
210
0.0
220
0.0
230
1.0
 70
    11
 71
     3
 72
    56
 73
    52
 74
     0
 42
0.0000000001
 43
0.0000000001
 40
0.0
 40
0.0
 40
0.0
 40
0.0
 40
0.0714285714285714
 40
0.0714285714285714
 40
0.0714285714285714
 40
0.0714285714285714
 40
0.1428571428571428
 40
0.1428571428571428
 40
0.1428571428571428
 40
0.1428571428571428
 40
0.2142857142857143
 40
0.2142857142857143
 40
0.2142857142857143
 40
0.2142857142857143
 40
0.2857142857142857
 40
0.2857142857142857
 40
0.2857142857142857
 40
0.2857142857142857
 40
0.3571428571428572
 40
0.3571428571428572
 40
0.3571428571428572
 40
0.3571428571428572
 40
0.4285714285714285
 40
0.4285714285714285
 40
0.4285714285714285
 40
0.4285714285714285
 40
0.5
 40
0.5
 40
0.5
 40
0.5
 40
0.5714285714285714
 40
0.5714285714285714
 40
0.5714285714285714
 40
0.5714285714285714
 40
0.6428571428571429
 40
0.6428571428571429
 40
0.6428571428571429
 40
0.6428571428571429
 40
0.7142857142857143
 40
0.7142857142857143
 40
0.7142857142857143
 40
0.7142857142857143
 40
0.7857142857142857
 40
0.7857142857142857
 40
0.7857142857142857
 40
0.7857142857142857
 40
0.8571428571428571
 40
0.8571428571428571
 40
0.8571428571428571
 40
0.8571428571428571
 40
1.0
 40
1.0
 40
1.0
 40
1.0
 10
12.3166
 20
-7.67
 30
0.0
 10
12.4059
 20
-7.6706
 30
0.0
 10
12.4829
 20
-7.6945
 30
0.0
 10
12.5475
 20
-7.743
 30
0.0
 10
12.5475
 20
-7.743
 30
0.0
 10
12.6122
 20
-7.7915
 30
0.0
 10
12.6653
 20
-7.8607
 30
0.0
 10
12.7066
 20
-7.9513
 30
0.0
 10
12.7066
 20
-7.9513
 30
0.0
 10
12.748
 20
-8.0412
 30
0.0
 10
12.7791
 20
-8.1499
 30
0.0
 10
12.7991
 20
-8.2753
 30
0.0
 10
12.7991
 20
-8.2753
 30
0.0
 10
12.8192
 20
-8.4014
 30
0.0
 10
12.8289
 20
-8.5424
 30
0.0
 10
12.8289
 20
-8.6983
 30
0.0
 10
12.8289
 20
-8.6983
 30
0.0
 10
12.8289
 20
-8.9143
 30
0.0
 10
12.8101
 20
-9.1006
 30
0.0
 10
12.7726
 20
-9.2571
 30
0.0
 10
12.7726
 20
-9.2571
 30
0.0
 10
12.7357
 20
-9.4143
 30
0.0
 10
12.6788
 20
-9.5352
 30
0.0
 10
12.6032
 20
-9.6206
 30
0.0
 10
12.6032
 20
-9.6206
 30
0.0
 10
12.5275
 20
-9.706
 30
0.0
 10
12.4318
 20
-9.7487
 30
0.0
 10
12.3166
 20
-9.75
 30
0.0
 10
12.3166
 20
-9.75
 30
0.0
 10
12.2125
 20
-9.7493
 30
0.0
 10
12.1226
 20
-9.7092
 30
0.0
 10
12.0456
 20
-9.629
 30
0.0
 10
12.0456
 20
-9.629
 30
0.0
 10
11.9693
 20
-9.5488
 30
0.0
 10
11.9105
 20
-9.4324
 30
0.0
 10
11.8684
 20
-9.2798
 30
0.0
 10
11.8684
 20
-9.2798
 30
0.0
 10
11.8264
 20
-9.1265
 30
0.0
 10
11.805
 20
-8.9409
 30
0.0
 10
11.8044
 20
-8.7216
 30
0.0
 10
11.8044
 20
-8.7216
 30
0.0
 10
11.805
 20
-8.492
 30
0.0
 10
11.8277
 20
-8.2999
 30
0.0
 10
11.8717
 20
-8.1434
 30
0.0
 10
11.8717
 20
-8.1434
 30
0.0
 10
11.9156
 20
-7.9875
 30
0.0
 10
11.9758
 20
-7.8698
 30
0.0
 10
12.0527
 20
-7.7896
 30
0.0
 10
12.0527
 20
-7.7896
 30
0.0
 10
12.1297
 20
-7.7101
 30
0.0
 10
12.2177
 20
-7.67
 30
0.0
 10
12.3166
 20
-7.67
 30
0.0
  0
SPLINE
  5
F2
330
1F
100
AcDbEntity
  8
Standard layer
 62
   250
370
     9
100
AcDbSpline
210
0.0
220
0.0
230
1.0
 70
    11
 71
     3
 72
    32
 73
    28
 74
     0
 42
0.0000000001
 43
0.0000000001
 40
0.0
 40
0.0
 40
0.0
 40
0.0
 40
0.125
 40
0.125
 40
0.125
 40
0.125
 40
0.25
 40
0.25
 40
0.25
 40
0.25
 40
0.375
 40
0.375
 40
0.375
 40
0.375
 40
0.5
 40
0.5
 40
0.5
 40
0.5
 40
0.625
 40
0.625
 40
0.625
 40
0.625
 40
0.75
 40
0.75
 40
0.75
 40
0.75
 40
1.0
 40
1.0
 40
1.0
 40
1.0
 10
17.8274
 20
-10.7822
 30
0.0
 10
17.8274
 20
-10.7822
 30
0.0
 10
17.8274
 20
-10.7822
 30
0.0
 10
17.8274
 20
-10.7822
 30
0.0
 10
17.8274
 20
-10.7822
 30
0.0
 10
17.8274
 20
-10.7822
 30
0.0
 10
17.8274
 20
-10.7822
 30
0.0
 10
17.8274
 20
-10.7822
 30
0.0
 10
17.8274
 20
-10.7822
 30
0.0
 10
17.8274
 20
-10.7822
 30
0.0
 10
19.1002
 20
-10.3388
 30
0.0
 10
19.1002
 20
-10.3388
 30
0.0
 10
19.1002
 20
-10.3388
 30
0.0
 10
19.1002
 20
-10.3388
 30
0.0
 10
17.8274
 20
-9.8954
 30
0.0
 10
17.8274
 20
-9.8954
 30
0.0
 10
17.8274
 20
-9.8954
 30
0.0
 10
17.8274
 20
-9.8954
 30
0.0
 10
17.8274
 20
-9.8954
 30
0.0
 10
17.8274
 20
-9.8954
 30
0.0
 10
17.8274
 20
-9.8954
 30
0.0
 10
17.8274
 20
-9.8954
 30
0.0
 10
17.8274
 20
-9.8954
 30
0.0
 10
17.8274
 20
-9.8954
 30
0.0
 10
17.8274
 20
-9.8954
 30
0.0
 10
17.8274
 20
-9.8954
 30
0.0
 10
17.8274
 20
-10.7822
 30
0.0
 10
17.8274
 20
-10.7822
 30
0.0
  0
SPLINE
  5
F3
330
1F
100
AcDbEntity
  8
Standard layer
 62
   250
370
     9
100
AcDbSpline
210
0.0
220
0.0
230
1.0
 70
    11
 71
     3
 72
    32
 73
    28
 74
     0
 42
0.0000000001
 43
0.0000000001
 40
0.0
 40
0.0
 40
0.0
 40
0.0
 40
0.125
 40
0.125
 40
0.125
 40
0.125
 40
0.25
 40
0.25
 40
0.25
 40
0.25
 40
0.375
 40
0.375
 40
0.375
 40
0.375
 40
0.5
 40
0.5
 40
0.5
 40
0.5
 40
0.625
 40
0.625
 40
0.625
 40
0.625
 40
0.75
 40
0.75
 40
0.75
 40
0.75
 40
1.0
 40
1.0
 40
1.0
 40
1.0
 10
4.0685
 20
-10.7707
 30
0.0
 10
4.0685
 20
-10.7707
 30
0.0
 10
4.0685
 20
-10.7707
 30
0.0
 10
4.0685
 20
-10.7707
 30
0.0
 10
4.0685
 20
-10.7707
 30
0.0
 10
4.0685
 20
-10.7707
 30
0.0
 10
4.0685
 20
-10.7707
 30
0.0
 10
4.0685
 20
-10.7707
 30
0.0
 10
4.0685
 20
-10.7707
 30
0.0
 10
4.0685
 20
-10.7707
 30
0.0
 10
2.7957
 20
-10.3273
 30
0.0
 10
2.7957
 20
-10.3273
 30
0.0
 10
2.7957
 20
-10.3273
 30
0.0
 10
2.7957
 20
-10.3273
 30
0.0
 10
4.0685
 20
-9.8839
 30
0.0
 10
4.0685
 20
-9.8839
 30
0.0
 10
4.0685
 20
-9.8839
 30
0.0
 10
4.0685
 20
-9.8839
 30
0.0
 10
4.0685
 20
-9.8839
 30
0.0
 10
4.0685
 20
-9.8839
 30
0.0
 10
4.0685
 20
-9.8839
 30
0.0
 10
4.0685
 20
-9.8839
 30
0.0
 10
4.0685
 20
-9.8839
 30
0.0
 10
4.0685
 20
-9.8839
 30
0.0
 10
4.0685
 20
-9.8839
 30
0.0
 10
4.0685
 20
-9.8839
 30
0.0
 10
4.0685
 20
-10.7707
 30
0.0
 10
4.0685
 20
-10.7707
 30
0.0
  0
ENDSEC
  0
SECTION
  2
OBJECTS
  0
DICTIONARY
  5
C
330
0
100
AcDbDictionary
281
     1
  3
ACAD_GROUP
350
D
  3
ACAD_LAYOUT
350
1A
  3
ACAD_MATERIAL
350
3B
  3
ACAD_MLEADERSTYLE
350
F6
  3
ACAD_MLINESTYLE
350
17
  3
ACAD_PLOTSETTINGS
350
19
  3
ACAD_PLOTSTYLENAME
350
E
  3
ACAD_VISUALSTYLE
350
2A
  3
AcDbVariableDictionary
350
F4
  0
DICTIONARY
  5
D
102
{ACAD_REACTORS
330
C
102
}
330
C
100
AcDbDictionary
281
     1
  0
DICTIONARY
  5
1A
102
{ACAD_REACTORS
330
C
102
}
330
C
100
AcDbDictionary
281
     1
  3
Layout1
350
1E
  3
Layout2
350
26
  3
Model
350
22
  0
DICTIONARY
  5
3B
102
{ACAD_REACTORS
330
C
102
}
330
C
100
AcDbDictionary
281
     1
  3
ByBlock
350
3D
  3
ByLayer
350
3C
  3
Global
350
3E
  0
DICTIONARY
  5
F6
102
{ACAD_REACTORS
330
C
102
}
330
C
100
AcDbDictionary
281
     1
  0
DICTIONARY
  5
17
102
{ACAD_REACTORS
330
C
102
}
330
C
100
AcDbDictionary
281
     1
  3
Standard
350
18
  0
DICTIONARY
  5
19
102
{ACAD_REACTORS
330
C
102
}
330
C
100
AcDbDictionary
281
     1
  0
ACDBDICTIONARYWDFLT
  5
E
102
{ACAD_REACTORS
330
C
102
}
330
C
100
AcDbDictionary
281
     1
  3
Normal
350
F
100
AcDbDictionaryWithDefault
340
F
  0
DICTIONARY
  5
2A
102
{ACAD_REACTORS
330
C
102
}
330
C
100
AcDbDictionary
281
     1
  3
2dWireframe
350
2F
  3
3D Hidden
350
31
  3
3dWireframe
350
30
  3
Basic
350
32
  3
Brighten
350
36
  3
ColorChange
350
3A
  3
Conceptual
350
34
  3
Dim
350
35
  3
Facepattern
350
39
  3
Flat
350
2B
  3
FlatWithEdges
350
2C
  3
Gouraud
350
2D
  3
GouraudWithEdges
350
2E
  3
Linepattern
350
38
  3
Realistic
350
33
  3
Thicken
350
37
  0
DICTIONARY
  5
F4
102
{ACAD_REACTORS
330
C
102
}
330
C
100
AcDbDictionary
281
     1
  3
DIMASSOC
350
F7
  3
HIDETEXT
350
F8
  0
LAYOUT
  5
1E
102
{ACAD_REACTORS
330
1A
102
}
330
1A
100
AcDbPlotSettings
  1

  2
none_device
  4

  6

 40
0.0
 41
0.0
 42
0.0
 43
0.0
 44
0.0
 45
0.0
 46
0.0
 47
0.0
 48
0.0
 49
0.0
140
0.0
141
0.0
142
1.0
143
1.0
 70
   688
 72
     0
 73
     0
 74
     5
  7

 75
    16
147
1.0
148
0.0
149
0.0
100
AcDbLayout
  1
Layout1
 70
     1
 71
     1
 10
0.0
 20
0.0
 11
12.0
 21
9.0
 12
0.0
 22
0.0
 32
0.0
 14
1.000000000000000E+20
 24
1.000000000000000E+20
 34
1.000000000000000E+20
 15
-1.000000000000000E+20
 25
-1.000000000000000E+20
 35
-1.000000000000000E+20
146
0.0
 13
0.0
 23
0.0
 33
0.0
 16
1.0
 26
0.0
 36
0.0
 17
0.0
 27
1.0
 37
0.0
 76
     0
330
1B
  0
LAYOUT
  5
26
102
{ACAD_REACTORS
330
1A
102
}
330
1A
100
AcDbPlotSettings
  1

  2
none_device
  4

  6

 40
0.0
 41
0.0
 42
0.0
 43
0.0
 44
0.0
 45
0.0
 46
0.0
 47
0.0
 48
0.0
 49
0.0
140
0.0
141
0.0
142
1.0
143
1.0
 70
   688
 72
     0
 73
     0
 74
     5
  7

 75
    16
147
1.0
148
0.0
149
0.0
100
AcDbLayout
  1
Layout2
 70
     1
 71
     2
 10
0.0
 20
0.0
 11
0.0
 21
0.0
 12
0.0
 22
0.0
 32
0.0
 14
0.0
 24
0.0
 34
0.0
 15
0.0
 25
0.0
 35
0.0
146
0.0
 13
0.0
 23
0.0
 33
0.0
 16
1.0
 26
0.0
 36
0.0
 17
0.0
 27
1.0
 37
0.0
 76
     0
330
23
  0
LAYOUT
  5
22
102
{ACAD_REACTORS
330
1A
102
}
330
1A
100
AcDbPlotSettings
  1

  2
none_device
  4

  6

 40
0.0
 41
0.0
 42
0.0
 43
0.0
 44
0.0
 45
0.0
 46
0.0
 47
0.0
 48
0.0
 49
0.0
140
0.0
141
0.0
142
1.0
143
1.0
 70
  1712
 72
     0
 73
     0
 74
     0
  7

 75
     0
147
1.0
148
0.0
149
0.0
100
AcDbLayout
  1
Model
 70
     1
 71
     0
 10
0.0
 20
0.0
 11
12.0
 21
9.0
 12
0.0
 22
0.0
 32
0.0
 14
-32.3928
 24
-10.8895
 34
0.0
 15
32.4044
 25
10.8956
 35
0.0
146
0.0
 13
0.0
 23
0.0
 33
0.0
 16
1.0
 26
0.0
 36
0.0
 17
0.0
 27
1.0
 37
0.0
 76
     0
330
1F
331
29
  0
MATERIAL
  5
3D
102
{ACAD_REACTORS
330
3B
102
}
102
{ACAD_XDICTIONARY
360
11B
102
}
330
3B
100
AcDbMaterial
  1
ByBlock
  0
MATERIAL
  5
3C
102
{ACAD_REACTORS
330
3B
102
}
102
{ACAD_XDICTIONARY
360
119
102
}
330
3B
100
AcDbMaterial
  1
ByLayer
  0
MATERIAL
  5
3E
102
{ACAD_REACTORS
330
3B
102
}
102
{ACAD_XDICTIONARY
360
11D
102
}
330
3B
100
AcDbMaterial
  1
Global
  0
MLINESTYLE
  5
18
102
{ACAD_REACTORS
330
17
102
}
330
17
100
AcDbMlineStyle
  2
Standard
 70
     0
  3

 62
   256
 51
90.0
 52
90.0
 71
     2
 49
0.5
 62
   256
  6
BYLAYER
 49
-0.5
 62
   256
  6
BYLAYER
  0
ACDBPLACEHOLDER
  5
F
102
{ACAD_REACTORS
330
E
102
}
330
E
  0
VISUALSTYLE
  5
2F
102
{ACAD_REACTORS
330
2A
102
}
102
{ACAD_XDICTIONARY
360
101
102
}
330
2A
100
AcDbVisualStyle
  2
2dWireframe
 70
     4
 71
     0
 72
     2
 73
     0
 90
        0
 40
-0.6
 41
-30.0
 62
     5
 63
     7
 74
     1
 91
        4
 64
     7
 65
   257
 75
     1
175
     1
 42
1.0
 92
        0
 66
   257
 43
1.0
 76
     1
 77
     6
 78
     2
 67
     7
 79
     5
170
     0
171
     0
290
     0
174
     0
 93
        1
 44
0.0
173
     0
291
     0
 45
0.0
1001
ACAD
1000
AcDbSavedByObjectVersion
1070
     0
  0
VISUALSTYLE
  5
31
102
{ACAD_REACTORS
330
2A
102
}
102
{ACAD_XDICTIONARY
360
105
102
}
330
2A
100
AcDbVisualStyle
  2
3D Hidden
 70
     6
 71
     1
 72
     2
 73
     2
 90
        0
 40
-0.6
 41
-30.0
 62
     5
 63
     7
 74
     2
 91
        2
 64
     7
 65
   257
 75
     2
175
     1
 42
40.0
 92
        0
 66
   257
 43
1.0
 76
     1
 77
     6
 78
     2
 67
     7
 79
     3
170
     0
171
     0
290
     0
174
     0
 93
        1
 44
0.0
173
     0
291
     0
 45
0.0
1001
ACAD
1000
AcDbSavedByObjectVersion
1070
     0
  0
VISUALSTYLE
  5
30
102
{ACAD_REACTORS
330
2A
102
}
102
{ACAD_XDICTIONARY
360
103
102
}
330
2A
100
AcDbVisualStyle
  2
3dWireframe
 70
     5
 71
     0
 72
     2
 73
     0
 90
        0
 40
-0.6
 41
-30.0
 62
     5
 63
     7
 74
     1
 91
        4
 64
     7
 65
   257
 75
     1
175
     1
 42
1.0
 92
        0
 66
   257
 43
1.0
 76
     1
 77
     6
 78
     2
 67
     7
 79
     5
170
     0
171
     0
290
     0
174
     0
 93
        1
 44
0.0
173
     0
291
     0
 45
0.0
1001
ACAD
1000
AcDbSavedByObjectVersion
1070
     0
  0
VISUALSTYLE
  5
32
102
{ACAD_REACTORS
330
2A
102
}
102
{ACAD_XDICTIONARY
360
107
102
}
330
2A
100
AcDbVisualStyle
  2
Basic
 70
     7
 71
     1
 72
     0
 73
     1
 90
        0
 40
-0.6
 41
-30.0
 62
     5
 63
     7
 74
     0
 91
        4
 64
     7
 65
   257
 75
     1
175
     1
 42
1.0
 92
        8
 66
     7
 43
1.0
 76
     1
 77
     6
 78
     2
 67
     7
 79
     5
170
     0
171
     0
290
     0
174
     0
 93
        1
 44
0.0
173
     0
291
     1
 45
0.0
1001
ACAD
1000
AcDbSavedByObjectVersion
1070
     0
  0
VISUALSTYLE
  5
36
102
{ACAD_REACTORS
330
2A
102
}
102
{ACAD_XDICTIONARY
360
10F
102
}
330
2A
100
AcDbVisualStyle
  2
Brighten
 70
    12
 71
     2
 72
     2
 73
     0
 90
        0
 40
-0.6
 41
-30.0
 62
     5
 63
     7
 74
     1
 91
        4
 64
     7
 65
   257
 75
     1
175
     1
 42
1.0
 92
        8
 66
     7
 43
1.0
 76
     1
 77
     6
 78
     2
 67
     7
 79
     5
170
     0
171
     0
290
     0
174
     0
 93
        1
 44
50.0
173
     0
291
     1
 45
0.0
1001
ACAD
1000
AcDbSavedByObjectVersion
1070
     0
  0
VISUALSTYLE
  5
3A
102
{ACAD_REACTORS
330
2A
102
}
102
{ACAD_XDICTIONARY
360
117
102
}
330
2A
100
AcDbVisualStyle
  2
ColorChange
 70
    16
 71
     2
 72
     2
 73
     3
 90
        0
 40
-0.6
 41
-30.0
 62
     5
 63
     8
 74
     1
 91
        4
 64
     7
 65
   257
 75
     1
175
     1
 42
1.0
 92
        8
 66
     8
 43
1.0
 76
     1
 77
     6
 78
     2
 67
     7
 79
     5
170
     0
171
     0
290
     0
174
     0
 93
        1
 44
0.0
173
     0
291
     1
 45
0.0
1001
ACAD
1000
AcDbSavedByObjectVersion
1070
     0
  0
VISUALSTYLE
  5
34
102
{ACAD_REACTORS
330
2A
102
}
102
{ACAD_XDICTIONARY
360
10B
102
}
330
2A
100
AcDbVisualStyle
  2
Conceptual
 70
     9
 71
     3
 72
     2
 73
     0
 90
        0
 40
-0.6
 41
-30.0
 62
     5
 63
     7
 74
     2
 91
        2
 64
     7
 65
   257
 75
     1
175
     1
 42
40.0
 92
        8
 66
     7
 43
1.0
 76
     1
 77
     6
 78
     2
 67
     7
 79
     3
170
     0
171
     0
290
     0
174
     0
 93
        1
 44
0.0
173
     0
291
     0
 45
0.0
1001
ACAD
1000
AcDbSavedByObjectVersion
1070
     0
  0
VISUALSTYLE
  5
35
102
{ACAD_REACTORS
330
2A
102
}
102
{ACAD_XDICTIONARY
360
10D
102
}
330
2A
100
AcDbVisualStyle
  2
Dim
 70
    11
 71
     2
 72
     2
 73
     0
 90
        0
 40
-0.6
 41
-30.0
 62
     5
 63
     7
 74
     1
 91
        4
 64
     7
 65
   257
 75
     1
175
     1
 42
1.0
 92
        8
 66
     7
 43
1.0
 76
     1
 77
     6
 78
     2
 67
     7
 79
     5
170
     0
171
     0
290
     0
174
     0
 93
        1
 44
-50.0
173
     0
291
     1
 45
0.0
1001
ACAD
1000
AcDbSavedByObjectVersion
1070
     0
  0
VISUALSTYLE
  5
39
102
{ACAD_REACTORS
330
2A
102
}
102
{ACAD_XDICTIONARY
360
115
102
}
330
2A
100
AcDbVisualStyle
  2
Facepattern
 70
    15
 71
     2
 72
     2
 73
     0
 90
        0
 40
-0.6
 41
-30.0
 62
     5
 63
     7
 74
     1
 91
        4
 64
     7
 65
   257
 75
     1
175
     1
 42
1.0
 92
        8
 66
     7
 43
1.0
 76
     1
 77
     6
 78
     2
 67
     7
 79
     5
170
     0
171
     0
290
     0
174
     0
 93
        1
 44
0.0
173
     0
291
     1
 45
0.0
1001
ACAD
1000
AcDbSavedByObjectVersion
1070
     0
  0
VISUALSTYLE
  5
2B
102
{ACAD_REACTORS
330
2A
102
}
102
{ACAD_XDICTIONARY
360
F9
102
}
330
2A
100
AcDbVisualStyle
  2
Flat
 70
     0
 71
     2
 72
     1
 73
     1
 90
        2
 40
-0.6
 41
30.0
 62
     5
 63
     7
 74
     0
 91
        4
 64
     7
 65
   257
 75
     1
175
     1
 42
1.0
 92
        8
 66
     7
 43
1.0
 76
     1
 77
     6
 78
     2
 67
     7
 79
     5
170
     0
171
     0
290
     0
174
     0
 93
       13
 44
0.0
173
     0
291
     1
 45
0.0
1001
ACAD
1000
AcDbSavedByObjectVersion
1070
     0
  0
VISUALSTYLE
  5
2C
102
{ACAD_REACTORS
330
2A
102
}
102
{ACAD_XDICTIONARY
360
FB
102
}
330
2A
100
AcDbVisualStyle
  2
FlatWithEdges
 70
     1
 71
     2
 72
     1
 73
     1
 90
        2
 40
-0.6
 41
30.0
 62
     5
 63
     7
 74
     1
 91
        4
 64
     7
 65
   257
 75
     1
175
     1
 42
1.0
 92
        0
 66
   257
 43
1.0
 76
     1
 77
     6
 78
     2
 67
     7
 79
     5
170
     0
171
     0
290
     0
174
     0
 93
       13
 44
0.0
173
     0
291
     1
 45
0.0
1001
ACAD
1000
AcDbSavedByObjectVersion
1070
     0
  0
VISUALSTYLE
  5
2D
102
{ACAD_REACTORS
330
2A
102
}
102
{ACAD_XDICTIONARY
360
FD
102
}
330
2A
100
AcDbVisualStyle
  2
Gouraud
 70
     2
 71
     2
 72
     2
 73
     1
 90
        2
 40
-0.6
 41
30.0
 62
     5
 63
     7
 74
     0
 91
        4
 64
     7
 65
   257
 75
     1
175
     1
 42
1.0
 92
        0
 66
     7
 43
1.0
 76
     1
 77
     6
 78
     2
 67
     7
 79
     5
170
     0
171
     0
290
     0
174
     0
 93
       13
 44
0.0
173
     0
291
     1
 45
0.0
1001
ACAD
1000
AcDbSavedByObjectVersion
1070
     0
  0
VISUALSTYLE
  5
2E
102
{ACAD_REACTORS
330
2A
102
}
102
{ACAD_XDICTIONARY
360
FF
102
}
330
2A
100
AcDbVisualStyle
  2
GouraudWithEdges
 70
     3
 71
     2
 72
     2
 73
     1
 90
        2
 40
-0.6
 41
30.0
 62
     5
 63
     7
 74
     1
 91
        4
 64
     7
 65
   257
 75
     1
175
     1
 42
1.0
 92
        0
 66
   257
 43
1.0
 76
     1
 77
     6
 78
     2
 67
     7
 79
     5
170
     0
171
     0
290
     0
174
     0
 93
       13
 44
0.0
173
     0
291
     1
 45
0.0
1001
ACAD
1000
AcDbSavedByObjectVersion
1070
     0
  0
VISUALSTYLE
  5
38
102
{ACAD_REACTORS
330
2A
102
}
102
{ACAD_XDICTIONARY
360
113
102
}
330
2A
100
AcDbVisualStyle
  2
Linepattern
 70
    14
 71
     2
 72
     2
 73
     0
 90
        0
 40
-0.6
 41
-30.0
 62
     5
 63
     7
 74
     1
 91
        4
 64
     7
 65
   257
 75
     7
175
     7
 42
1.0
 92
        8
 66
     7
 43
1.0
 76
     1
 77
     6
 78
     2
 67
     7
 79
     5
170
     0
171
     0
290
     0
174
     0
 93
        1
 44
0.0
173
     0
291
     1
 45
0.0
1001
ACAD
1000
AcDbSavedByObjectVersion
1070
     0
  0
VISUALSTYLE
  5
33
102
{ACAD_REACTORS
330
2A
102
}
102
{ACAD_XDICTIONARY
360
109
102
}
330
2A
100
AcDbVisualStyle
  2
Realistic
 70
     8
 71
     2
 72
     2
 73
     0
 90
        0
 40
-0.6
 41
-30.0
 62
     5
 63
     7
 74
     1
 91
        0
 64
     7
 65
   257
 75
     1
175
     1
 42
1.0
 92
        8
 66
     8
 43
1.0
 76
     1
 77
     6
 78
     2
 67
     7
 79
     5
170
     0
171
     0
290
     0
174
     0
 93
       13
 44
0.0
173
     0
291
     0
 45
0.0
1001
ACAD
1000
AcDbSavedByObjectVersion
1070
     0
  0
VISUALSTYLE
  5
37
102
{ACAD_REACTORS
330
2A
102
}
102
{ACAD_XDICTIONARY
360
111
102
}
330
2A
100
AcDbVisualStyle
  2
Thicken
 70
    13
 71
     2
 72
     2
 73
     0
 90
        0
 40
-0.6
 41
-30.0
 62
     5
 63
     7
 74
     1
 91
        4
 64
     7
 65
   257
 75
     1
175
     1
 42
1.0
 92
       12
 66
     7
 43
1.0
 76
     1
 77
     6
 78
     2
 67
     7
 79
     5
170
     0
171
     0
290
     0
174
     0
 93
        1
 44
0.0
173
     0
291
     1
 45
0.0
1001
ACAD
1000
AcDbSavedByObjectVersion
1070
     0
  0
DICTIONARYVAR
  5
F7
102
{ACAD_REACTORS
330
F4
102
}
330
F4
100
DictionaryVariables
280
     0
  1
2
  0
DICTIONARYVAR
  5
F8
102
{ACAD_REACTORS
330
F4
102
}
330
F4
100
DictionaryVariables
280
     0
  1
1
  0
DICTIONARY
  5
11B
330
3D
100
AcDbDictionary
280
     1
281
     1
  3
ACAD_XREC_ROUNDTRIP
360
11C
  0
DICTIONARY
  5
119
330
3C
100
AcDbDictionary
280
     1
281
     1
  3
ACAD_XREC_ROUNDTRIP
360
11A
  0
DICTIONARY
  5
11D
330
3E
100
AcDbDictionary
280
     1
281
     1
  3
ACAD_XREC_ROUNDTRIP
360
11E
  0
DICTIONARY
  5
101
330
2F
100
AcDbDictionary
280
     1
281
     1
  3
ACAD_XREC_ROUNDTRIP
360
102
  0
DICTIONARY
  5
105
330
31
100
AcDbDictionary
280
     1
281
     1
  3
ACAD_XREC_ROUNDTRIP
360
106
  0
DICTIONARY
  5
103
330
30
100
AcDbDictionary
280
     1
281
     1
  3
ACAD_XREC_ROUNDTRIP
360
104
  0
DICTIONARY
  5
107
330
32
100
AcDbDictionary
280
     1
281
     1
  3
ACAD_XREC_ROUNDTRIP
360
108
  0
DICTIONARY
  5
10F
330
36
100
AcDbDictionary
280
     1
281
     1
  3
ACAD_XREC_ROUNDTRIP
360
110
  0
DICTIONARY
  5
117
330
3A
100
AcDbDictionary
280
     1
281
     1
  3
ACAD_XREC_ROUNDTRIP
360
118
  0
DICTIONARY
  5
10B
330
34
100
AcDbDictionary
280
     1
281
     1
  3
ACAD_XREC_ROUNDTRIP
360
10C
  0
DICTIONARY
  5
10D
330
35
100
AcDbDictionary
280
     1
281
     1
  3
ACAD_XREC_ROUNDTRIP
360
10E
  0
DICTIONARY
  5
115
330
39
100
AcDbDictionary
280
     1
281
     1
  3
ACAD_XREC_ROUNDTRIP
360
116
  0
DICTIONARY
  5
F9
330
2B
100
AcDbDictionary
280
     1
281
     1
  3
ACAD_XREC_ROUNDTRIP
360
FA
  0
DICTIONARY
  5
FB
330
2C
100
AcDbDictionary
280
     1
281
     1
  3
ACAD_XREC_ROUNDTRIP
360
FC
  0
DICTIONARY
  5
FD
330
2D
100
AcDbDictionary
280
     1
281
     1
  3
ACAD_XREC_ROUNDTRIP
360
FE
  0
DICTIONARY
  5
FF
330
2E
100
AcDbDictionary
280
     1
281
     1
  3
ACAD_XREC_ROUNDTRIP
360
100
  0
DICTIONARY
  5
113
330
38
100
AcDbDictionary
280
     1
281
     1
  3
ACAD_XREC_ROUNDTRIP
360
114
  0
DICTIONARY
  5
109
330
33
100
AcDbDictionary
280
     1
281
     1
  3
ACAD_XREC_ROUNDTRIP
360
10A
  0
DICTIONARY
  5
111
330
37
100
AcDbDictionary
280
     1
281
     1
  3
ACAD_XREC_ROUNDTRIP
360
112
  0
XRECORD
  5
11C
102
{ACAD_REACTORS
330
11B
102
}
330
11B
100
AcDbXrecord
280
     1
102
MATERIAL
148
0.0
149
0.0
149
0.0
 93
        0
 94
      127
282
     0
 72
     1
 77
     1
171
     1
175
     1
179
     1
273
     0
  0
XRECORD
  5
11A
102
{ACAD_REACTORS
330
119
102
}
330
119
100
AcDbXrecord
280
     1
102
MATERIAL
148
0.0
149
0.0
149
0.0
 93
        0
 94
      127
282
     0
 72
     1
 77
     1
171
     1
175
     1
179
     1
273
     0
  0
XRECORD
  5
11E
102
{ACAD_REACTORS
330
11D
102
}
330
11D
100
AcDbXrecord
280
     1
102
MATERIAL
148
0.0
149
0.0
149
0.0
 93
        0
 94
      127
282
     0
 72
     1
 77
     1
171
     1
175
     1
179
     1
273
     0
  0
XRECORD
  5
102
102
{ACAD_REACTORS
330
101
102
}
330
101
100
AcDbXrecord
280
     1
102
RTVSPropertyOp0
 70
     1
102
RTVSPropertyOp1
 70
     1
102
RTVSPropertyOp2
 70
     1
102
RTVSPropertyOp3
 70
     1
102
RTVSPropertyOp4
 70
     1
102
RTVSPropertyOp5
 70
     1
102
RTVSPropertyOp6
 70
     1
102
RTVSPropertyOp7
 70
     1
102
RTVSPropertyOp8
 70
     1
102
RTVSPropertyOp9
 70
     1
102
RTVSPropertyOp10
 70
     1
102
RTVSPropertyOp11
 70
     1
102
RTVSPropertyOp12
 70
     1
102
RTVSPropertyOp13
 70
     1
102
RTVSPropertyOp14
 70
     1
102
RTVSPropertyOp15
 70
     1
102
RTVSPropertyOp16
 70
     1
102
RTVSPropertyOp17
 70
     1
102
RTVSPropertyOp18
 70
     1
102
RTVSPropertyOp19
 70
     1
102
RTVSPropertyOp20
 70
     1
102
RTVSPropertyOp21
 70
     1
102
RTVSPropertyOp22
 70
     1
102
RTVSPropertyOp23
 70
     1
102
RTVSPropertyOp24
 70
     1
102
RTVSPropertyOp25
 70
     1
102
RTVSPropertyOp26
 70
     1
102
RTVSPropertyOp27
 70
     1
  0
XRECORD
  5
106
102
{ACAD_REACTORS
330
105
102
}
330
105
100
AcDbXrecord
280
     1
102
RTVSPropertyOp0
 70
     1
102
RTVSPropertyOp1
 70
     1
102
RTVSPropertyOp2
 70
     1
102
RTVSPropertyOp3
 70
     1
102
RTVSPropertyOp4
 70
     1
102
RTVSPropertyOp5
 70
     1
102
RTVSPropertyOp6
 70
     1
102
RTVSPropertyOp7
 70
     1
102
RTVSPropertyOp8
 70
     1
102
RTVSPropertyOp9
 70
     1
102
RTVSPropertyOp10
 70
     1
102
RTVSPropertyOp11
 70
     1
102
RTVSPropertyOp12
 70
     1
102
RTVSPropertyOp13
 70
     1
102
RTVSPropertyOp14
 70
     1
102
RTVSPropertyOp15
 70
     1
102
RTVSPropertyOp16
 70
     1
102
RTVSPropertyOp17
 70
     1
102
RTVSPropertyOp18
 70
     1
102
RTVSPropertyOp19
 70
     1
102
RTVSPropertyOp20
 70
     1
102
RTVSPropertyOp21
 70
     1
102
RTVSPropertyOp22
 70
     1
102
RTVSPropertyOp23
 70
     1
102
RTVSPropertyOp24
 70
     1
102
RTVSPropertyOp25
 70
     1
102
RTVSPropertyOp26
 70
     1
102
RTVSPropertyOp27
 70
     1
  0
XRECORD
  5
104
102
{ACAD_REACTORS
330
103
102
}
330
103
100
AcDbXrecord
280
     1
102
RTVSPropertyOp0
 70
     1
102
RTVSPropertyOp1
 70
     1
102
RTVSPropertyOp2
 70
     1
102
RTVSPropertyOp3
 70
     1
102
RTVSPropertyOp4
 70
     1
102
RTVSPropertyOp5
 70
     1
102
RTVSPropertyOp6
 70
     1
102
RTVSPropertyOp7
 70
     1
102
RTVSPropertyOp8
 70
     1
102
RTVSPropertyOp9
 70
     1
102
RTVSPropertyOp10
 70
     1
102
RTVSPropertyOp11
 70
     1
102
RTVSPropertyOp12
 70
     1
102
RTVSPropertyOp13
 70
     1
102
RTVSPropertyOp14
 70
     1
102
RTVSPropertyOp15
 70
     1
102
RTVSPropertyOp16
 70
     1
102
RTVSPropertyOp17
 70
     1
102
RTVSPropertyOp18
 70
     1
102
RTVSPropertyOp19
 70
     1
102
RTVSPropertyOp20
 70
     1
102
RTVSPropertyOp21
 70
     1
102
RTVSPropertyOp22
 70
     1
102
RTVSPropertyOp23
 70
     1
102
RTVSPropertyOp24
 70
     1
102
RTVSPropertyOp25
 70
     1
102
RTVSPropertyOp26
 70
     1
102
RTVSPropertyOp27
 70
     1
  0
XRECORD
  5
108
102
{ACAD_REACTORS
330
107
102
}
330
107
100
AcDbXrecord
280
     1
102
RTVSPropertyOp0
 70
     1
102
RTVSPropertyOp1
 70
     1
102
RTVSPropertyOp2
 70
     1
102
RTVSPropertyOp3
 70
     1
102
RTVSPropertyOp4
 70
     1
102
RTVSPropertyOp5
 70
     1
102
RTVSPropertyOp6
 70
     1
102
RTVSPropertyOp7
 70
     1
102
RTVSPropertyOp8
 70
     1
102
RTVSPropertyOp9
 70
     1
102
RTVSPropertyOp10
 70
     1
102
RTVSPropertyOp11
 70
     1
102
RTVSPropertyOp12
 70
     1
102
RTVSPropertyOp13
 70
     1
102
RTVSPropertyOp14
 70
     1
102
RTVSPropertyOp15
 70
     1
102
RTVSPropertyOp16
 70
     1
102
RTVSPropertyOp17
 70
     1
102
RTVSPropertyOp18
 70
     1
102
RTVSPropertyOp19
 70
     1
102
RTVSPropertyOp20
 70
     1
102
RTVSPropertyOp21
 70
     1
102
RTVSPropertyOp22
 70
     1
102
RTVSPropertyOp23
 70
     1
102
RTVSPropertyOp24
 70
     1
102
RTVSPropertyOp25
 70
     1
102
RTVSPropertyOp26
 70
     1
102
RTVSPropertyOp27
 70
     1
  0
XRECORD
  5
110
102
{ACAD_REACTORS
330
10F
102
}
330
10F
100
AcDbXrecord
280
     1
102
RTVSPropertyOp0
 70
     1
102
RTVSPropertyOp1
 70
     1
102
RTVSPropertyOp2
 70
     1
102
RTVSPropertyOp3
 70
     1
102
RTVSPropertyOp4
 70
     1
102
RTVSPropertyOp5
 70
     1
102
RTVSPropertyOp6
 70
     1
102
RTVSPropertyOp7
 70
     1
102
RTVSPropertyOp8
 70
     1
102
RTVSPropertyOp9
 70
     1
102
RTVSPropertyOp10
 70
     1
102
RTVSPropertyOp11
 70
     1
102
RTVSPropertyOp12
 70
     1
102
RTVSPropertyOp13
 70
     1
102
RTVSPropertyOp14
 70
     1
102
RTVSPropertyOp15
 70
     1
102
RTVSPropertyOp16
 70
     1
102
RTVSPropertyOp17
 70
     1
102
RTVSPropertyOp18
 70
     1
102
RTVSPropertyOp19
 70
     1
102
RTVSPropertyOp20
 70
     1
102
RTVSPropertyOp21
 70
     1
102
RTVSPropertyOp22
 70
     1
102
RTVSPropertyOp23
 70
     1
102
RTVSPropertyOp24
 70
     1
102
RTVSPropertyOp25
 70
     1
102
RTVSPropertyOp26
 70
     1
102
RTVSPropertyOp27
 70
     1
  0
XRECORD
  5
118
102
{ACAD_REACTORS
330
117
102
}
330
117
100
AcDbXrecord
280
     1
102
RTVSPropertyOp0
 70
     1
102
RTVSPropertyOp1
 70
     1
102
RTVSPropertyOp2
 70
     1
102
RTVSPropertyOp3
 70
     1
102
RTVSPropertyOp4
 70
     1
102
RTVSPropertyOp5
 70
     1
102
RTVSPropertyOp6
 70
     1
102
RTVSPropertyOp7
 70
     1
102
RTVSPropertyOp8
 70
     1
102
RTVSPropertyOp9
 70
     1
102
RTVSPropertyOp10
 70
     1
102
RTVSPropertyOp11
 70
     1
102
RTVSPropertyOp12
 70
     1
102
RTVSPropertyOp13
 70
     1
102
RTVSPropertyOp14
 70
     1
102
RTVSPropertyOp15
 70
     1
102
RTVSPropertyOp16
 70
     1
102
RTVSPropertyOp17
 70
     1
102
RTVSPropertyOp18
 70
     1
102
RTVSPropertyOp19
 70
     1
102
RTVSPropertyOp20
 70
     1
102
RTVSPropertyOp21
 70
     1
102
RTVSPropertyOp22
 70
     1
102
RTVSPropertyOp23
 70
     1
102
RTVSPropertyOp24
 70
     1
102
RTVSPropertyOp25
 70
     1
102
RTVSPropertyOp26
 70
     1
102
RTVSPropertyOp27
 70
     1
  0
XRECORD
  5
10C
102
{ACAD_REACTORS
330
10B
102
}
330
10B
100
AcDbXrecord
280
     1
102
RTVSPropertyOp0
 70
     1
102
RTVSPropertyOp1
 70
     1
102
RTVSPropertyOp2
 70
     1
102
RTVSPropertyOp3
 70
     1
102
RTVSPropertyOp4
 70
     1
102
RTVSPropertyOp5
 70
     1
102
RTVSPropertyOp6
 70
     1
102
RTVSPropertyOp7
 70
     1
102
RTVSPropertyOp8
 70
     1
102
RTVSPropertyOp9
 70
     1
102
RTVSPropertyOp10
 70
     1
102
RTVSPropertyOp11
 70
     1
102
RTVSPropertyOp12
 70
     1
102
RTVSPropertyOp13
 70
     1
102
RTVSPropertyOp14
 70
     1
102
RTVSPropertyOp15
 70
     1
102
RTVSPropertyOp16
 70
     1
102
RTVSPropertyOp17
 70
     1
102
RTVSPropertyOp18
 70
     1
102
RTVSPropertyOp19
 70
     1
102
RTVSPropertyOp20
 70
     1
102
RTVSPropertyOp21
 70
     1
102
RTVSPropertyOp22
 70
     1
102
RTVSPropertyOp23
 70
     1
102
RTVSPropertyOp24
 70
     1
102
RTVSPropertyOp25
 70
     1
102
RTVSPropertyOp26
 70
     1
102
RTVSPropertyOp27
 70
     1
  0
XRECORD
  5
10E
102
{ACAD_REACTORS
330
10D
102
}
330
10D
100
AcDbXrecord
280
     1
102
RTVSPropertyOp0
 70
     1
102
RTVSPropertyOp1
 70
     1
102
RTVSPropertyOp2
 70
     1
102
RTVSPropertyOp3
 70
     1
102
RTVSPropertyOp4
 70
     1
102
RTVSPropertyOp5
 70
     1
102
RTVSPropertyOp6
 70
     1
102
RTVSPropertyOp7
 70
     1
102
RTVSPropertyOp8
 70
     1
102
RTVSPropertyOp9
 70
     1
102
RTVSPropertyOp10
 70
     1
102
RTVSPropertyOp11
 70
     1
102
RTVSPropertyOp12
 70
     1
102
RTVSPropertyOp13
 70
     1
102
RTVSPropertyOp14
 70
     1
102
RTVSPropertyOp15
 70
     1
102
RTVSPropertyOp16
 70
     1
102
RTVSPropertyOp17
 70
     1
102
RTVSPropertyOp18
 70
     1
102
RTVSPropertyOp19
 70
     1
102
RTVSPropertyOp20
 70
     1
102
RTVSPropertyOp21
 70
     1
102
RTVSPropertyOp22
 70
     1
102
RTVSPropertyOp23
 70
     1
102
RTVSPropertyOp24
 70
     1
102
RTVSPropertyOp25
 70
     1
102
RTVSPropertyOp26
 70
     1
102
RTVSPropertyOp27
 70
     1
  0
XRECORD
  5
116
102
{ACAD_REACTORS
330
115
102
}
330
115
100
AcDbXrecord
280
     1
102
RTVSPropertyOp0
 70
     1
102
RTVSPropertyOp1
 70
     1
102
RTVSPropertyOp2
 70
     1
102
RTVSPropertyOp3
 70
     1
102
RTVSPropertyOp4
 70
     1
102
RTVSPropertyOp5
 70
     1
102
RTVSPropertyOp6
 70
     1
102
RTVSPropertyOp7
 70
     1
102
RTVSPropertyOp8
 70
     1
102
RTVSPropertyOp9
 70
     1
102
RTVSPropertyOp10
 70
     1
102
RTVSPropertyOp11
 70
     1
102
RTVSPropertyOp12
 70
     1
102
RTVSPropertyOp13
 70
     1
102
RTVSPropertyOp14
 70
     1
102
RTVSPropertyOp15
 70
     1
102
RTVSPropertyOp16
 70
     1
102
RTVSPropertyOp17
 70
     1
102
RTVSPropertyOp18
 70
     1
102
RTVSPropertyOp19
 70
     1
102
RTVSPropertyOp20
 70
     1
102
RTVSPropertyOp21
 70
     1
102
RTVSPropertyOp22
 70
     1
102
RTVSPropertyOp23
 70
     1
102
RTVSPropertyOp24
 70
     1
102
RTVSPropertyOp25
 70
     1
102
RTVSPropertyOp26
 70
     1
102
RTVSPropertyOp27
 70
     1
  0
XRECORD
  5
FA
102
{ACAD_REACTORS
330
F9
102
}
330
F9
100
AcDbXrecord
280
     1
102
RTVSPropertyOp0
 70
     1
102
RTVSPropertyOp1
 70
     1
102
RTVSPropertyOp2
 70
     1
102
RTVSPropertyOp3
 70
     1
102
RTVSPropertyOp4
 70
     1
102
RTVSPropertyOp5
 70
     1
102
RTVSPropertyOp6
 70
     1
102
RTVSPropertyOp7
 70
     1
102
RTVSPropertyOp8
 70
     1
102
RTVSPropertyOp9
 70
     1
102
RTVSPropertyOp10
 70
     1
102
RTVSPropertyOp11
 70
     1
102
RTVSPropertyOp12
 70
     1
102
RTVSPropertyOp13
 70
     1
102
RTVSPropertyOp14
 70
     1
102
RTVSPropertyOp15
 70
     1
102
RTVSPropertyOp16
 70
     1
102
RTVSPropertyOp17
 70
     1
102
RTVSPropertyOp18
 70
     1
102
RTVSPropertyOp19
 70
     1
102
RTVSPropertyOp20
 70
     1
102
RTVSPropertyOp21
 70
     1
102
RTVSPropertyOp22
 70
     1
102
RTVSPropertyOp23
 70
     1
102
RTVSPropertyOp24
 70
     1
102
RTVSPropertyOp25
 70
     1
102
RTVSPropertyOp26
 70
     1
102
RTVSPropertyOp27
 70
     1
  0
XRECORD
  5
FC
102
{ACAD_REACTORS
330
FB
102
}
330
FB
100
AcDbXrecord
280
     1
102
RTVSPropertyOp0
 70
     1
102
RTVSPropertyOp1
 70
     1
102
RTVSPropertyOp2
 70
     1
102
RTVSPropertyOp3
 70
     1
102
RTVSPropertyOp4
 70
     1
102
RTVSPropertyOp5
 70
     1
102
RTVSPropertyOp6
 70
     1
102
RTVSPropertyOp7
 70
     1
102
RTVSPropertyOp8
 70
     1
102
RTVSPropertyOp9
 70
     1
102
RTVSPropertyOp10
 70
     1
102
RTVSPropertyOp11
 70
     1
102
RTVSPropertyOp12
 70
     1
102
RTVSPropertyOp13
 70
     1
102
RTVSPropertyOp14
 70
     1
102
RTVSPropertyOp15
 70
     1
102
RTVSPropertyOp16
 70
     1
102
RTVSPropertyOp17
 70
     1
102
RTVSPropertyOp18
 70
     1
102
RTVSPropertyOp19
 70
     1
102
RTVSPropertyOp20
 70
     1
102
RTVSPropertyOp21
 70
     1
102
RTVSPropertyOp22
 70
     1
102
RTVSPropertyOp23
 70
     1
102
RTVSPropertyOp24
 70
     1
102
RTVSPropertyOp25
 70
     1
102
RTVSPropertyOp26
 70
     1
102
RTVSPropertyOp27
 70
     1
  0
XRECORD
  5
FE
102
{ACAD_REACTORS
330
FD
102
}
330
FD
100
AcDbXrecord
280
     1
102
RTVSPropertyOp0
 70
     1
102
RTVSPropertyOp1
 70
     1
102
RTVSPropertyOp2
 70
     1
102
RTVSPropertyOp3
 70
     1
102
RTVSPropertyOp4
 70
     1
102
RTVSPropertyOp5
 70
     1
102
RTVSPropertyOp6
 70
     1
102
RTVSPropertyOp7
 70
     1
102
RTVSPropertyOp8
 70
     1
102
RTVSPropertyOp9
 70
     1
102
RTVSPropertyOp10
 70
     1
102
RTVSPropertyOp11
 70
     1
102
RTVSPropertyOp12
 70
     1
102
RTVSPropertyOp13
 70
     1
102
RTVSPropertyOp14
 70
     1
102
RTVSPropertyOp15
 70
     1
102
RTVSPropertyOp16
 70
     1
102
RTVSPropertyOp17
 70
     1
102
RTVSPropertyOp18
 70
     1
102
RTVSPropertyOp19
 70
     1
102
RTVSPropertyOp20
 70
     1
102
RTVSPropertyOp21
 70
     1
102
RTVSPropertyOp22
 70
     1
102
RTVSPropertyOp23
 70
     1
102
RTVSPropertyOp24
 70
     1
102
RTVSPropertyOp25
 70
     1
102
RTVSPropertyOp26
 70
     1
102
RTVSPropertyOp27
 70
     1
  0
XRECORD
  5
100
102
{ACAD_REACTORS
330
FF
102
}
330
FF
100
AcDbXrecord
280
     1
102
RTVSPropertyOp0
 70
     1
102
RTVSPropertyOp1
 70
     1
102
RTVSPropertyOp2
 70
     1
102
RTVSPropertyOp3
 70
     1
102
RTVSPropertyOp4
 70
     1
102
RTVSPropertyOp5
 70
     1
102
RTVSPropertyOp6
 70
     1
102
RTVSPropertyOp7
 70
     1
102
RTVSPropertyOp8
 70
     1
102
RTVSPropertyOp9
 70
     1
102
RTVSPropertyOp10
 70
     1
102
RTVSPropertyOp11
 70
     1
102
RTVSPropertyOp12
 70
     1
102
RTVSPropertyOp13
 70
     1
102
RTVSPropertyOp14
 70
     1
102
RTVSPropertyOp15
 70
     1
102
RTVSPropertyOp16
 70
     1
102
RTVSPropertyOp17
 70
     1
102
RTVSPropertyOp18
 70
     1
102
RTVSPropertyOp19
 70
     1
102
RTVSPropertyOp20
 70
     1
102
RTVSPropertyOp21
 70
     1
102
RTVSPropertyOp22
 70
     1
102
RTVSPropertyOp23
 70
     1
102
RTVSPropertyOp24
 70
     1
102
RTVSPropertyOp25
 70
     1
102
RTVSPropertyOp26
 70
     1
102
RTVSPropertyOp27
 70
     1
  0
XRECORD
  5
114
102
{ACAD_REACTORS
330
113
102
}
330
113
100
AcDbXrecord
280
     1
102
RTVSPropertyOp0
 70
     1
102
RTVSPropertyOp1
 70
     1
102
RTVSPropertyOp2
 70
     1
102
RTVSPropertyOp3
 70
     1
102
RTVSPropertyOp4
 70
     1
102
RTVSPropertyOp5
 70
     1
102
RTVSPropertyOp6
 70
     1
102
RTVSPropertyOp7
 70
     1
102
RTVSPropertyOp8
 70
     1
102
RTVSPropertyOp9
 70
     1
102
RTVSPropertyOp10
 70
     1
102
RTVSPropertyOp11
 70
     1
102
RTVSPropertyOp12
 70
     1
102
RTVSPropertyOp13
 70
     1
102
RTVSPropertyOp14
 70
     1
102
RTVSPropertyOp15
 70
     1
102
RTVSPropertyOp16
 70
     1
102
RTVSPropertyOp17
 70
     1
102
RTVSPropertyOp18
 70
     1
102
RTVSPropertyOp19
 70
     1
102
RTVSPropertyOp20
 70
     1
102
RTVSPropertyOp21
 70
     1
102
RTVSPropertyOp22
 70
     1
102
RTVSPropertyOp23
 70
     1
102
RTVSPropertyOp24
 70
     1
102
RTVSPropertyOp25
 70
     1
102
RTVSPropertyOp26
 70
     1
102
RTVSPropertyOp27
 70
     1
  0
XRECORD
  5
10A
102
{ACAD_REACTORS
330
109
102
}
330
109
100
AcDbXrecord
280
     1
102
RTVSPropertyOp0
 70
     1
102
RTVSPropertyOp1
 70
     1
102
RTVSPropertyOp2
 70
     1
102
RTVSPropertyOp3
 70
     1
102
RTVSPropertyOp4
 70
     1
102
RTVSPropertyOp5
 70
     1
102
RTVSPropertyOp6
 70
     1
102
RTVSPropertyOp7
 70
     1
102
RTVSPropertyOp8
 70
     1
102
RTVSPropertyOp9
 70
     1
102
RTVSPropertyOp10
 70
     1
102
RTVSPropertyOp11
 70
     1
102
RTVSPropertyOp12
 70
     1
102
RTVSPropertyOp13
 70
     1
102
RTVSPropertyOp14
 70
     1
102
RTVSPropertyOp15
 70
     1
102
RTVSPropertyOp16
 70
     1
102
RTVSPropertyOp17
 70
     1
102
RTVSPropertyOp18
 70
     1
102
RTVSPropertyOp19
 70
     1
102
RTVSPropertyOp20
 70
     1
102
RTVSPropertyOp21
 70
     1
102
RTVSPropertyOp22
 70
     1
102
RTVSPropertyOp23
 70
     1
102
RTVSPropertyOp24
 70
     1
102
RTVSPropertyOp25
 70
     1
102
RTVSPropertyOp26
 70
     1
102
RTVSPropertyOp27
 70
     1
  0
XRECORD
  5
112
102
{ACAD_REACTORS
330
111
102
}
330
111
100
AcDbXrecord
280
     1
102
RTVSPropertyOp0
 70
     1
102
RTVSPropertyOp1
 70
     1
102
RTVSPropertyOp2
 70
     1
102
RTVSPropertyOp3
 70
     1
102
RTVSPropertyOp4
 70
     1
102
RTVSPropertyOp5
 70
     1
102
RTVSPropertyOp6
 70
     1
102
RTVSPropertyOp7
 70
     1
102
RTVSPropertyOp8
 70
     1
102
RTVSPropertyOp9
 70
     1
102
RTVSPropertyOp10
 70
     1
102
RTVSPropertyOp11
 70
     1
102
RTVSPropertyOp12
 70
     1
102
RTVSPropertyOp13
 70
     1
102
RTVSPropertyOp14
 70
     1
102
RTVSPropertyOp15
 70
     1
102
RTVSPropertyOp16
 70
     1
102
RTVSPropertyOp17
 70
     1
102
RTVSPropertyOp18
 70
     1
102
RTVSPropertyOp19
 70
     1
102
RTVSPropertyOp20
 70
     1
102
RTVSPropertyOp21
 70
     1
102
RTVSPropertyOp22
 70
     1
102
RTVSPropertyOp23
 70
     1
102
RTVSPropertyOp24
 70
     1
102
RTVSPropertyOp25
 70
     1
102
RTVSPropertyOp26
 70
     1
102
RTVSPropertyOp27
 70
     1
  0
ENDSEC
  0
EOF
