  0
SECTION
  2
HEADER
  9
$ACADVER
  1
AC1014
  9
$ACADMAINTVER
 70
     9
  9
$DWGCODEPAGE
  3
ANSI_1250
  9
$INSBASE
 10
0.0
 20
0.0
 30
0.0
  9
$EXTMIN
 10
-45.4258
 20
-28.3041
 30
0.0
  9
$EXTMAX
 10
45.5665
 20
28.2221
 30
0.0
  9
$LIMMIN
 10
0.0
 20
0.0
  9
$LIMMAX
 10
12.0
 20
9.0
  9
$ORTHOMODE
 70
     0
  9
$REGENMODE
 70
     1
  9
$FILLMODE
 70
     1
  9
$QTEXTMODE
 70
     0
  9
$MIRRTEXT
 70
     1
  9
$DRAGMODE
 70
     2
  9
$LTSCALE
 40
1.0
  9
$OSMODE
 70
    37
  9
$ATTMODE
 70
     1
  9
$TEXTSIZE
 40
0.2
  9
$TRACEWID
 40
0.05
  9
$TEXTSTYLE
  7
STANDARD
  9
$CLAYER
  8
0
  9
$CELTYPE
  6
BYLAYER
  9
$CECOLOR
 62
   256
  9
$CELTSCALE
 40
1.0
  9
$DELOBJ
 70
     1
  9
$DISPSILH
 70
     0
  9
$DIMSCALE
 40
1.0
  9
$DIMASZ
 40
0.18
  9
$DIMEXO
 40
0.0625
  9
$DIMDLI
 40
0.38
  9
$DIMRND
 40
0.0
  9
$DIMDLE
 40
0.0
  9
$DIMEXE
 40
0.18
  9
$DIMTP
 40
0.0
  9
$DIMTM
 40
0.0
  9
$DIMTXT
 40
0.18
  9
$DIMCEN
 40
0.09
  9
$DIMTSZ
 40
0.0
  9
$DIMTOL
 70
     0
  9
$DIMLIM
 70
     0
  9
$DIMTIH
 70
     1
  9
$DIMTOH
 70
     1
  9
$DIMSE1
 70
     0
  9
$DIMSE2
 70
     0
  9
$DIMTAD
 70
     0
  9
$DIMZIN
 70
     0
  9
$DIMBLK
  1

  9
$DIMASO
 70
     1
  9
$DIMSHO
 70
     1
  9
$DIMPOST
  1

  9
$DIMAPOST
  1

  9
$DIMALT
 70
     0
  9
$DIMALTD
 70
     2
  9
$DIMALTF
 40
25.4
  9
$DIMLFAC
 40
1.0
  9
$DIMTOFL
 70
     0
  9
$DIMTVP
 40
0.0
  9
$DIMTIX
 70
     0
  9
$DIMSOXD
 70
     0
  9
$DIMSAH
 70
     0
  9
$DIMBLK1
  1

  9
$DIMBLK2
  1

  9
$DIMSTYLE
  2
STANDARD
  9
$DIMCLRD
 70
     0
  9
$DIMCLRE
 70
     0
  9
$DIMCLRT
 70
     0
  9
$DIMTFAC
 40
1.0
  9
$DIMGAP
 40
0.09
  9
$DIMJUST
 70
     0
  9
$DIMSD1
 70
     0
  9
$DIMSD2
 70
     0
  9
$DIMTOLJ
 70
     1
  9
$DIMTZIN
 70
     0
  9
$DIMALTZ
 70
     0
  9
$DIMALTTZ
 70
     0
  9
$DIMFIT
 70
     3
  9
$DIMUPT
 70
     0
  9
$DIMUNIT
 70
     2
  9
$DIMDEC
 70
     4
  9
$DIMTDEC
 70
     4
  9
$DIMALTU
 70
     2
  9
$DIMALTTD
 70
     2
  9
$DIMTXSTY
  7
STANDARD
  9
$DIMAUNIT
 70
     0
  9
$LUNITS
 70
     2
  9
$LUPREC
 70
     4
  9
$SKETCHINC
 40
0.1
  9
$FILLETRAD
 40
0.5
  9
$AUNITS
 70
     0
  9
$AUPREC
 70
     0
  9
$MENU
  1
.
  9
$ELEVATION
 40
0.0
  9
$PELEVATION
 40
0.0
  9
$THICKNESS
 40
0.0
  9
$LIMCHECK
 70
     0
  9
$CHAMFERA
 40
0.5
  9
$CHAMFERB
 40
0.5
  9
$CHAMFERC
 40
1.0
  9
$CHAMFERD
 40
0.0
  9
$SKPOLY
 70
     0
  9
$TDCREATE
 40
2456266.404703982
  9
$TDUPDATE
 40
2456266.404703993
  9
$TDINDWG
 40
0.0000000116
  9
$TDUSRTIMER
 40
0.0000000116
  9
$USRTIMER
 70
     1
  9
$ANGBASE
 50
0.0
  9
$ANGDIR
 70
     0
  9
$PDMODE
 70
     0
  9
$PDSIZE
 40
0.0
  9
$PLINEWID
 40
0.0
  9
$COORDS
 70
     1
  9
$SPLFRAME
 70
     0
  9
$SPLINETYPE
 70
     6
  9
$SPLINESEGS
 70
     8
  9
$ATTDIA
 70
     0
  9
$ATTREQ
 70
     1
  9
$HANDLING
 70
     1
  9
$HANDSEED
  5
E2
  9
$SURFTAB1
 70
     6
  9
$SURFTAB2
 70
     6
  9
$SURFTYPE
 70
     6
  9
$SURFU
 70
     6
  9
$SURFV
 70
     6
  9
$UCSNAME
  2

  9
$UCSORG
 10
0.0
 20
0.0
 30
0.0
  9
$UCSXDIR
 10
1.0
 20
0.0
 30
0.0
  9
$UCSYDIR
 10
0.0
 20
1.0
 30
0.0
  9
$PUCSNAME
  2

  9
$PUCSORG
 10
0.0
 20
0.0
 30
0.0
  9
$PUCSXDIR
 10
1.0
 20
0.0
 30
0.0
  9
$PUCSYDIR
 10
0.0
 20
1.0
 30
0.0
  9
$USERI1
 70
     0
  9
$USERI2
 70
     0
  9
$USERI3
 70
     0
  9
$USERI4
 70
     0
  9
$USERI5
 70
     0
  9
$USERR1
 40
0.0
  9
$USERR2
 40
0.0
  9
$USERR3
 40
0.0
  9
$USERR4
 40
0.0
  9
$USERR5
 40
0.0
  9
$WORLDVIEW
 70
     1
  9
$SHADEDGE
 70
     3
  9
$SHADEDIF
 70
    70
  9
$TILEMODE
 70
     1
  9
$MAXACTVP
 70
    64
  9
$PINSBASE
 10
0.0
 20
0.0
 30
0.0
  9
$PLIMCHECK
 70
     0
  9
$PEXTMIN
 10
1.000000000000000E+20
 20
1.000000000000000E+20
 30
1.000000000000000E+20
  9
$PEXTMAX
 10
-1.000000000000000E+20
 20
-1.000000000000000E+20
 30
-1.000000000000000E+20
  9
$PLIMMIN
 10
0.0
 20
0.0
  9
$PLIMMAX
 10
12.0
 20
9.0
  9
$UNITMODE
 70
     0
  9
$VISRETAIN
 70
     1
  9
$PLINEGEN
 70
     0
  9
$PSLTSCALE
 70
     1
  9
$TREEDEPTH
 70
  3020
  9
$PICKSTYLE
 70
     1
  9
$CMLSTYLE
  2
STANDARD
  9
$CMLJUST
 70
     0
  9
$CMLSCALE
 40
1.0
  9
$PROXYGRAPHICS
 70
     1
  9
$MEASUREMENT
 70
     0
  0
ENDSEC
  0
SECTION
  2
CLASSES
  0
CLASS
  1
ACDBDICTIONARYWDFLT
  2
AcDbDictionaryWithDefault
  3
ObjectDBX Classes
 90
        0
280
     0
281
     0
  0
CLASS
  1
VISUALSTYLE
  2
AcDbVisualStyle
  3
ObjectDBX Classes
 90
     4095
280
     0
281
     0
  0
CLASS
  1
MATERIAL
  2
AcDbMaterial
  3
ObjectDBX Classes
 90
     1153
280
     0
281
     0
  0
CLASS
  1
DICTIONARYVAR
  2
AcDbDictionaryVar
  3
ObjectDBX Classes
 90
        0
280
     0
281
     0
  0
CLASS
  1
XRECORD
  2
AcDbXrecord
  3
AutoCAD 2000
 90
        0
280
     0
281
     0
  0
CLASS
  1
LWPOLYLINE
  2
AcDbPolyline
  3
AutoCAD 2000
 90
        0
280
     0
281
     1
  0
CLASS
  1
HATCH
  2
AcDbHatch
  3
AutoCAD 2000
 90
        0
280
     0
281
     1
  0
CLASS
  1
ACDBPLACEHOLDER
  2
AcDbPlaceHolder
  3
ObjectDBX Classes
 90
        0
280
     0
281
     0
  0
CLASS
  1
LAYOUT
  2
AcDbLayout
  3
ObjectDBX Classes
 90
        0
280
     0
281
     0
  0
ENDSEC
  0
SECTION
  2
TABLES
  0
TABLE
  2
VPORT
  5
8
330
0
100
AcDbSymbolTable
 70
     1
  0
VPORT
  5
29
330
8
100
AcDbSymbolTableRecord
100
AcDbViewportTableRecord
  2
*ACTIVE
 70
     0
 10
0.0
 20
0.0
 11
1.0
 21
1.0
 12
10.42990654205607
 22
4.5
 13
0.0
 23
0.0
 14
0.5
 24
0.5
 15
0.5
 25
0.5
 16
0.0
 26
0.0
 36
1.0
 17
0.0
 27
0.0
 37
0.0
 40
9.0
 41
1.972972972850329
 42
50.0
 43
0.0
 44
0.0
 50
0.0
 51
0.0
 71
     0
 72
   100
 73
     1
 74
     3
 75
     0
 76
     0
 77
     0
 78
     0
  0
ENDTAB
  0
TABLE
  2
LTYPE
  5
5
330
0
100
AcDbSymbolTable
 70
     7
  0
LTYPE
  5
14
330
5
100
AcDbSymbolTableRecord
100
AcDbLinetypeTableRecord
  2
BYBLOCK
 70
     0
  3

 72
    65
 73
     0
 40
0.0
  0
LTYPE
  5
15
330
5
100
AcDbSymbolTableRecord
100
AcDbLinetypeTableRecord
  2
BYLAYER
 70
     0
  3

 72
    65
 73
     0
 40
0.0
  0
LTYPE
  5
16
330
5
100
AcDbSymbolTableRecord
100
AcDbLinetypeTableRecord
  2
CONTINUOUS
 70
     0
  3
Solid line
 72
    65
 73
     0
 40
0.0
  0
LTYPE
  5
52
330
5
100
AcDbSymbolTableRecord
100
AcDbLinetypeTableRecord
  2
NEW_LINE1
 70
     0
  3

 72
    65
 73
     4
 40
1.2
 49
0.5
 74
     4
 75
     0
340
0
 46
1.0
 50
0.0
 44
0.0
 45
0.0
 49
-0.3
 74
     4
 75
     0
340
0
 46
1.0
 50
0.0
 44
0.0
 45
0.0
 49
0.1
 74
     4
 75
     0
340
0
 46
1.0
 50
0.0
 44
0.0
 45
0.0
 49
-0.3
 74
     4
 75
     0
340
0
 46
1.0
 50
0.0
 44
0.0
 45
0.0
  0
LTYPE
  5
54
330
5
100
AcDbSymbolTableRecord
100
AcDbLinetypeTableRecord
  2
NEW_LINE2
 70
     0
  3

 72
    65
 73
     4
 40
1.2
 49
0.5
 74
     4
 75
     0
340
0
 46
1.0
 50
0.0
 44
0.0
 45
0.0
 49
-0.3
 74
     4
 75
     0
340
0
 46
1.0
 50
0.0
 44
0.0
 45
0.0
 49
0.1
 74
     4
 75
     0
340
0
 46
1.0
 50
0.0
 44
0.0
 45
0.0
 49
-0.3
 74
     4
 75
     0
340
0
 46
1.0
 50
0.0
 44
0.0
 45
0.0
  0
LTYPE
  5
56
330
5
100
AcDbSymbolTableRecord
100
AcDbLinetypeTableRecord
  2
NEW_LINE3
 70
     0
  3

 72
    65
 73
     4
 40
1.2
 49
0.5
 74
     4
 75
     0
340
0
 46
1.0
 50
0.0
 44
0.0
 45
0.0
 49
-0.3
 74
     4
 75
     0
340
0
 46
1.0
 50
0.0
 44
0.0
 45
0.0
 49
0.1
 74
     4
 75
     0
340
0
 46
1.0
 50
0.0
 44
0.0
 45
0.0
 49
-0.3
 74
     4
 75
     0
340
0
 46
1.0
 50
0.0
 44
0.0
 45
0.0
  0
LTYPE
  5
58
330
5
100
AcDbSymbolTableRecord
100
AcDbLinetypeTableRecord
  2
NEW_LINE4
 70
     0
  3

 72
    65
 73
     4
 40
1.2
 49
0.5
 74
     4
 75
     0
340
0
 46
1.0
 50
0.0
 44
0.0
 45
0.0
 49
-0.3
 74
     4
 75
     0
340
0
 46
1.0
 50
0.0
 44
0.0
 45
0.0
 49
0.1
 74
     4
 75
     0
340
0
 46
1.0
 50
0.0
 44
0.0
 45
0.0
 49
-0.3
 74
     4
 75
     0
340
0
 46
1.0
 50
0.0
 44
0.0
 45
0.0
  0
LTYPE
  5
5B
330
5
100
AcDbSymbolTableRecord
100
AcDbLinetypeTableRecord
  2
NEW_LINE5
 70
     0
  3

 72
    65
 73
     4
 40
1.2
 49
0.5
 74
     4
 75
     0
340
0
 46
1.0
 50
0.0
 44
0.0
 45
0.0
 49
-0.3
 74
     4
 75
     0
340
0
 46
1.0
 50
0.0
 44
0.0
 45
0.0
 49
0.1
 74
     4
 75
     0
340
0
 46
1.0
 50
0.0
 44
0.0
 45
0.0
 49
-0.3
 74
     4
 75
     0
340
0
 46
1.0
 50
0.0
 44
0.0
 45
0.0
  0
LTYPE
  5
60
330
5
100
AcDbSymbolTableRecord
100
AcDbLinetypeTableRecord
  2
NEW_LINE6
 70
     0
  3

 72
    65
 73
     4
 40
1.2
 49
0.5
 74
     4
 75
     0
340
0
 46
1.0
 50
0.0
 44
0.0
 45
0.0
 49
-0.3
 74
     4
 75
     0
340
0
 46
1.0
 50
0.0
 44
0.0
 45
0.0
 49
0.1
 74
     4
 75
     0
340
0
 46
1.0
 50
0.0
 44
0.0
 45
0.0
 49
-0.3
 74
     4
 75
     0
340
0
 46
1.0
 50
0.0
 44
0.0
 45
0.0
  0
ENDTAB
  0
TABLE
  2
LAYER
  5
2
330
0
100
AcDbSymbolTable
 70
     2
  0
LAYER
  5
10
330
2
100
AcDbSymbolTableRecord
100
AcDbLayerTableRecord
  2
0
 70
     0
 62
     7
  6
CONTINUOUS
  0
LAYER
  5
40
330
2
100
AcDbSymbolTableRecord
100
AcDbLayerTableRecord
  2
ROUND
 70
     0
 62
     7
  6
CONTINUOUS
  0
ENDTAB
  0
TABLE
  2
STYLE
  5
3
330
0
100
AcDbSymbolTable
 70
     1
  0
STYLE
  5
11
330
3
100
AcDbSymbolTableRecord
100
AcDbTextStyleTableRecord
  2
STANDARD
 70
     0
 40
0.0
 41
1.0
 50
0.0
 71
     0
 42
0.2
  3
txt
  4

  0
ENDTAB
  0
TABLE
  2
VIEW
  5
6
330
0
100
AcDbSymbolTable
 70
     0
  0
ENDTAB
  0
TABLE
  2
UCS
  5
7
330
0
100
AcDbSymbolTable
 70
     0
  0
ENDTAB
  0
TABLE
  2
APPID
  5
9
330
0
100
AcDbSymbolTable
 70
     2
  0
APPID
  5
12
330
9
100
AcDbSymbolTableRecord
100
AcDbRegAppTableRecord
  2
ACAD
 70
     0
  0
APPID
  5
3F
330
9
100
AcDbSymbolTableRecord
100
AcDbRegAppTableRecord
  2
ODA
 70
     0
  0
ENDTAB
  0
TABLE
  2
DIMSTYLE
  5
A
330
0
100
AcDbSymbolTable
 70
     1
  0
DIMSTYLE
105
27
330
A
100
AcDbSymbolTableRecord
100
AcDbDimStyleTableRecord
  2
STANDARD
 70
     0
  3

  4

  5

  6

  7

 40
1.0
 41
0.18
 42
0.0625
 43
0.38
 44
0.18
 45
0.0
 46
0.0
 47
0.0
 48
0.0
140
0.18
141
0.09
142
0.0
143
25.4
144
1.0
145
0.0
146
1.0
147
0.09
 71
     0
 72
     0
 73
     1
 74
     1
 75
     0
 76
     0
 77
     0
 78
     0
170
     0
171
     2
172
     0
173
     0
174
     0
175
     0
176
     0
177
     0
178
     0
270
     2
271
     4
272
     4
273
     2
274
     2
340
11
275
     0
280
     0
281
     0
282
     0
283
     1
284
     0
285
     0
286
     0
287
     3
288
     0
  0
ENDTAB
  0
TABLE
  2
BLOCK_RECORD
  5
1
330
0
100
AcDbSymbolTable
 70
     1
  0
BLOCK_RECORD
  5
1F
330
1
100
AcDbSymbolTableRecord
100
AcDbBlockTableRecord
  2
*MODEL_SPACE
  0
BLOCK_RECORD
  5
1B
330
1
100
AcDbSymbolTableRecord
100
AcDbBlockTableRecord
  2
*PAPER_SPACE
  0
ENDTAB
  0
ENDSEC
  0
SECTION
  2
BLOCKS
  0
BLOCK
  5
20
330
1F
100
AcDbEntity
  8
0
100
AcDbBlockBegin
  2
*MODEL_SPACE
 70
     0
 10
0.0
 20
0.0
 30
0.0
  3
*MODEL_SPACE
  1

  0
ENDBLK
  5
21
330
1F
100
AcDbEntity
  8
0
100
AcDbBlockEnd
  0
BLOCK
  5
1C
330
1B
100
AcDbEntity
 67
     1
  8
0
100
AcDbBlockBegin
  2
*PAPER_SPACE
 70
     0
 10
0.0
 20
0.0
 30
0.0
  3
*PAPER_SPACE
  1

  0
ENDBLK
  5
1D
330
1B
100
AcDbEntity
 67
     1
  8
0
100
AcDbBlockEnd
  0
ENDSEC
  0
SECTION
  2
ENTITIES
  0
SPLINE
  5
41
330
1F
100
AcDbEntity
  8
ROUND
 62
   250
100
AcDbSpline
210
0.0
220
0.0
230
1.0
 70
    24
 71
     3
 72
     8
 73
     4
 74
     0
 42
0.0000000001
 43
0.0000000001
 40
0.0
 40
0.0
 40
0.0
 40
0.0
 40
1.0
 40
1.0
 40
1.0
 40
1.0
 10
-21.3609
 20
26.2858
 30
0.0
 10
-21.3609
 20
26.2858
 30
0.0
 10
-21.3609
 20
20.0992
 30
0.0
 10
-21.3609
 20
20.0992
 30
0.0
  0
SPLINE
  5
42
330
1F
100
AcDbEntity
  8
ROUND
 62
   250
100
AcDbSpline
210
0.0
220
0.0
230
1.0
 70
    24
 71
     3
 72
     8
 73
     4
 74
     0
 42
0.0000000001
 43
0.0000000001
 40
0.0
 40
0.0
 40
0.0
 40
0.0
 40
1.0
 40
1.0
 40
1.0
 40
1.0
 10
-40.1507
 20
0.1683
 30
0.0
 10
-40.1507
 20
0.1683
 30
0.0
 10
-43.0826
 20
0.1683
 30
0.0
 10
-43.0826
 20
0.1683
 30
0.0
  0
SPLINE
  5
43
330
1F
100
AcDbEntity
  8
ROUND
 62
   250
100
AcDbSpline
210
0.0
220
0.0
230
1.0
 70
    24
 71
     3
 72
     8
 73
     4
 74
     0
 42
0.0000000001
 43
0.0000000001
 40
0.0
 40
0.0
 40
0.0
 40
0.0
 40
1.0
 40
1.0
 40
1.0
 40
1.0
 10
-40.1069
 20
12.1941
 30
0.0
 10
-40.1069
 20
12.1941
 30
0.0
 10
-43.0826
 20
12.1941
 30
0.0
 10
-43.0826
 20
12.1941
 30
0.0
  0
SPLINE
  5
44
330
1F
100
AcDbEntity
  8
ROUND
 62
   250
100
AcDbSpline
210
0.0
220
0.0
230
1.0
 70
    24
 71
     3
 72
     8
 73
     4
 74
     0
 42
0.0000000001
 43
0.0000000001
 40
0.0
 40
0.0
 40
0.0
 40
0.0
 40
1.0
 40
1.0
 40
1.0
 40
1.0
 10
-39.3998
 20
14.6111
 30
0.0
 10
-39.3998
 20
14.6111
 30
0.0
 10
-39.3998
 20
26.2324
 30
0.0
 10
-39.3998
 20
26.2324
 30
0.0
  0
SPLINE
  5
45
330
1F
100
AcDbEntity
  8
ROUND
 62
   250
100
AcDbSpline
210
0.0
220
0.0
230
1.0
 70
    24
 71
     3
 72
     8
 73
     4
 74
     0
 42
0.0000000001
 43
0.0000000001
 40
0.0
 40
0.0
 40
0.0
 40
0.0
 40
1.0
 40
1.0
 40
1.0
 40
1.0
 10
4.0785
 20
-20.7477
 30
0.0
 10
4.0785
 20
-20.7477
 30
0.0
 10
4.0785
 20
-27.896
 30
0.0
 10
4.0785
 20
-27.896
 30
0.0
  0
SPLINE
  5
46
330
1F
100
AcDbEntity
  8
ROUND
 62
   250
100
AcDbSpline
210
0.0
220
0.0
230
1.0
 70
    24
 71
     3
 72
     8
 73
     4
 74
     0
 42
0.0000000001
 43
0.0000000001
 40
0.0
 40
0.0
 40
0.0
 40
0.0
 40
1.0
 40
1.0
 40
1.0
 40
1.0
 10
-39.3998
 20
-2.245
 30
0.0
 10
-39.3998
 20
-2.245
 30
0.0
 10
-39.3998
 20
-27.896
 30
0.0
 10
-39.3998
 20
-27.896
 30
0.0
  0
SPLINE
  5
47
330
1F
100
AcDbEntity
  8
ROUND
 62
   250
100
AcDbSpline
210
0.0
220
0.0
230
1.0
 70
    24
 71
     3
 72
     8
 73
     4
 74
     0
 42
0.0000000001
 43
0.0000000001
 40
0.0
 40
0.0
 40
0.0
 40
0.0
 40
1.0
 40
1.0
 40
1.0
 40
1.0
 10
27.2777
 20
20.0572
 30
0.0
 10
27.2777
 20
20.0572
 30
0.0
 10
12.1567
 20
20.0572
 30
0.0
 10
12.1567
 20
20.0572
 30
0.0
  0
SPLINE
  5
48
330
1F
100
AcDbEntity
  8
ROUND
 62
   250
100
AcDbSpline
210
0.0
220
0.0
230
1.0
 70
    24
 71
     3
 72
     8
 73
     4
 74
     0
 42
0.0000000001
 43
0.0000000001
 40
0.0
 40
0.0
 40
0.0
 40
0.0
 40
1.0
 40
1.0
 40
1.0
 40
1.0
 10
31.7435
 20
-20.4145
 30
0.0
 10
31.7435
 20
-20.4145
 30
0.0
 10
11.5826
 20
-20.4145
 30
0.0
 10
11.5826
 20
-20.4145
 30
0.0
  0
SPLINE
  5
49
330
1F
100
AcDbEntity
  8
ROUND
 62
   250
100
AcDbSpline
210
0.0
220
0.0
230
1.0
 70
    24
 71
     3
 72
     8
 73
     4
 74
     0
 42
0.0000000001
 43
0.0000000001
 40
0.0
 40
0.0
 40
0.0
 40
0.0
 40
1.0
 40
1.0
 40
1.0
 40
1.0
 10
25.1049
 20
6.1812
 30
0.0
 10
25.1049
 20
6.1812
 30
0.0
 10
17.4936
 20
6.1812
 30
0.0
 10
17.4936
 20
6.1812
 30
0.0
  0
SPLINE
  5
4A
330
1F
100
AcDbEntity
  8
ROUND
 62
   250
100
AcDbSpline
210
0.0
220
0.0
230
1.0
 70
    24
 71
     3
 72
     8
 73
     4
 74
     0
 42
0.0000000001
 43
0.0000000001
 40
0.0
 40
0.0
 40
0.0
 40
0.0
 40
1.0
 40
1.0
 40
1.0
 40
1.0
 10
27.6178
 20
-14.6328
 30
0.0
 10
27.6178
 20
-14.6328
 30
0.0
 10
17.4288
 20
-14.6328
 30
0.0
 10
17.4288
 20
-14.6328
 30
0.0
  0
SPLINE
  5
4B
330
1F
100
AcDbEntity
  8
ROUND
 62
   250
100
AcDbSpline
210
0.0
220
0.0
230
1.0
 70
    24
 71
     3
 72
     8
 73
     4
 74
     0
 42
0.0000000001
 43
0.0000000001
 40
0.0
 40
0.0
 40
0.0
 40
0.0
 40
1.0
 40
1.0
 40
1.0
 40
1.0
 10
45.4254
 20
8.4448
 30
0.0
 10
45.4254
 20
8.4448
 30
0.0
 10
45.4254
 20
26.3892
 30
0.0
 10
45.4254
 20
26.3892
 30
0.0
  0
SPLINE
  5
4C
330
1F
100
AcDbEntity
  8
ROUND
 62
   250
100
AcDbSpline
210
0.0
220
0.0
230
1.0
 70
    24
 71
     3
 72
     8
 73
     4
 74
     0
 42
0.0000000001
 43
0.0000000001
 40
0.0
 40
0.0
 40
0.0
 40
0.0
 40
1.0
 40
1.0
 40
1.0
 40
1.0
 10
22.2989
 20
14.833
 30
0.0
 10
22.2989
 20
14.833
 30
0.0
 10
22.2989
 20
26.2067
 30
0.0
 10
22.2989
 20
26.2067
 30
0.0
  0
SPLINE
  5
4D
330
1F
100
AcDbEntity
  8
ROUND
 62
   250
100
AcDbSpline
210
0.0
220
0.0
230
1.0
 70
    24
 71
     3
 72
     8
 73
     4
 74
     0
 42
0.0000000001
 43
0.0000000001
 40
0.0
 40
0.0
 40
0.0
 40
0.0
 40
1.0
 40
1.0
 40
1.0
 40
1.0
 10
4.0785
 20
-20.1666
 30
0.0
 10
4.0785
 20
-20.1666
 30
0.0
 10
3.1534
 20
-20.4145
 30
0.0
 10
3.1534
 20
-20.4145
 30
0.0
  0
SPLINE
  5
4E
330
1F
100
AcDbEntity
  8
ROUND
 62
   250
100
AcDbSpline
210
0.0
220
0.0
230
1.0
 70
    24
 71
     3
 72
     8
 73
     4
 74
     0
 42
0.0000000001
 43
0.0000000001
 40
0.0
 40
0.0
 40
0.0
 40
0.0
 40
1.0
 40
1.0
 40
1.0
 40
1.0
 10
4.0785
 20
-9.099
 30
0.0
 10
4.0785
 20
-9.099
 30
0.0
 10
4.0785
 20
-20.1666
 30
0.0
 10
4.0785
 20
-20.1666
 30
0.0
  0
SPLINE
  5
4F
330
1F
100
AcDbEntity
  8
ROUND
 62
   250
100
AcDbSpline
210
0.0
220
0.0
230
1.0
 70
    24
 71
     3
 72
     8
 73
     4
 74
     0
 42
0.0000000001
 43
0.0000000001
 40
0.0
 40
0.0
 40
0.0
 40
0.0
 40
1.0
 40
1.0
 40
1.0
 40
1.0
 10
3.1534
 20
-8.8511
 30
0.0
 10
3.1534
 20
-8.8511
 30
0.0
 10
3.1534
 20
-20.4145
 30
0.0
 10
3.1534
 20
-20.4145
 30
0.0
  0
SPLINE
  5
50
330
1F
100
AcDbEntity
  8
ROUND
 62
   250
100
AcDbSpline
210
0.0
220
0.0
230
1.0
 70
    24
 71
     3
 72
     8
 73
     4
 74
     0
 42
0.0000000001
 43
0.0000000001
 40
0.0
 40
0.0
 40
0.0
 40
0.0
 40
1.0
 40
1.0
 40
1.0
 40
1.0
 10
4.0785
 20
-9.099
 30
0.0
 10
4.0785
 20
-9.099
 30
0.0
 10
3.1534
 20
-8.8511
 30
0.0
 10
3.1534
 20
-8.8511
 30
0.0
  0
SPLINE
  5
51
330
1F
100
AcDbEntity
  8
ROUND
  6
NEW_LINE1
 62
   250
100
AcDbSpline
210
0.0
220
0.0
230
1.0
 70
    24
 71
     3
 72
     8
 73
     4
 74
     0
 42
0.0000000001
 43
0.0000000001
 40
0.0
 40
0.0
 40
0.0
 40
0.0
 40
1.0
 40
1.0
 40
1.0
 40
1.0
 10
40.581
 20
-14.6328
 30
0.0
 10
40.581
 20
-14.6328
 30
0.0
 10
27.6178
 20
-14.6328
 30
0.0
 10
27.6178
 20
-14.6328
 30
0.0
  0
SPLINE
  5
53
330
1F
100
AcDbEntity
  8
ROUND
  6
NEW_LINE2
 62
   250
100
AcDbSpline
210
0.0
220
0.0
230
1.0
 70
    24
 71
     3
 72
     8
 73
     4
 74
     0
 42
0.0000000001
 43
0.0000000001
 40
0.0
 40
0.0
 40
0.0
 40
0.0
 40
1.0
 40
1.0
 40
1.0
 40
1.0
 10
33.862
 20
15.0676
 30
0.0
 10
33.862
 20
15.0676
 30
0.0
 10
33.862
 20
-2.8281
 30
0.0
 10
33.862
 20
-2.8281
 30
0.0
  0
SPLINE
  5
55
330
1F
100
AcDbEntity
  8
ROUND
  6
NEW_LINE3
 62
   250
100
AcDbSpline
210
0.0
220
0.0
230
1.0
 70
    24
 71
     3
 72
     8
 73
     4
 74
     0
 42
0.0000000001
 43
0.0000000001
 40
0.0
 40
0.0
 40
0.0
 40
0.0
 40
1.0
 40
1.0
 40
1.0
 40
1.0
 10
33.862
 20
-21.7737
 30
0.0
 10
33.862
 20
-21.7737
 30
0.0
 10
33.862
 20
-8.3886
 30
0.0
 10
33.862
 20
-8.3886
 30
0.0
  0
SPLINE
  5
57
330
1F
100
AcDbEntity
  8
ROUND
  6
NEW_LINE4
 62
   250
100
AcDbSpline
210
0.0
220
0.0
230
1.0
 70
    24
 71
     3
 72
     8
 73
     4
 74
     0
 42
0.0000000001
 43
0.0000000001
 40
0.0
 40
0.0
 40
0.0
 40
0.0
 40
1.0
 40
1.0
 40
1.0
 40
1.0
 10
25.3332
 20
6.1812
 30
0.0
 10
25.3332
 20
6.1812
 30
0.0
 10
43.3658
 20
6.1812
 30
0.0
 10
43.3658
 20
6.1812
 30
0.0
  0
SPLINE
  5
59
330
1F
100
AcDbEntity
  8
ROUND
 62
   250
100
AcDbSpline
210
0.0
220
0.0
230
1.0
 70
    24
 71
     3
 72
     8
 73
     4
 74
     0
 42
0.0000000001
 43
0.0000000001
 40
0.0
 40
0.0
 40
0.0
 40
0.0
 40
1.0
 40
1.0
 40
1.0
 40
1.0
 10
3.1534
 20
-20.4145
 30
0.0
 10
3.1534
 20
-20.4145
 30
0.0
 10
-30.1491
 20
-20.4145
 30
0.0
 10
-30.1491
 20
-20.4145
 30
0.0
  0
SPLINE
  5
5A
330
1F
100
AcDbEntity
  8
ROUND
  6
NEW_LINE5
 62
   250
100
AcDbSpline
210
0.0
220
0.0
230
1.0
 70
    24
 71
     3
 72
     8
 73
     4
 74
     0
 42
0.0000000001
 43
0.0000000001
 40
0.0
 40
0.0
 40
0.0
 40
0.0
 40
1.0
 40
1.0
 40
1.0
 40
1.0
 10
-32.2471
 20
-14.6328
 30
0.0
 10
-32.2471
 20
-14.6328
 30
0.0
 10
5.3732
 20
-14.6328
 30
0.0
 10
5.3732
 20
-14.6328
 30
0.0
  0
SPLINE
  5
5C
330
1F
100
AcDbEntity
  8
ROUND
 62
   250
100
AcDbSpline
210
0.0
220
0.0
230
1.0
 70
    24
 71
     3
 72
     8
 73
     4
 74
     0
 42
0.0000000001
 43
0.0000000001
 40
0.0
 40
0.0
 40
0.0
 40
0.0
 40
1.0
 40
1.0
 40
1.0
 40
1.0
 10
3.1534
 20
-8.8511
 30
0.0
 10
3.1534
 20
-8.8511
 30
0.0
 10
-21.3609
 20
-8.8511
 30
0.0
 10
-21.3609
 20
-8.8511
 30
0.0
  0
SPLINE
  5
5D
330
1F
100
AcDbEntity
  8
ROUND
 62
   250
100
AcDbSpline
210
0.0
220
0.0
230
1.0
 70
    24
 71
     3
 72
     8
 73
     4
 74
     0
 42
0.0000000001
 43
0.0000000001
 40
0.0
 40
0.0
 40
0.0
 40
0.0
 40
1.0
 40
1.0
 40
1.0
 40
1.0
 10
-33.6181
 20
-1.9131
 30
0.0
 10
-33.6181
 20
-1.9131
 30
0.0
 10
-38.706
 20
-1.9131
 30
0.0
 10
-38.706
 20
-1.9131
 30
0.0
  0
SPLINE
  5
5E
330
1F
100
AcDbEntity
  8
ROUND
 62
   250
100
AcDbSpline
210
0.0
220
0.0
230
1.0
 70
    24
 71
     3
 72
     8
 73
     4
 74
     0
 42
0.0000000001
 43
0.0000000001
 40
0.0
 40
0.0
 40
0.0
 40
0.0
 40
1.0
 40
1.0
 40
1.0
 40
1.0
 10
-31.0742
 20
-0.5255
 30
0.0
 10
-31.0742
 20
-0.5255
 30
0.0
 10
-33.6181
 20
-0.5255
 30
0.0
 10
-33.6181
 20
-0.5255
 30
0.0
  0
SPLINE
  5
5F
330
1F
100
AcDbEntity
  8
ROUND
  6
NEW_LINE6
 62
   250
100
AcDbSpline
210
0.0
220
0.0
230
1.0
 70
    24
 71
     3
 72
     8
 73
     4
 74
     0
 42
0.0000000001
 43
0.0000000001
 40
0.0
 40
0.0
 40
0.0
 40
0.0
 40
1.0
 40
1.0
 40
1.0
 40
1.0
 10
-39.8623
 20
6.1812
 30
0.0
 10
-39.8623
 20
6.1812
 30
0.0
 10
-30.6116
 20
6.1812
 30
0.0
 10
-30.6116
 20
6.1812
 30
0.0
  0
SPLINE
  5
61
330
1F
100
AcDbEntity
  8
ROUND
 62
   250
100
AcDbSpline
210
0.0
220
0.0
230
1.0
 70
    24
 71
     3
 72
     8
 73
     4
 74
     0
 42
0.0000000001
 43
0.0000000001
 40
0.0
 40
0.0
 40
0.0
 40
0.0
 40
1.0
 40
1.0
 40
1.0
 40
1.0
 10
-31.0742
 20
12.8879
 30
0.0
 10
-31.0742
 20
12.8879
 30
0.0
 10
-33.6181
 20
12.8879
 30
0.0
 10
-33.6181
 20
12.8879
 30
0.0
  0
SPLINE
  5
62
330
1F
100
AcDbEntity
  8
ROUND
 62
   250
100
AcDbSpline
210
0.0
220
0.0
230
1.0
 70
    24
 71
     3
 72
     8
 73
     4
 74
     0
 42
0.0000000001
 43
0.0000000001
 40
0.0
 40
0.0
 40
0.0
 40
0.0
 40
1.0
 40
1.0
 40
1.0
 40
1.0
 10
-33.6181
 20
14.2755
 30
0.0
 10
-33.6181
 20
14.2755
 30
0.0
 10
-38.706
 20
14.2755
 30
0.0
 10
-38.706
 20
14.2755
 30
0.0
  0
SPLINE
  5
63
330
1F
100
AcDbEntity
  8
ROUND
 62
   250
100
AcDbSpline
210
0.0
220
0.0
230
1.0
 70
    24
 71
     3
 72
     8
 73
     4
 74
     0
 42
0.0000000001
 43
0.0000000001
 40
0.0
 40
0.0
 40
0.0
 40
0.0
 40
1.0
 40
1.0
 40
1.0
 40
1.0
 10
-33.6181
 20
14.2755
 30
0.0
 10
-33.6181
 20
14.2755
 30
0.0
 10
-33.6181
 20
-1.9131
 30
0.0
 10
-33.6181
 20
-1.9131
 30
0.0
  0
SPLINE
  5
64
330
1F
100
AcDbEntity
  8
ROUND
 62
   250
100
AcDbSpline
210
0.0
220
0.0
230
1.0
 70
    24
 71
     3
 72
     8
 73
     4
 74
     0
 42
0.0000000001
 43
0.0000000001
 40
0.0
 40
0.0
 40
0.0
 40
0.0
 40
1.0
 40
1.0
 40
1.0
 40
1.0
 10
45.4254
 20
-1.9131
 30
0.0
 10
45.4254
 20
-1.9131
 30
0.0
 10
45.4254
 20
5.141
 30
0.0
 10
45.4254
 20
5.141
 30
0.0
  0
SPLINE
  5
65
330
1F
100
AcDbEntity
  8
ROUND
 62
   250
100
AcDbSpline
210
0.0
220
0.0
230
1.0
 70
    24
 71
     3
 72
     8
 73
     4
 74
     0
 42
0.0000000001
 43
0.0000000001
 40
0.0
 40
0.0
 40
0.0
 40
0.0
 40
1.0
 40
1.0
 40
1.0
 40
1.0
 10
22.2987
 20
11.9629
 30
0.0
 10
22.2987
 20
11.9629
 30
0.0
 10
22.2987
 20
-1.9131
 30
0.0
 10
22.2987
 20
-1.9131
 30
0.0
  0
SPLINE
  5
66
330
1F
100
AcDbEntity
  8
ROUND
 62
   250
100
AcDbSpline
210
0.0
220
0.0
230
1.0
 70
    24
 71
     3
 72
     8
 73
     4
 74
     0
 42
0.0000000001
 43
0.0000000001
 40
0.0
 40
0.0
 40
0.0
 40
0.0
 40
1.0
 40
1.0
 40
1.0
 40
1.0
 10
43.0546
 20
10.8646
 30
0.0
 10
43.0546
 20
10.8646
 30
0.0
 10
36.2328
 20
17.6864
 30
0.0
 10
36.2328
 20
17.6864
 30
0.0
  0
SPLINE
  5
67
330
1F
100
AcDbEntity
  8
ROUND
 62
   250
100
AcDbSpline
210
0.0
220
0.0
230
1.0
 70
    24
 71
     3
 72
     8
 73
     4
 74
     0
 42
0.0000000001
 43
0.0000000001
 40
0.0
 40
0.0
 40
0.0
 40
0.0
 40
1.0
 40
1.0
 40
1.0
 40
1.0
 10
-21.8235
 20
-12.3202
 30
0.0
 10
-21.8235
 20
-12.3202
 30
0.0
 10
-30.1491
 20
-12.3202
 30
0.0
 10
-30.1491
 20
-12.3202
 30
0.0
  0
SPLINE
  5
68
330
1F
100
AcDbEntity
  8
ROUND
 62
   250
100
AcDbSpline
210
0.0
220
0.0
230
1.0
 70
    24
 71
     3
 72
     8
 73
     4
 74
     0
 42
0.0000000001
 43
0.0000000001
 40
0.0
 40
0.0
 40
0.0
 40
0.0
 40
1.0
 40
1.0
 40
1.0
 40
1.0
 10
-21.3609
 20
19.5947
 30
0.0
 10
-21.3609
 20
19.5947
 30
0.0
 10
-21.3609
 20
-11.9039
 30
0.0
 10
-21.3609
 20
-11.9039
 30
0.0
  0
SPLINE
  5
69
330
1F
100
AcDbEntity
  8
ROUND
 62
   250
100
AcDbSpline
210
0.0
220
0.0
230
1.0
 70
    24
 71
     3
 72
     8
 73
     4
 74
     0
 42
0.0000000001
 43
0.0000000001
 40
0.0
 40
0.0
 40
0.0
 40
0.0
 40
1.0
 40
1.0
 40
1.0
 40
1.0
 10
-30.6116
 20
-19.952
 30
0.0
 10
-30.6116
 20
-19.952
 30
0.0
 10
-30.6116
 20
19.5947
 30
0.0
 10
-30.6116
 20
19.5947
 30
0.0
  0
SPLINE
  5
6A
330
1F
100
AcDbEntity
  8
ROUND
 62
   250
100
AcDbSpline
210
0.0
220
0.0
230
1.0
 70
    24
 71
     3
 72
     8
 73
     4
 74
     0
 42
0.0000000001
 43
0.0000000001
 40
0.0
 40
0.0
 40
0.0
 40
0.0
 40
1.0
 40
1.0
 40
1.0
 40
1.0
 10
-30.1491
 20
20.0572
 30
0.0
 10
-30.1491
 20
20.0572
 30
0.0
 10
-21.8235
 20
20.0572
 30
0.0
 10
-21.8235
 20
20.0572
 30
0.0
  0
SPLINE
  5
6B
330
1F
100
AcDbEntity
  8
ROUND
 62
   250
100
AcDbSpline
210
0.0
220
0.0
230
1.0
 70
    24
 71
     3
 72
     8
 73
     4
 74
     0
 42
0.0000000001
 43
0.0000000001
 40
0.0
 40
0.0
 40
0.0
 40
0.0
 40
1.0
 40
1.0
 40
1.0
 40
1.0
 10
-39.3998
 20
13.5817
 30
0.0
 10
-39.3998
 20
13.5817
 30
0.0
 10
-39.3998
 20
-1.2193
 30
0.0
 10
-39.3998
 20
-1.2193
 30
0.0
  0
SPLINE
  5
6C
330
1F
100
AcDbEntity
  8
ROUND
 62
   250
100
AcDbSpline
210
0.0
220
0.0
230
1.0
 70
     8
 71
     3
 72
     8
 73
     4
 74
     0
 42
0.0000000001
 43
0.0000000001
 40
0.0
 40
0.0
 40
0.0
 40
0.0
 40
1.0
 40
1.0
 40
1.0
 40
1.0
 10
39.161
 20
-12.3202
 30
0.0
 10
43.0498
 20
-10.3156
 30
0.0
 10
45.4742
 20
-6.2879
 30
0.0
 10
45.4254
 20
-1.9131
 30
0.0
  0
SPLINE
  5
6D
330
1F
100
AcDbEntity
  8
ROUND
 62
   250
100
AcDbSpline
210
0.0
220
0.0
230
1.0
 70
     8
 71
     3
 72
     8
 73
     4
 74
     0
 42
0.0000000001
 43
0.0000000001
 40
0.0
 40
0.0
 40
0.0
 40
0.0
 40
1.0
 40
1.0
 40
1.0
 40
1.0
 10
22.2987
 20
-1.9131
 30
0.0
 10
22.2987
 20
-6.3835
 30
0.0
 10
25.9226
 20
-10.0075
 30
0.0
 10
30.393
 20
-10.0075
 30
0.0
  0
SPLINE
  5
6E
330
1F
100
AcDbEntity
  8
ROUND
 62
   250
100
AcDbSpline
210
0.0
220
0.0
230
1.0
 70
     8
 71
     3
 72
    16
 73
    12
 74
     0
 42
0.0000000001
 43
0.0000000001
 40
0.0
 40
0.0
 40
0.0
 40
0.0
 40
0.25
 40
0.25
 40
0.25
 40
0.25
 40
0.5
 40
0.5
 40
0.5
 40
0.5
 40
1.0
 40
1.0
 40
1.0
 40
1.0
 10
30.393
 20
-10.0075
 30
0.0
 10
27.9771
 20
-11.8195
 30
0.0
 10
27.3626
 20
-15.1855
 30
0.0
 10
28.9825
 20
-17.7342
 30
0.0
 10
28.9825
 20
-17.7342
 30
0.0
 10
30.6024
 20
-20.2829
 30
0.0
 10
33.911
 20
-21.1555
 30
0.0
 10
36.5772
 20
-19.7374
 30
0.0
 10
36.5772
 20
-19.7374
 30
0.0
 10
39.2434
 20
-18.3192
 30
0.0
 10
40.369
 20
-15.088
 30
0.0
 10
39.161
 20
-12.3202
 30
0.0
  0
SPLINE
  5
6F
330
1F
100
AcDbEntity
  8
ROUND
 62
   250
100
AcDbSpline
210
0.0
220
0.0
230
1.0
 70
     8
 71
     3
 72
     8
 73
     4
 74
     0
 42
0.0000000001
 43
0.0000000001
 40
0.0
 40
0.0
 40
0.0
 40
0.0
 40
1.0
 40
1.0
 40
1.0
 40
1.0
 10
45.4254
 20
5.141
 30
0.0
 10
45.4254
 20
7.2878
 30
0.0
 10
44.5726
 20
9.3466
 30
0.0
 10
43.0546
 20
10.8646
 30
0.0
  0
SPLINE
  5
70
330
1F
100
AcDbEntity
  8
ROUND
 62
   250
100
AcDbSpline
210
0.0
220
0.0
230
1.0
 70
    11
 71
     3
 72
    20
 73
    16
 74
     0
 42
0.0000000001
 43
0.0000000001
 40
0.0
 40
0.0
 40
0.0
 40
0.0
 40
0.2
 40
0.2
 40
0.2
 40
0.2
 40
0.4
 40
0.4
 40
0.4
 40
0.4
 40
0.6
 40
0.6
 40
0.6
 40
0.6
 40
1.0
 40
1.0
 40
1.0
 40
1.0
 10
33.862
 20
14.2755
 30
0.0
 10
29.3916
 20
14.2755
 30
0.0
 10
25.7677
 20
10.6516
 30
0.0
 10
25.7677
 20
6.1812
 30
0.0
 10
25.7677
 20
6.1812
 30
0.0
 10
25.7677
 20
1.7108
 30
0.0
 10
29.3916
 20
-1.9131
 30
0.0
 10
33.862
 20
-1.9131
 30
0.0
 10
33.862
 20
-1.9131
 30
0.0
 10
38.3324
 20
-1.9131
 30
0.0
 10
41.9564
 20
1.7108
 30
0.0
 10
41.9564
 20
6.1812
 30
0.0
 10
41.9564
 20
6.1812
 30
0.0
 10
41.9564
 20
10.6515
 30
0.0
 10
38.3324
 20
14.2755
 30
0.0
 10
33.862
 20
14.2755
 30
0.0
  0
SPLINE
  5
71
330
1F
100
AcDbEntity
  8
ROUND
 62
   250
100
AcDbSpline
210
0.0
220
0.0
230
1.0
 70
     8
 71
     3
 72
     8
 73
     4
 74
     0
 42
0.0000000001
 43
0.0000000001
 40
0.0
 40
0.0
 40
0.0
 40
0.0
 40
1.0
 40
1.0
 40
1.0
 40
1.0
 10
36.2328
 20
17.6864
 30
0.0
 10
34.7149
 20
19.2044
 30
0.0
 10
32.656
 20
20.0572
 30
0.0
 10
30.5093
 20
20.0572
 30
0.0
  0
SPLINE
  5
72
330
1F
100
AcDbEntity
  8
ROUND
 62
   250
100
AcDbSpline
210
0.0
220
0.0
230
1.0
 70
     8
 71
     3
 72
     8
 73
     4
 74
     0
 42
0.0000000001
 43
0.0000000001
 40
0.0
 40
0.0
 40
0.0
 40
0.0
 40
1.0
 40
1.0
 40
1.0
 40
1.0
 10
30.393
 20
20.0572
 30
0.0
 10
25.9226
 20
20.0572
 30
0.0
 10
22.2987
 20
16.4333
 30
0.0
 10
22.2987
 20
11.9629
 30
0.0
  0
SPLINE
  5
73
330
1F
100
AcDbEntity
  8
ROUND
 62
   250
100
AcDbSpline
210
0.0
220
0.0
230
1.0
 70
    11
 71
     3
 72
    20
 73
    16
 74
     0
 42
0.0000000001
 43
0.0000000001
 40
0.0
 40
0.0
 40
0.0
 40
0.0
 40
0.2
 40
0.2
 40
0.2
 40
0.2
 40
0.4
 40
0.4
 40
0.4
 40
0.4
 40
0.6
 40
0.6
 40
0.6
 40
0.6
 40
1.0
 40
1.0
 40
1.0
 40
1.0
 10
33.862
 20
12.0996
 30
0.0
 10
30.5934
 20
12.0996
 30
0.0
 10
27.9436
 20
9.4498
 30
0.0
 10
27.9436
 20
6.1812
 30
0.0
 10
27.9436
 20
6.1812
 30
0.0
 10
27.9436
 20
2.9125
 30
0.0
 10
30.5934
 20
0.2628
 30
0.0
 10
33.862
 20
0.2628
 30
0.0
 10
33.862
 20
0.2628
 30
0.0
 10
37.1307
 20
0.2628
 30
0.0
 10
39.7804
 20
2.9125
 30
0.0
 10
39.7804
 20
6.1812
 30
0.0
 10
39.7804
 20
6.1812
 30
0.0
 10
39.7804
 20
9.4498
 30
0.0
 10
37.1307
 20
12.0996
 30
0.0
 10
33.862
 20
12.0996
 30
0.0
  0
SPLINE
  5
74
330
1F
100
AcDbEntity
  8
ROUND
 62
   250
100
AcDbSpline
210
0.0
220
0.0
230
1.0
 70
     8
 71
     3
 72
     8
 73
     4
 74
     0
 42
0.0000000001
 43
0.0000000001
 40
0.0
 40
0.0
 40
0.0
 40
0.0
 40
1.0
 40
1.0
 40
1.0
 40
1.0
 10
-39.3998
 20
-1.2193
 30
0.0
 10
-39.3998
 20
-1.6025
 30
0.0
 10
-39.0891
 20
-1.9131
 30
0.0
 10
-38.706
 20
-1.9131
 30
0.0
  0
SPLINE
  5
75
330
1F
100
AcDbEntity
  8
ROUND
 62
   250
100
AcDbSpline
210
0.0
220
0.0
230
1.0
 70
     8
 71
     3
 72
     8
 73
     4
 74
     0
 42
0.0000000001
 43
0.0000000001
 40
0.0
 40
0.0
 40
0.0
 40
0.0
 40
1.0
 40
1.0
 40
1.0
 40
1.0
 10
-38.706
 20
14.2755
 30
0.0
 10
-39.0891
 20
14.2755
 30
0.0
 10
-39.3998
 20
13.9649
 30
0.0
 10
-39.3998
 20
13.5817
 30
0.0
  0
SPLINE
  5
76
330
1F
100
AcDbEntity
  8
ROUND
 62
   250
100
AcDbSpline
210
0.0
220
0.0
230
1.0
 70
     8
 71
     3
 72
     8
 73
     4
 74
     0
 42
0.0000000001
 43
0.0000000001
 40
0.0
 40
0.0
 40
0.0
 40
0.0
 40
1.0
 40
1.0
 40
1.0
 40
1.0
 10
-30.6138
 20
-0.9427
 30
0.0
 10
-30.6371
 20
-0.706
 30
0.0
 10
-30.8363
 20
-0.5255
 30
0.0
 10
-31.0742
 20
-0.5255
 30
0.0
  0
SPLINE
  5
77
330
1F
100
AcDbEntity
  8
ROUND
 62
   250
100
AcDbSpline
210
0.0
220
0.0
230
1.0
 70
     8
 71
     3
 72
     8
 73
     4
 74
     0
 42
0.0000000001
 43
0.0000000001
 40
0.0
 40
0.0
 40
0.0
 40
0.0
 40
1.0
 40
1.0
 40
1.0
 40
1.0
 10
-31.0742
 20
12.8879
 30
0.0
 10
-30.8187
 20
12.8879
 30
0.0
 10
-30.6116
 20
13.095
 30
0.0
 10
-30.6116
 20
13.3505
 30
0.0
  0
SPLINE
  5
78
330
1F
100
AcDbEntity
  8
ROUND
 62
   250
100
AcDbSpline
210
0.0
220
0.0
230
1.0
 70
     8
 71
     3
 72
     8
 73
     4
 74
     0
 42
0.0000000001
 43
0.0000000001
 40
0.0
 40
0.0
 40
0.0
 40
0.0
 40
1.0
 40
1.0
 40
1.0
 40
1.0
 10
-30.6116
 20
-19.952
 30
0.0
 10
-30.6116
 20
-20.2074
 30
0.0
 10
-30.4045
 20
-20.4145
 30
0.0
 10
-30.1491
 20
-20.4145
 30
0.0
  0
SPLINE
  5
79
330
1F
100
AcDbEntity
  8
ROUND
 62
   250
100
AcDbSpline
210
0.0
220
0.0
230
1.0
 70
     8
 71
     3
 72
     8
 73
     4
 74
     0
 42
0.0000000001
 43
0.0000000001
 40
0.0
 40
0.0
 40
0.0
 40
0.0
 40
1.0
 40
1.0
 40
1.0
 40
1.0
 10
-30.1491
 20
20.0572
 30
0.0
 10
-30.4045
 20
20.0572
 30
0.0
 10
-30.6116
 20
19.8501
 30
0.0
 10
-30.6116
 20
19.5947
 30
0.0
  0
SPLINE
  5
7A
330
1F
100
AcDbEntity
  8
ROUND
 62
   250
100
AcDbSpline
210
0.0
220
0.0
230
1.0
 70
     8
 71
     3
 72
     8
 73
     4
 74
     0
 42
0.0000000001
 43
0.0000000001
 40
0.0
 40
0.0
 40
0.0
 40
0.0
 40
1.0
 40
1.0
 40
1.0
 40
1.0
 10
-21.3609
 20
19.5947
 30
0.0
 10
-21.3609
 20
19.8501
 30
0.0
 10
-21.568
 20
20.0572
 30
0.0
 10
-21.8235
 20
20.0572
 30
0.0
  0
SPLINE
  5
7B
330
1F
100
AcDbEntity
  8
ROUND
 62
   250
100
AcDbSpline
210
0.0
220
0.0
230
1.0
 70
     8
 71
     3
 72
    72
 73
    68
 74
     0
 42
0.0000000001
 43
0.0000000001
 40
0.0
 40
0.0
 40
0.0
 40
0.0
 40
0.0555555555555556
 40
0.0555555555555556
 40
0.0555555555555556
 40
0.0555555555555556
 40
0.1111111111111111
 40
0.1111111111111111
 40
0.1111111111111111
 40
0.1111111111111111
 40
0.1666666666666667
 40
0.1666666666666667
 40
0.1666666666666667
 40
0.1666666666666667
 40
0.2222222222222222
 40
0.2222222222222222
 40
0.2222222222222222
 40
0.2222222222222222
 40
0.2777777777777778
 40
0.2777777777777778
 40
0.2777777777777778
 40
0.2777777777777778
 40
0.3333333333333333
 40
0.3333333333333333
 40
0.3333333333333333
 40
0.3333333333333333
 40
0.3888888888888889
 40
0.3888888888888889
 40
0.3888888888888889
 40
0.3888888888888889
 40
0.4444444444444444
 40
0.4444444444444444
 40
0.4444444444444444
 40
0.4444444444444444
 40
0.5
 40
0.5
 40
0.5
 40
0.5
 40
0.5555555555555556
 40
0.5555555555555556
 40
0.5555555555555556
 40
0.5555555555555556
 40
0.6111111111111112
 40
0.6111111111111112
 40
0.6111111111111112
 40
0.6111111111111112
 40
0.6666666666666666
 40
0.6666666666666666
 40
0.6666666666666666
 40
0.6666666666666666
 40
0.7222222222222222
 40
0.7222222222222222
 40
0.7222222222222222
 40
0.7222222222222222
 40
0.7777777777777778
 40
0.7777777777777778
 40
0.7777777777777778
 40
0.7777777777777778
 40
0.8333333333333334
 40
0.8333333333333334
 40
0.8333333333333334
 40
0.8333333333333334
 40
0.8888888888888888
 40
0.8888888888888888
 40
0.8888888888888888
 40
0.8888888888888888
 40
1.0
 40
1.0
 40
1.0
 40
1.0
 10
-21.3609
 20
-11.9039
 30
0.0
 10
-21.3609
 20
-11.9039
 30
0.0
 10
-21.3629
 20
-11.9414
 30
0.0
 10
-21.3629
 20
-11.9414
 30
0.0
 10
-21.3629
 20
-11.9414
 30
0.0
 10
-21.3629
 20
-11.9414
 30
0.0
 10
-21.3687
 20
-11.9788
 30
0.0
 10
-21.3687
 20
-11.9788
 30
0.0
 10
-21.3687
 20
-11.9788
 30
0.0
 10
-21.3687
 20
-11.9788
 30
0.0
 10
-21.3785
 20
-12.0159
 30
0.0
 10
-21.3785
 20
-12.0159
 30
0.0
 10
-21.3785
 20
-12.0159
 30
0.0
 10
-21.3785
 20
-12.0159
 30
0.0
 10
-21.3921
 20
-12.0521
 30
0.0
 10
-21.3921
 20
-12.0521
 30
0.0
 10
-21.3921
 20
-12.0521
 30
0.0
 10
-21.3921
 20
-12.0521
 30
0.0
 10
-21.4093
 20
-12.087
 30
0.0
 10
-21.4093
 20
-12.087
 30
0.0
 10
-21.4093
 20
-12.087
 30
0.0
 10
-21.4093
 20
-12.087
 30
0.0
 10
-21.43
 20
-12.1206
 30
0.0
 10
-21.43
 20
-12.1206
 30
0.0
 10
-21.43
 20
-12.1206
 30
0.0
 10
-21.43
 20
-12.1206
 30
0.0
 10
-21.4541
 20
-12.1524
 30
0.0
 10
-21.4541
 20
-12.1524
 30
0.0
 10
-21.4541
 20
-12.1524
 30
0.0
 10
-21.4541
 20
-12.1524
 30
0.0
 10
-21.4814
 20
-12.1822
 30
0.0
 10
-21.4814
 20
-12.1822
 30
0.0
 10
-21.4814
 20
-12.1822
 30
0.0
 10
-21.4814
 20
-12.1822
 30
0.0
 10
-21.5115
 20
-12.2096
 30
0.0
 10
-21.5115
 20
-12.2096
 30
0.0
 10
-21.5115
 20
-12.2096
 30
0.0
 10
-21.5115
 20
-12.2096
 30
0.0
 10
-21.5444
 20
-12.2344
 30
0.0
 10
-21.5444
 20
-12.2344
 30
0.0
 10
-21.5444
 20
-12.2344
 30
0.0
 10
-21.5444
 20
-12.2344
 30
0.0
 10
-21.5796
 20
-12.2565
 30
0.0
 10
-21.5796
 20
-12.2565
 30
0.0
 10
-21.5796
 20
-12.2565
 30
0.0
 10
-21.5796
 20
-12.2565
 30
0.0
 10
-21.6168
 20
-12.2755
 30
0.0
 10
-21.6168
 20
-12.2755
 30
0.0
 10
-21.6168
 20
-12.2755
 30
0.0
 10
-21.6168
 20
-12.2755
 30
0.0
 10
-21.6559
 20
-12.2913
 30
0.0
 10
-21.6559
 20
-12.2913
 30
0.0
 10
-21.6559
 20
-12.2913
 30
0.0
 10
-21.6559
 20
-12.2913
 30
0.0
 10
-21.6964
 20
-12.3039
 30
0.0
 10
-21.6964
 20
-12.3039
 30
0.0
 10
-21.6964
 20
-12.3039
 30
0.0
 10
-21.6964
 20
-12.3039
 30
0.0
 10
-21.7383
 20
-12.3129
 30
0.0
 10
-21.7383
 20
-12.3129
 30
0.0
 10
-21.7383
 20
-12.3129
 30
0.0
 10
-21.7383
 20
-12.3129
 30
0.0
 10
-21.7808
 20
-12.3183
 30
0.0
 10
-21.7808
 20
-12.3183
 30
0.0
 10
-21.7808
 20
-12.3183
 30
0.0
 10
-21.7808
 20
-12.3183
 30
0.0
 10
-21.8235
 20
-12.3202
 30
0.0
 10
-21.8235
 20
-12.3202
 30
0.0
  0
SPLINE
  5
7C
330
1F
100
AcDbEntity
  8
ROUND
 62
   250
100
AcDbSpline
210
0.0
220
0.0
230
1.0
 70
     8
 71
     3
 72
   124
 73
   120
 74
     0
 42
0.0000000001
 43
0.0000000001
 40
0.0
 40
0.0
 40
0.0
 40
0.0
 40
0.032258064516129
 40
0.032258064516129
 40
0.032258064516129
 40
0.032258064516129
 40
0.0645161290322581
 40
0.0645161290322581
 40
0.0645161290322581
 40
0.0645161290322581
 40
0.0967741935483871
 40
0.0967741935483871
 40
0.0967741935483871
 40
0.0967741935483871
 40
0.1290322580645161
 40
0.1290322580645161
 40
0.1290322580645161
 40
0.1290322580645161
 40
0.1612903225806452
 40
0.1612903225806452
 40
0.1612903225806452
 40
0.1612903225806452
 40
0.1935483870967742
 40
0.1935483870967742
 40
0.1935483870967742
 40
0.1935483870967742
 40
0.2258064516129032
 40
0.2258064516129032
 40
0.2258064516129032
 40
0.2258064516129032
 40
0.2580645161290323
 40
0.2580645161290323
 40
0.2580645161290323
 40
0.2580645161290323
 40
0.2903225806451613
 40
0.2903225806451613
 40
0.2903225806451613
 40
0.2903225806451613
 40
0.3225806451612903
 40
0.3225806451612903
 40
0.3225806451612903
 40
0.3225806451612903
 40
0.3548387096774194
 40
0.3548387096774194
 40
0.3548387096774194
 40
0.3548387096774194
 40
0.3870967741935484
 40
0.3870967741935484
 40
0.3870967741935484
 40
0.3870967741935484
 40
0.4193548387096774
 40
0.4193548387096774
 40
0.4193548387096774
 40
0.4193548387096774
 40
0.4516129032258064
 40
0.4516129032258064
 40
0.4516129032258064
 40
0.4516129032258064
 40
0.4838709677419355
 40
0.4838709677419355
 40
0.4838709677419355
 40
0.4838709677419355
 40
0.5161290322580645
 40
0.5161290322580645
 40
0.5161290322580645
 40
0.5161290322580645
 40
0.5483870967741935
 40
0.5483870967741935
 40
0.5483870967741935
 40
0.5483870967741935
 40
0.5806451612903226
 40
0.5806451612903226
 40
0.5806451612903226
 40
0.5806451612903226
 40
0.6129032258064516
 40
0.6129032258064516
 40
0.6129032258064516
 40
0.6129032258064516
 40
0.6451612903225806
 40
0.6451612903225806
 40
0.6451612903225806
 40
0.6451612903225806
 40
0.6774193548387096
 40
0.6774193548387096
 40
0.6774193548387096
 40
0.6774193548387096
 40
0.7096774193548387
 40
0.7096774193548387
 40
0.7096774193548387
 40
0.7096774193548387
 40
0.7419354838709677
 40
0.7419354838709677
 40
0.7419354838709677
 40
0.7419354838709677
 40
0.7741935483870968
 40
0.7741935483870968
 40
0.7741935483870968
 40
0.7741935483870968
 40
0.8064516129032258
 40
0.8064516129032258
 40
0.8064516129032258
 40
0.8064516129032258
 40
0.8387096774193549
 40
0.8387096774193549
 40
0.8387096774193549
 40
0.8387096774193549
 40
0.8709677419354839
 40
0.8709677419354839
 40
0.8709677419354839
 40
0.8709677419354839
 40
0.9032258064516129
 40
0.9032258064516129
 40
0.9032258064516129
 40
0.9032258064516129
 40
0.9354838709677419
 40
0.9354838709677419
 40
0.9354838709677419
 40
0.9354838709677419
 40
1.0
 40
1.0
 40
1.0
 40
1.0
 10
-30.1491
 20
-12.3202
 30
0.0
 10
-30.1491
 20
-12.3202
 30
0.0
 10
-30.181
 20
-12.3196
 30
0.0
 10
-30.181
 20
-12.3196
 30
0.0
 10
-30.181
 20
-12.3196
 30
0.0
 10
-30.181
 20
-12.3196
 30
0.0
 10
-30.212
 20
-12.3182
 30
0.0
 10
-30.212
 20
-12.3182
 30
0.0
 10
-30.212
 20
-12.3182
 30
0.0
 10
-30.212
 20
-12.3182
 30
0.0
 10
-30.2421
 20
-12.3159
 30
0.0
 10
-30.2421
 20
-12.3159
 30
0.0
 10
-30.2421
 20
-12.3159
 30
0.0
 10
-30.2421
 20
-12.3159
 30
0.0
 10
-30.271
 20
-12.3127
 30
0.0
 10
-30.271
 20
-12.3127
 30
0.0
 10
-30.271
 20
-12.3127
 30
0.0
 10
-30.271
 20
-12.3127
 30
0.0
 10
-30.2988
 20
-12.3087
 30
0.0
 10
-30.2988
 20
-12.3087
 30
0.0
 10
-30.2988
 20
-12.3087
 30
0.0
 10
-30.2988
 20
-12.3087
 30
0.0
 10
-30.3254
 20
-12.3041
 30
0.0
 10
-30.3254
 20
-12.3041
 30
0.0
 10
-30.3254
 20
-12.3041
 30
0.0
 10
-30.3254
 20
-12.3041
 30
0.0
 10
-30.3507
 20
-12.2989
 30
0.0
 10
-30.3507
 20
-12.2989
 30
0.0
 10
-30.3507
 20
-12.2989
 30
0.0
 10
-30.3507
 20
-12.2989
 30
0.0
 10
-30.3747
 20
-12.2932
 30
0.0
 10
-30.3747
 20
-12.2932
 30
0.0
 10
-30.3747
 20
-12.2932
 30
0.0
 10
-30.3747
 20
-12.2932
 30
0.0
 10
-30.3975
 20
-12.2869
 30
0.0
 10
-30.3975
 20
-12.2869
 30
0.0
 10
-30.3975
 20
-12.2869
 30
0.0
 10
-30.3975
 20
-12.2869
 30
0.0
 10
-30.4189
 20
-12.2803
 30
0.0
 10
-30.4189
 20
-12.2803
 30
0.0
 10
-30.4189
 20
-12.2803
 30
0.0
 10
-30.4189
 20
-12.2803
 30
0.0
 10
-30.4391
 20
-12.2732
 30
0.0
 10
-30.4391
 20
-12.2732
 30
0.0
 10
-30.4391
 20
-12.2732
 30
0.0
 10
-30.4391
 20
-12.2732
 30
0.0
 10
-30.4581
 20
-12.2658
 30
0.0
 10
-30.4581
 20
-12.2658
 30
0.0
 10
-30.4581
 20
-12.2658
 30
0.0
 10
-30.4581
 20
-12.2658
 30
0.0
 10
-30.4759
 20
-12.2581
 30
0.0
 10
-30.4759
 20
-12.2581
 30
0.0
 10
-30.4759
 20
-12.2581
 30
0.0
 10
-30.4759
 20
-12.2581
 30
0.0
 10
-30.4924
 20
-12.2501
 30
0.0
 10
-30.4924
 20
-12.2501
 30
0.0
 10
-30.4924
 20
-12.2501
 30
0.0
 10
-30.4924
 20
-12.2501
 30
0.0
 10
-30.5078
 20
-12.2419
 30
0.0
 10
-30.5078
 20
-12.2419
 30
0.0
 10
-30.5078
 20
-12.2419
 30
0.0
 10
-30.5078
 20
-12.2419
 30
0.0
 10
-30.522
 20
-12.2334
 30
0.0
 10
-30.522
 20
-12.2334
 30
0.0
 10
-30.522
 20
-12.2334
 30
0.0
 10
-30.522
 20
-12.2334
 30
0.0
 10
-30.535
 20
-12.2248
 30
0.0
 10
-30.535
 20
-12.2248
 30
0.0
 10
-30.535
 20
-12.2248
 30
0.0
 10
-30.535
 20
-12.2248
 30
0.0
 10
-30.547
 20
-12.2161
 30
0.0
 10
-30.547
 20
-12.2161
 30
0.0
 10
-30.547
 20
-12.2161
 30
0.0
 10
-30.547
 20
-12.2161
 30
0.0
 10
-30.5578
 20
-12.2072
 30
0.0
 10
-30.5578
 20
-12.2072
 30
0.0
 10
-30.5578
 20
-12.2072
 30
0.0
 10
-30.5578
 20
-12.2072
 30
0.0
 10
-30.5676
 20
-12.1982
 30
0.0
 10
-30.5676
 20
-12.1982
 30
0.0
 10
-30.5676
 20
-12.1982
 30
0.0
 10
-30.5676
 20
-12.1982
 30
0.0
 10
-30.5763
 20
-12.1891
 30
0.0
 10
-30.5763
 20
-12.1891
 30
0.0
 10
-30.5763
 20
-12.1891
 30
0.0
 10
-30.5763
 20
-12.1891
 30
0.0
 10
-30.584
 20
-12.18
 30
0.0
 10
-30.584
 20
-12.18
 30
0.0
 10
-30.584
 20
-12.18
 30
0.0
 10
-30.584
 20
-12.18
 30
0.0
 10
-30.5907
 20
-12.1709
 30
0.0
 10
-30.5907
 20
-12.1709
 30
0.0
 10
-30.5907
 20
-12.1709
 30
0.0
 10
-30.5907
 20
-12.1709
 30
0.0
 10
-30.5964
 20
-12.1617
 30
0.0
 10
-30.5964
 20
-12.1617
 30
0.0
 10
-30.5964
 20
-12.1617
 30
0.0
 10
-30.5964
 20
-12.1617
 30
0.0
 10
-30.6012
 20
-12.1526
 30
0.0
 10
-30.6012
 20
-12.1526
 30
0.0
 10
-30.6012
 20
-12.1526
 30
0.0
 10
-30.6012
 20
-12.1526
 30
0.0
 10
-30.605
 20
-12.1435
 30
0.0
 10
-30.605
 20
-12.1435
 30
0.0
 10
-30.605
 20
-12.1435
 30
0.0
 10
-30.605
 20
-12.1435
 30
0.0
 10
-30.608
 20
-12.1344
 30
0.0
 10
-30.608
 20
-12.1344
 30
0.0
 10
-30.608
 20
-12.1344
 30
0.0
 10
-30.608
 20
-12.1344
 30
0.0
 10
-30.61
 20
-12.1254
 30
0.0
 10
-30.61
 20
-12.1254
 30
0.0
 10
-30.61
 20
-12.1254
 30
0.0
 10
-30.61
 20
-12.1254
 30
0.0
 10
-30.6112
 20
-12.1165
 30
0.0
 10
-30.6112
 20
-12.1165
 30
0.0
 10
-30.6112
 20
-12.1165
 30
0.0
 10
-30.6112
 20
-12.1165
 30
0.0
 10
-30.6116
 20
-12.1078
 30
0.0
 10
-30.6116
 20
-12.1078
 30
0.0
  0
SPLINE
  5
7D
330
1F
100
AcDbEntity
  8
ROUND
 62
   250
100
AcDbSpline
210
0.0
220
0.0
230
1.0
 70
    24
 71
     3
 72
     8
 73
     4
 74
     0
 42
0.0000000001
 43
0.0000000001
 40
0.0
 40
0.0
 40
0.0
 40
0.0
 40
1.0
 40
1.0
 40
1.0
 40
1.0
 10
17.9718
 20
-14.4941
 30
0.0
 10
17.9718
 20
-14.4941
 30
0.0
 10
17.9718
 20
19.2466
 30
0.0
 10
17.9718
 20
19.2466
 30
0.0
  0
SPLINE
  5
7E
330
1F
100
AcDbEntity
  8
ROUND
 62
   250
100
AcDbSpline
210
0.0
220
0.0
230
1.0
 70
    11
 71
     3
 72
    84
 73
    80
 74
     0
 42
0.0000000001
 43
0.0000000001
 40
0.0
 40
0.0
 40
0.0
 40
0.0
 40
0.0476190476190476
 40
0.0476190476190476
 40
0.0476190476190476
 40
0.0476190476190476
 40
0.0952380952380952
 40
0.0952380952380952
 40
0.0952380952380952
 40
0.0952380952380952
 40
0.1428571428571428
 40
0.1428571428571428
 40
0.1428571428571428
 40
0.1428571428571428
 40
0.1904761904761905
 40
0.1904761904761905
 40
0.1904761904761905
 40
0.1904761904761905
 40
0.2380952380952381
 40
0.2380952380952381
 40
0.2380952380952381
 40
0.2380952380952381
 40
0.2857142857142857
 40
0.2857142857142857
 40
0.2857142857142857
 40
0.2857142857142857
 40
0.3333333333333333
 40
0.3333333333333333
 40
0.3333333333333333
 40
0.3333333333333333
 40
0.3809523809523809
 40
0.3809523809523809
 40
0.3809523809523809
 40
0.3809523809523809
 40
0.4285714285714285
 40
0.4285714285714285
 40
0.4285714285714285
 40
0.4285714285714285
 40
0.4761904761904762
 40
0.4761904761904762
 40
0.4761904761904762
 40
0.4761904761904762
 40
0.5238095238095238
 40
0.5238095238095238
 40
0.5238095238095238
 40
0.5238095238095238
 40
0.5714285714285714
 40
0.5714285714285714
 40
0.5714285714285714
 40
0.5714285714285714
 40
0.6190476190476191
 40
0.6190476190476191
 40
0.6190476190476191
 40
0.6190476190476191
 40
0.6666666666666666
 40
0.6666666666666666
 40
0.6666666666666666
 40
0.6666666666666666
 40
0.7142857142857143
 40
0.7142857142857143
 40
0.7142857142857143
 40
0.7142857142857143
 40
0.7619047619047619
 40
0.7619047619047619
 40
0.7619047619047619
 40
0.7619047619047619
 40
0.8095238095238095
 40
0.8095238095238095
 40
0.8095238095238095
 40
0.8095238095238095
 40
0.8571428571428571
 40
0.8571428571428571
 40
0.8571428571428571
 40
0.8571428571428571
 40
0.9047619047619048
 40
0.9047619047619048
 40
0.9047619047619048
 40
0.9047619047619048
 40
1.0
 40
1.0
 40
1.0
 40
1.0
 10
-45.1666
 20
6.1703
 30
0.0
 10
-45.1666
 20
6.1703
 30
0.0
 10
-45.4258
 20
6.4018
 30
0.0
 10
-45.4258
 20
6.4018
 30
0.0
 10
-45.4258
 20
6.4018
 30
0.0
 10
-45.4258
 20
6.4018
 30
0.0
 10
-45.3101
 20
6.5381
 30
0.0
 10
-45.3101
 20
6.5381
 30
0.0
 10
-45.3101
 20
6.5381
 30
0.0
 10
-45.3101
 20
6.5381
 30
0.0
 10
-45.0372
 20
6.2959
 30
0.0
 10
-45.0372
 20
6.2959
 30
0.0
 10
-45.0372
 20
6.2959
 30
0.0
 10
-44.9197
 20
6.3749
 30
0.0
 10
-44.8167
 20
6.4281
 30
0.0
 10
-44.7286
 20
6.4558
 30
0.0
 10
-44.7286
 20
6.4558
 30
0.0
 10
-44.6129
 20
6.4926
 30
0.0
 10
-44.4832
 20
6.5109
 30
0.0
 10
-44.3402
 20
6.5109
 30
0.0
 10
-44.3402
 20
6.5109
 30
0.0
 10
-44.1332
 20
6.5109
 30
0.0
 10
-43.9488
 20
6.469
 30
0.0
 10
-43.7875
 20
6.3852
 30
0.0
 10
-43.7875
 20
6.3852
 30
0.0
 10
-43.6256
 20
6.3015
 30
0.0
 10
-43.5033
 20
6.1845
 30
0.0
 10
-43.4206
 20
6.0334
 30
0.0
 10
-43.4206
 20
6.0334
 30
0.0
 10
-43.3383
 20
5.882
 30
0.0
 10
-43.2968
 20
5.7216
 30
0.0
 10
-43.2968
 20
5.5518
 30
0.0
 10
-43.2968
 20
5.5518
 30
0.0
 10
-43.2968
 20
5.4248
 30
0.0
 10
-43.3148
 20
5.31
 30
0.0
 10
-43.3505
 20
5.207
 30
0.0
 10
-43.3505
 20
5.207
 30
0.0
 10
-43.3783
 20
5.128
 30
0.0
 10
-43.431
 20
5.0357
 30
0.0
 10
-43.509
 20
4.9299
 30
0.0
 10
-43.509
 20
4.9299
 30
0.0
 10
-43.509
 20
4.9299
 30
0.0
 10
-43.2499
 20
4.6985
 30
0.0
 10
-43.2499
 20
4.6985
 30
0.0
 10
-43.2499
 20
4.6985
 30
0.0
 10
-43.2499
 20
4.6985
 30
0.0
 10
-43.3656
 20
4.5621
 30
0.0
 10
-43.3656
 20
4.5621
 30
0.0
 10
-43.3656
 20
4.5621
 30
0.0
 10
-43.3656
 20
4.5621
 30
0.0
 10
-43.6369
 20
4.8048
 30
0.0
 10
-43.6369
 20
4.8048
 30
0.0
 10
-43.6369
 20
4.8048
 30
0.0
 10
-43.7738
 20
4.7146
 30
0.0
 10
-43.891
 20
4.6543
 30
0.0
 10
-43.9879
 20
4.6241
 30
0.0
 10
-43.9879
 20
4.6241
 30
0.0
 10
-44.0848
 20
4.5941
 30
0.0
 10
-44.2013
 20
4.5786
 30
0.0
 10
-44.3373
 20
4.5786
 30
0.0
 10
-44.3373
 20
4.5786
 30
0.0
 10
-44.5448
 20
4.5786
 30
0.0
 10
-44.7296
 20
4.6199
 30
0.0
 10
-44.8919
 20
4.7027
 30
0.0
 10
-44.8919
 20
4.7027
 30
0.0
 10
-45.0542
 20
4.7855
 30
0.0
 10
-45.177
 20
4.9012
 30
0.0
 10
-45.2606
 20
5.0508
 30
0.0
 10
-45.2606
 20
5.0508
 30
0.0
 10
-45.344
 20
5.1999
 30
0.0
 10
-45.3858
 20
5.366
 30
0.0
 10
-45.3858
 20
5.549
 30
0.0
 10
-45.3858
 20
5.549
 30
0.0
 10
-45.3858
 20
5.6722
 30
0.0
 10
-45.3699
 20
5.7798
 30
0.0
 10
-45.3369
 20
5.8721
 30
0.0
 10
-45.3369
 20
5.8721
 30
0.0
 10
-45.3045
 20
5.9643
 30
0.0
 10
-45.2474
 20
6.064
 30
0.0
 10
-45.1666
 20
6.1703
 30
0.0
  0
SPLINE
  5
7F
330
1F
100
AcDbEntity
  8
ROUND
 62
   250
100
AcDbSpline
210
0.0
220
0.0
230
1.0
 70
    11
 71
     3
 72
    32
 73
    28
 74
     0
 42
0.0000000001
 43
0.0000000001
 40
0.0
 40
0.0
 40
0.0
 40
0.0
 40
0.125
 40
0.125
 40
0.125
 40
0.125
 40
0.25
 40
0.25
 40
0.25
 40
0.25
 40
0.375
 40
0.375
 40
0.375
 40
0.375
 40
0.5
 40
0.5
 40
0.5
 40
0.5
 40
0.625
 40
0.625
 40
0.625
 40
0.625
 40
0.75
 40
0.75
 40
0.75
 40
0.75
 40
1.0
 40
1.0
 40
1.0
 40
1.0
 10
-44.9808
 20
6.0053
 30
0.0
 10
-45.0486
 20
5.9187
 30
0.0
 10
-45.0951
 20
5.843
 30
0.0
 10
-45.12
 20
5.7785
 30
0.0
 10
-45.12
 20
5.7785
 30
0.0
 10
-45.1445
 20
5.7136
 30
0.0
 10
-45.1572
 20
5.6374
 30
0.0
 10
-45.1572
 20
5.5503
 30
0.0
 10
-45.1572
 20
5.5503
 30
0.0
 10
-45.1572
 20
5.3491
 30
0.0
 10
-45.089
 20
5.1829
 30
0.0
 10
-44.9525
 20
5.0513
 30
0.0
 10
-44.9525
 20
5.0513
 30
0.0
 10
-44.8162
 20
4.92
 30
0.0
 10
-44.6126
 20
4.8542
 30
0.0
 10
-44.3411
 20
4.8542
 30
0.0
 10
-44.3411
 20
4.8542
 30
0.0
 10
-44.2348
 20
4.8542
 30
0.0
 10
-44.1402
 20
4.8645
 30
0.0
 10
-44.0575
 20
4.8848
 30
0.0
 10
-44.0575
 20
4.8848
 30
0.0
 10
-43.9959
 20
4.8994
 30
0.0
 10
-43.9201
 20
4.9299
 30
0.0
 10
-43.8302
 20
4.977
 30
0.0
 10
-43.8302
 20
4.977
 30
0.0
 10
-43.8302
 20
4.977
 30
0.0
 10
-44.9808
 20
6.0053
 30
0.0
 10
-44.9808
 20
6.0053
 30
0.0
  0
SPLINE
  5
80
330
1F
100
AcDbEntity
  8
ROUND
 62
   250
100
AcDbSpline
210
0.0
220
0.0
230
1.0
 70
    11
 71
     3
 72
    28
 73
    24
 74
     0
 42
0.0000000001
 43
0.0000000001
 40
0.0
 40
0.0
 40
0.0
 40
0.0
 40
0.1428571428571428
 40
0.1428571428571428
 40
0.1428571428571428
 40
0.1428571428571428
 40
0.2857142857142857
 40
0.2857142857142857
 40
0.2857142857142857
 40
0.2857142857142857
 40
0.4285714285714285
 40
0.4285714285714285
 40
0.4285714285714285
 40
0.4285714285714285
 40
0.5714285714285714
 40
0.5714285714285714
 40
0.5714285714285714
 40
0.5714285714285714
 40
0.7142857142857143
 40
0.7142857142857143
 40
0.7142857142857143
 40
0.7142857142857143
 40
1.0
 40
1.0
 40
1.0
 40
1.0
 10
-44.8387
 20
6.1181
 30
0.0
 10
-44.8387
 20
6.1181
 30
0.0
 10
-43.6925
 20
5.0941
 30
0.0
 10
-43.6925
 20
5.0941
 30
0.0
 10
-43.6925
 20
5.0941
 30
0.0
 10
-43.6346
 20
5.1646
 30
0.0
 10
-43.5941
 20
5.23
 30
0.0
 10
-43.5711
 20
5.2898
 30
0.0
 10
-43.5711
 20
5.2898
 30
0.0
 10
-43.5405
 20
5.3679
 30
0.0
 10
-43.5255
 20
5.4526
 30
0.0
 10
-43.5255
 20
5.5433
 30
0.0
 10
-43.5255
 20
5.5433
 30
0.0
 10
-43.5255
 20
5.7437
 30
0.0
 10
-43.596
 20
5.9087
 30
0.0
 10
-43.7376
 20
6.0395
 30
0.0
 10
-43.7376
 20
6.0395
 30
0.0
 10
-43.8792
 20
6.1699
 30
0.0
 10
-44.0777
 20
6.2353
 30
0.0
 10
-44.3331
 20
6.2353
 30
0.0
 10
-44.3331
 20
6.2353
 30
0.0
 10
-44.524
 20
6.2353
 30
0.0
 10
-44.6929
 20
6.1962
 30
0.0
 10
-44.8387
 20
6.1181
 30
0.0
  0
SPLINE
  5
81
330
1F
100
AcDbEntity
  8
ROUND
 62
   250
100
AcDbSpline
210
0.0
220
0.0
230
1.0
 70
    11
 71
     3
 72
    92
 73
    88
 74
     0
 42
0.0000000001
 43
0.0000000001
 40
0.0
 40
0.0
 40
0.0
 40
0.0
 40
0.0434782608695652
 40
0.0434782608695652
 40
0.0434782608695652
 40
0.0434782608695652
 40
0.0869565217391304
 40
0.0869565217391304
 40
0.0869565217391304
 40
0.0869565217391304
 40
0.1304347826086956
 40
0.1304347826086956
 40
0.1304347826086956
 40
0.1304347826086956
 40
0.1739130434782609
 40
0.1739130434782609
 40
0.1739130434782609
 40
0.1739130434782609
 40
0.2173913043478261
 40
0.2173913043478261
 40
0.2173913043478261
 40
0.2173913043478261
 40
0.2608695652173913
 40
0.2608695652173913
 40
0.2608695652173913
 40
0.2608695652173913
 40
0.3043478260869565
 40
0.3043478260869565
 40
0.3043478260869565
 40
0.3043478260869565
 40
0.3478260869565217
 40
0.3478260869565217
 40
0.3478260869565217
 40
0.3478260869565217
 40
0.391304347826087
 40
0.391304347826087
 40
0.391304347826087
 40
0.391304347826087
 40
0.4347826086956522
 40
0.4347826086956522
 40
0.4347826086956522
 40
0.4347826086956522
 40
0.4782608695652174
 40
0.4782608695652174
 40
0.4782608695652174
 40
0.4782608695652174
 40
0.5217391304347826
 40
0.5217391304347826
 40
0.5217391304347826
 40
0.5217391304347826
 40
0.5652173913043478
 40
0.5652173913043478
 40
0.5652173913043478
 40
0.5652173913043478
 40
0.6086956521739131
 40
0.6086956521739131
 40
0.6086956521739131
 40
0.6086956521739131
 40
0.6521739130434783
 40
0.6521739130434783
 40
0.6521739130434783
 40
0.6521739130434783
 40
0.6956521739130435
 40
0.6956521739130435
 40
0.6956521739130435
 40
0.6956521739130435
 40
0.7391304347826086
 40
0.7391304347826086
 40
0.7391304347826086
 40
0.7391304347826086
 40
0.782608695652174
 40
0.782608695652174
 40
0.782608695652174
 40
0.782608695652174
 40
0.8260869565217391
 40
0.8260869565217391
 40
0.8260869565217391
 40
0.8260869565217391
 40
0.8695652173913043
 40
0.8695652173913043
 40
0.8695652173913043
 40
0.8695652173913043
 40
0.9130434782608695
 40
0.9130434782608695
 40
0.9130434782608695
 40
0.9130434782608695
 40
1.0
 40
1.0
 40
1.0
 40
1.0
 10
-43.8604
 20
6.7601
 30
0.0
 10
-43.8604
 20
6.7601
 30
0.0
 10
-43.8825
 20
7.0207
 30
0.0
 10
-43.8825
 20
7.0207
 30
0.0
 10
-43.8825
 20
7.0207
 30
0.0
 10
-43.7555
 20
7.04
 30
0.0
 10
-43.6605
 20
7.0847
 30
0.0
 10
-43.5965
 20
7.1547
 30
0.0
 10
-43.5965
 20
7.1547
 30
0.0
 10
-43.5326
 20
7.2253
 30
0.0
 10
-43.5006
 20
7.31
 30
0.0
 10
-43.5006
 20
7.4093
 30
0.0
 10
-43.5006
 20
7.4093
 30
0.0
 10
-43.5006
 20
7.5287
 30
0.0
 10
-43.5457
 20
7.6298
 30
0.0
 10
-43.6356
 20
7.7122
 30
0.0
 10
-43.6356
 20
7.7122
 30
0.0
 10
-43.7259
 20
7.795
 30
0.0
 10
-43.8453
 20
7.8363
 30
0.0
 10
-43.994
 20
7.8363
 30
0.0
 10
-43.994
 20
7.8363
 30
0.0
 10
-44.1356
 20
7.8363
 30
0.0
 10
-44.247
 20
7.7968
 30
0.0
 10
-44.3289
 20
7.7174
 30
0.0
 10
-44.3289
 20
7.7174
 30
0.0
 10
-44.4107
 20
7.6378
 30
0.0
 10
-44.4517
 20
7.5339
 30
0.0
 10
-44.4517
 20
7.4051
 30
0.0
 10
-44.4517
 20
7.4051
 30
0.0
 10
-44.4517
 20
7.3251
 30
0.0
 10
-44.4333
 20
7.2531
 30
0.0
 10
-44.3971
 20
7.1886
 30
0.0
 10
-44.3971
 20
7.1886
 30
0.0
 10
-44.3609
 20
7.1242
 30
0.0
 10
-44.3138
 20
7.0739
 30
0.0
 10
-44.256
 20
7.0372
 30
0.0
 10
-44.256
 20
7.0372
 30
0.0
 10
-44.256
 20
7.0372
 30
0.0
 10
-44.286
 20
6.8044
 30
0.0
 10
-44.286
 20
6.8044
 30
0.0
 10
-44.286
 20
6.8044
 30
0.0
 10
-44.286
 20
6.8044
 30
0.0
 10
-45.3237
 20
7.0001
 30
0.0
 10
-45.3237
 20
7.0001
 30
0.0
 10
-45.3237
 20
7.0001
 30
0.0
 10
-45.3237
 20
7.0001
 30
0.0
 10
-45.3237
 20
8.0047
 30
0.0
 10
-45.3237
 20
8.0047
 30
0.0
 10
-45.3237
 20
8.0047
 30
0.0
 10
-45.3237
 20
8.0047
 30
0.0
 10
-45.0867
 20
8.0047
 30
0.0
 10
-45.0867
 20
8.0047
 30
0.0
 10
-45.0867
 20
8.0047
 30
0.0
 10
-45.0867
 20
8.0047
 30
0.0
 10
-45.0867
 20
7.1986
 30
0.0
 10
-45.0867
 20
7.1986
 30
0.0
 10
-45.0867
 20
7.1986
 30
0.0
 10
-45.0867
 20
7.1986
 30
0.0
 10
-44.5438
 20
7.0893
 30
0.0
 10
-44.5438
 20
7.0893
 30
0.0
 10
-44.5438
 20
7.0893
 30
0.0
 10
-44.6285
 20
7.2108
 30
0.0
 10
-44.6708
 20
7.3382
 30
0.0
 10
-44.6708
 20
7.4713
 30
0.0
 10
-44.6708
 20
7.4713
 30
0.0
 10
-44.6708
 20
7.6478
 30
0.0
 10
-44.6097
 20
7.7963
 30
0.0
 10
-44.4874
 20
7.9178
 30
0.0
 10
-44.4874
 20
7.9178
 30
0.0
 10
-44.3651
 20
8.0391
 30
0.0
 10
-44.2079
 20
8.0997
 30
0.0
 10
-44.016
 20
8.0997
 30
0.0
 10
-44.016
 20
8.0997
 30
0.0
 10
-43.8331
 20
8.0997
 30
0.0
 10
-43.675
 20
8.0462
 30
0.0
 10
-43.5419
 20
7.9398
 30
0.0
 10
-43.5419
 20
7.9398
 30
0.0
 10
-43.3786
 20
7.81
 30
0.0
 10
-43.2968
 20
7.6332
 30
0.0
 10
-43.2968
 20
7.4093
 30
0.0
 10
-43.2968
 20
7.4093
 30
0.0
 10
-43.2968
 20
7.2253
 30
0.0
 10
-43.3481
 20
7.0753
 30
0.0
 10
-43.4511
 20
6.9591
 30
0.0
 10
-43.4511
 20
6.9591
 30
0.0
 10
-43.5541
 20
6.8429
 30
0.0
 10
-43.6906
 20
6.7766
 30
0.0
 10
-43.8604
 20
6.7601
 30
0.0
  0
SPLINE
  5
82
330
1F
100
AcDbEntity
  8
ROUND
 62
   250
100
AcDbSpline
210
0.0
220
0.0
230
1.0
 70
    11
 71
     3
 72
    52
 73
    48
 74
     0
 42
0.0000000001
 43
0.0000000001
 40
0.0
 40
0.0
 40
0.0
 40
0.0
 40
0.0769230769230769
 40
0.0769230769230769
 40
0.0769230769230769
 40
0.0769230769230769
 40
0.1538461538461539
 40
0.1538461538461539
 40
0.1538461538461539
 40
0.1538461538461539
 40
0.2307692307692308
 40
0.2307692307692308
 40
0.2307692307692308
 40
0.2307692307692308
 40
0.3076923076923077
 40
0.3076923076923077
 40
0.3076923076923077
 40
0.3076923076923077
 40
0.3846153846153846
 40
0.3846153846153846
 40
0.3846153846153846
 40
0.3846153846153846
 40
0.4615384615384616
 40
0.4615384615384616
 40
0.4615384615384616
 40
0.4615384615384616
 40
0.5384615384615384
 40
0.5384615384615384
 40
0.5384615384615384
 40
0.5384615384615384
 40
0.6153846153846154
 40
0.6153846153846154
 40
0.6153846153846154
 40
0.6153846153846154
 40
0.6923076923076923
 40
0.6923076923076923
 40
0.6923076923076923
 40
0.6923076923076923
 40
0.7692307692307693
 40
0.7692307692307693
 40
0.7692307692307693
 40
0.7692307692307693
 40
0.8461538461538461
 40
0.8461538461538461
 40
0.8461538461538461
 40
0.8461538461538461
 40
1.0
 40
1.0
 40
1.0
 40
1.0
 10
-44.3275
 20
8.3297
 30
0.0
 10
-44.5664
 20
8.3297
 30
0.0
 10
-44.7588
 20
8.3543
 30
0.0
 10
-44.9041
 20
8.4036
 30
0.0
 10
-44.9041
 20
8.4036
 30
0.0
 10
-45.0499
 20
8.4525
 30
0.0
 10
-45.1624
 20
8.5259
 30
0.0
 10
-45.2413
 20
8.6229
 30
0.0
 10
-45.2413
 20
8.6229
 30
0.0
 10
-45.3204
 20
8.7198
 30
0.0
 10
-45.3599
 20
8.8416
 30
0.0
 10
-45.3599
 20
8.9883
 30
0.0
 10
-45.3599
 20
8.9883
 30
0.0
 10
-45.3599
 20
9.097
 30
0.0
 10
-45.3379
 20
9.192
 30
0.0
 10
-45.294
 20
9.2738
 30
0.0
 10
-45.294
 20
9.2738
 30
0.0
 10
-45.2508
 20
9.3557
 30
0.0
 10
-45.1878
 20
9.4229
 30
0.0
 10
-45.1055
 20
9.4766
 30
0.0
 10
-45.1055
 20
9.4766
 30
0.0
 10
-45.0232
 20
9.5298
 30
0.0
 10
-44.9229
 20
9.5716
 30
0.0
 10
-44.8048
 20
9.6016
 30
0.0
 10
-44.8048
 20
9.6016
 30
0.0
 10
-44.6868
 20
9.6323
 30
0.0
 10
-44.5279
 20
9.6473
 30
0.0
 10
-44.3275
 20
9.6473
 30
0.0
 10
-44.3275
 20
9.6473
 30
0.0
 10
-44.0904
 20
9.6473
 30
0.0
 10
-43.8995
 20
9.6228
 30
0.0
 10
-43.7536
 20
9.5744
 30
0.0
 10
-43.7536
 20
9.5744
 30
0.0
 10
-43.6078
 20
9.5255
 30
0.0
 10
-43.4953
 20
9.4526
 30
0.0
 10
-43.4159
 20
9.3557
 30
0.0
 10
-43.4159
 20
9.3557
 30
0.0
 10
-43.3364
 20
9.2588
 30
0.0
 10
-43.2968
 20
9.1365
 30
0.0
 10
-43.2968
 20
8.9883
 30
0.0
 10
-43.2968
 20
8.9883
 30
0.0
 10
-43.2968
 20
8.7936
 30
0.0
 10
-43.3664
 20
8.6407
 30
0.0
 10
-43.5062
 20
8.5297
 30
0.0
 10
-43.5062
 20
8.5297
 30
0.0
 10
-43.674
 20
8.3966
 30
0.0
 10
-43.9483
 20
8.3297
 30
0.0
 10
-44.3275
 20
8.3297
 30
0.0
  0
SPLINE
  5
83
330
1F
100
AcDbEntity
  8
ROUND
 62
   250
100
AcDbSpline
210
0.0
220
0.0
230
1.0
 70
    11
 71
     3
 72
    36
 73
    32
 74
     0
 42
0.0000000001
 43
0.0000000001
 40
0.0
 40
0.0
 40
0.0
 40
0.0
 40
0.1111111111111111
 40
0.1111111111111111
 40
0.1111111111111111
 40
0.1111111111111111
 40
0.2222222222222222
 40
0.2222222222222222
 40
0.2222222222222222
 40
0.2222222222222222
 40
0.3333333333333333
 40
0.3333333333333333
 40
0.3333333333333333
 40
0.3333333333333333
 40
0.4444444444444444
 40
0.4444444444444444
 40
0.4444444444444444
 40
0.4444444444444444
 40
0.5555555555555556
 40
0.5555555555555556
 40
0.5555555555555556
 40
0.5555555555555556
 40
0.6666666666666666
 40
0.6666666666666666
 40
0.6666666666666666
 40
0.6666666666666666
 40
0.7777777777777778
 40
0.7777777777777778
 40
0.7777777777777778
 40
0.7777777777777778
 40
1.0
 40
1.0
 40
1.0
 40
1.0
 10
-44.3275
 20
8.5848
 30
0.0
 10
-43.9959
 20
8.5848
 30
0.0
 10
-43.7752
 20
8.6238
 30
0.0
 10
-43.6652
 20
8.7014
 30
0.0
 10
-43.6652
 20
8.7014
 30
0.0
 10
-43.5556
 20
8.7791
 30
0.0
 10
-43.5006
 20
8.8745
 30
0.0
 10
-43.5006
 20
8.9883
 30
0.0
 10
-43.5006
 20
8.9883
 30
0.0
 10
-43.5006
 20
9.1026
 30
0.0
 10
-43.556
 20
9.1981
 30
0.0
 10
-43.6661
 20
9.2757
 30
0.0
 10
-43.6661
 20
9.2757
 30
0.0
 10
-43.7762
 20
9.3533
 30
0.0
 10
-43.9967
 20
9.3924
 30
0.0
 10
-44.3275
 20
9.3924
 30
0.0
 10
-44.3275
 20
9.3924
 30
0.0
 10
-44.66
 20
9.3924
 30
0.0
 10
-44.8811
 20
9.3533
 30
0.0
 10
-44.9902
 20
9.2757
 30
0.0
 10
-44.9902
 20
9.2757
 30
0.0
 10
-45.0999
 20
9.1981
 30
0.0
 10
-45.1544
 20
9.1017
 30
0.0
 10
-45.1544
 20
8.9859
 30
0.0
 10
-45.1544
 20
8.9859
 30
0.0
 10
-45.1544
 20
8.8717
 30
0.0
 10
-45.106
 20
8.7809
 30
0.0
 10
-45.0095
 20
8.7127
 30
0.0
 10
-45.0095
 20
8.7127
 30
0.0
 10
-44.8868
 20
8.6275
 30
0.0
 10
-44.659
 20
8.5848
 30
0.0
 10
-44.3275
 20
8.5848
 30
0.0
  0
SPLINE
  5
84
330
1F
100
AcDbEntity
  8
ROUND
 62
   250
100
AcDbSpline
210
0.0
220
0.0
230
1.0
 70
    11
 71
     3
 72
    20
 73
    16
 74
     0
 42
0.0000000001
 43
0.0000000001
 40
0.0
 40
0.0
 40
0.0
 40
0.0
 40
0.2
 40
0.2
 40
0.2
 40
0.2
 40
0.4
 40
0.4
 40
0.4
 40
0.4
 40
0.6
 40
0.6
 40
0.6
 40
0.6
 40
1.0
 40
1.0
 40
1.0
 40
1.0
 10
-43.2275
 20
-3.4854
 30
0.0
 10
-43.2275
 20
-3.4854
 30
0.0
 10
-42.7259
 20
0.0685
 30
0.0
 10
-42.7259
 20
0.0685
 30
0.0
 10
-42.7259
 20
0.0685
 30
0.0
 10
-42.7259
 20
0.0685
 30
0.0
 10
-42.6145
 20
0.0685
 30
0.0
 10
-42.6145
 20
0.0685
 30
0.0
 10
-42.6145
 20
0.0685
 30
0.0
 10
-42.6145
 20
0.0685
 30
0.0
 10
-42.0796
 20
-3.4854
 30
0.0
 10
-42.0796
 20
-3.4854
 30
0.0
 10
-42.0796
 20
-3.4854
 30
0.0
 10
-42.0796
 20
-3.4854
 30
0.0
 10
-43.2275
 20
-3.4854
 30
0.0
 10
-43.2275
 20
-3.4854
 30
0.0
  0
SPLINE
  5
85
330
1F
100
AcDbEntity
  8
ROUND
 62
   250
100
AcDbSpline
210
0.0
220
0.0
230
1.0
 70
    11
 71
     3
 72
    20
 73
    16
 74
     0
 42
0.0000000001
 43
0.0000000001
 40
0.0
 40
0.0
 40
0.0
 40
0.0
 40
0.2
 40
0.2
 40
0.2
 40
0.2
 40
0.4
 40
0.4
 40
0.4
 40
0.4
 40
0.6
 40
0.6
 40
0.6
 40
0.6
 40
1.0
 40
1.0
 40
1.0
 40
1.0
 10
-42.1218
 20
15.8189
 30
0.0
 10
-42.1218
 20
15.8189
 30
0.0
 10
-42.6233
 20
12.265
 30
0.0
 10
-42.6233
 20
12.265
 30
0.0
 10
-42.6233
 20
12.265
 30
0.0
 10
-42.6233
 20
12.265
 30
0.0
 10
-42.7347
 20
12.265
 30
0.0
 10
-42.7347
 20
12.265
 30
0.0
 10
-42.7347
 20
12.265
 30
0.0
 10
-42.7347
 20
12.265
 30
0.0
 10
-43.2696
 20
15.8189
 30
0.0
 10
-43.2696
 20
15.8189
 30
0.0
 10
-43.2696
 20
15.8189
 30
0.0
 10
-43.2696
 20
15.8189
 30
0.0
 10
-42.1218
 20
15.8189
 30
0.0
 10
-42.1218
 20
15.8189
 30
0.0
  0
SPLINE
  5
86
330
1F
100
AcDbEntity
  8
ROUND
 62
   250
100
AcDbSpline
210
0.0
220
0.0
230
1.0
 70
    11
 71
     3
 72
    40
 73
    36
 74
     0
 42
0.0000000001
 43
0.0000000001
 40
0.0
 40
0.0
 40
0.0
 40
0.0
 40
0.1
 40
0.1
 40
0.1
 40
0.1
 40
0.2
 40
0.2
 40
0.2
 40
0.2
 40
0.3
 40
0.3
 40
0.3
 40
0.3
 40
0.4
 40
0.4
 40
0.4
 40
0.4
 40
0.5
 40
0.5
 40
0.5
 40
0.5
 40
0.6
 40
0.6
 40
0.6
 40
0.6
 40
0.7
 40
0.7
 40
0.7
 40
0.7
 40
0.8
 40
0.8
 40
0.8
 40
0.8
 40
1.0
 40
1.0
 40
1.0
 40
1.0
 10
-18.719
 20
-27.0647
 30
0.0
 10
-18.719
 20
-27.0647
 30
0.0
 10
-18.9669
 20
-27.0647
 30
0.0
 10
-18.9669
 20
-27.0647
 30
0.0
 10
-18.9669
 20
-27.0647
 30
0.0
 10
-18.9669
 20
-27.0647
 30
0.0
 10
-18.9669
 20
-25.4843
 30
0.0
 10
-18.9669
 20
-25.4843
 30
0.0
 10
-18.9669
 20
-25.4843
 30
0.0
 10
-19.0267
 20
-25.5412
 30
0.0
 10
-19.1047
 20
-25.5981
 30
0.0
 10
-19.2016
 20
-25.655
 30
0.0
 10
-19.2016
 20
-25.655
 30
0.0
 10
-19.299
 20
-25.7119
 30
0.0
 10
-19.386
 20
-25.7547
 30
0.0
 10
-19.4632
 20
-25.783
 30
0.0
 10
-19.4632
 20
-25.783
 30
0.0
 10
-19.4632
 20
-25.783
 30
0.0
 10
-19.4632
 20
-25.5435
 30
0.0
 10
-19.4632
 20
-25.5435
 30
0.0
 10
-19.4632
 20
-25.5435
 30
0.0
 10
-19.3244
 20
-25.4782
 30
0.0
 10
-19.203
 20
-25.3991
 30
0.0
 10
-19.0991
 20
-25.3065
 30
0.0
 10
-19.0991
 20
-25.3065
 30
0.0
 10
-18.9956
 20
-25.2133
 30
0.0
 10
-18.9218
 20
-25.1235
 30
0.0
 10
-18.8785
 20
-25.036
 30
0.0
 10
-18.8785
 20
-25.036
 30
0.0
 10
-18.8785
 20
-25.036
 30
0.0
 10
-18.719
 20
-25.036
 30
0.0
 10
-18.719
 20
-25.036
 30
0.0
 10
-18.719
 20
-25.036
 30
0.0
 10
-18.719
 20
-25.036
 30
0.0
 10
-18.719
 20
-27.0647
 30
0.0
 10
-18.719
 20
-27.0647
 30
0.0
  0
SPLINE
  5
87
330
1F
100
AcDbEntity
  8
ROUND
 62
   250
100
AcDbSpline
210
0.0
220
0.0
230
1.0
 70
    11
 71
     3
 72
    68
 73
    64
 74
     0
 42
0.0000000001
 43
0.0000000001
 40
0.0
 40
0.0
 40
0.0
 40
0.0
 40
0.0588235294117647
 40
0.0588235294117647
 40
0.0588235294117647
 40
0.0588235294117647
 40
0.1176470588235294
 40
0.1176470588235294
 40
0.1176470588235294
 40
0.1176470588235294
 40
0.1764705882352941
 40
0.1764705882352941
 40
0.1764705882352941
 40
0.1764705882352941
 40
0.2352941176470588
 40
0.2352941176470588
 40
0.2352941176470588
 40
0.2352941176470588
 40
0.2941176470588235
 40
0.2941176470588235
 40
0.2941176470588235
 40
0.2941176470588235
 40
0.3529411764705883
 40
0.3529411764705883
 40
0.3529411764705883
 40
0.3529411764705883
 40
0.4117647058823529
 40
0.4117647058823529
 40
0.4117647058823529
 40
0.4117647058823529
 40
0.4705882352941176
 40
0.4705882352941176
 40
0.4705882352941176
 40
0.4705882352941176
 40
0.5294117647058824
 40
0.5294117647058824
 40
0.5294117647058824
 40
0.5294117647058824
 40
0.5882352941176471
 40
0.5882352941176471
 40
0.5882352941176471
 40
0.5882352941176471
 40
0.6470588235294118
 40
0.6470588235294118
 40
0.6470588235294118
 40
0.6470588235294118
 40
0.7058823529411765
 40
0.7058823529411765
 40
0.7058823529411765
 40
0.7058823529411765
 40
0.7647058823529411
 40
0.7647058823529411
 40
0.7647058823529411
 40
0.7647058823529411
 40
0.8235294117647058
 40
0.8235294117647058
 40
0.8235294117647058
 40
0.8235294117647058
 40
0.8823529411764706
 40
0.8823529411764706
 40
0.8823529411764706
 40
0.8823529411764706
 40
1.0
 40
1.0
 40
1.0
 40
1.0
 10
-17.7016
 20
-25.9692
 30
0.0
 10
-17.8047
 20
-25.9316
 30
0.0
 10
-17.8809
 20
-25.878
 30
0.0
 10
-17.9307
 20
-25.8079
 30
0.0
 10
-17.9307
 20
-25.8079
 30
0.0
 10
-17.9801
 20
-25.7383
 30
0.0
 10
-18.005
 20
-25.6545
 30
0.0
 10
-18.005
 20
-25.5572
 30
0.0
 10
-18.005
 20
-25.5572
 30
0.0
 10
-18.005
 20
-25.41
 30
0.0
 10
-17.9523
 20
-25.2867
 30
0.0
 10
-17.8465
 20
-25.1865
 30
0.0
 10
-17.8465
 20
-25.1865
 30
0.0
 10
-17.7407
 20
-25.0863
 30
0.0
 10
-17.6005
 20
-25.036
 30
0.0
 10
-17.4251
 20
-25.036
 30
0.0
 10
-17.4251
 20
-25.036
 30
0.0
 10
-17.2487
 20
-25.036
 30
0.0
 10
-17.1066
 20
-25.0873
 30
0.0
 10
-16.9989
 20
-25.1898
 30
0.0
 10
-16.9989
 20
-25.1898
 30
0.0
 10
-16.8917
 20
-25.2924
 30
0.0
 10
-16.838
 20
-25.417
 30
0.0
 10
-16.838
 20
-25.5642
 30
0.0
 10
-16.838
 20
-25.5642
 30
0.0
 10
-16.838
 20
-25.6578
 30
0.0
 10
-16.8625
 20
-25.7392
 30
0.0
 10
-16.9114
 20
-25.8088
 30
0.0
 10
-16.9114
 20
-25.8088
 30
0.0
 10
-16.9608
 20
-25.878
 30
0.0
 10
-17.0351
 20
-25.9316
 30
0.0
 10
-17.1353
 20
-25.9692
 30
0.0
 10
-17.1353
 20
-25.9692
 30
0.0
 10
-17.0116
 20
-26.0097
 30
0.0
 10
-16.9171
 20
-26.0746
 30
0.0
 10
-16.8522
 20
-26.1649
 30
0.0
 10
-16.8522
 20
-26.1649
 30
0.0
 10
-16.7877
 20
-26.2547
 30
0.0
 10
-16.7553
 20
-26.3624
 30
0.0
 10
-16.7553
 20
-26.4871
 30
0.0
 10
-16.7553
 20
-26.4871
 30
0.0
 10
-16.7553
 20
-26.6602
 30
0.0
 10
-16.8164
 20
-26.8051
 30
0.0
 10
-16.9382
 20
-26.9226
 30
0.0
 10
-16.9382
 20
-26.9226
 30
0.0
 10
-17.0605
 20
-27.0402
 30
0.0
 10
-17.2214
 20
-27.099
 30
0.0
 10
-17.4208
 20
-27.099
 30
0.0
 10
-17.4208
 20
-27.099
 30
0.0
 10
-17.6203
 20
-27.099
 30
0.0
 10
-17.7807
 20
-27.0402
 30
0.0
 10
-17.903
 20
-26.9222
 30
0.0
 10
-17.903
 20
-26.9222
 30
0.0
 10
-18.0253
 20
-26.8041
 30
0.0
 10
-18.0864
 20
-26.6569
 30
0.0
 10
-18.0864
 20
-26.4805
 30
0.0
 10
-18.0864
 20
-26.4805
 30
0.0
 10
-18.0864
 20
-26.3493
 30
0.0
 10
-18.053
 20
-26.2392
 30
0.0
 10
-17.9862
 20
-26.1503
 30
0.0
 10
-17.9862
 20
-26.1503
 30
0.0
 10
-17.9199
 20
-26.0619
 30
0.0
 10
-17.8249
 20
-26.0012
 30
0.0
 10
-17.7016
 20
-25.9692
 30
0.0
  0
SPLINE
  5
88
330
1F
100
AcDbEntity
  8
ROUND
 62
   250
100
AcDbSpline
210
0.0
220
0.0
230
1.0
 70
    11
 71
     3
 72
    36
 73
    32
 74
     0
 42
0.0000000001
 43
0.0000000001
 40
0.0
 40
0.0
 40
0.0
 40
0.0
 40
0.1111111111111111
 40
0.1111111111111111
 40
0.1111111111111111
 40
0.1111111111111111
 40
0.2222222222222222
 40
0.2222222222222222
 40
0.2222222222222222
 40
0.2222222222222222
 40
0.3333333333333333
 40
0.3333333333333333
 40
0.3333333333333333
 40
0.3333333333333333
 40
0.4444444444444444
 40
0.4444444444444444
 40
0.4444444444444444
 40
0.4444444444444444
 40
0.5555555555555556
 40
0.5555555555555556
 40
0.5555555555555556
 40
0.5555555555555556
 40
0.6666666666666666
 40
0.6666666666666666
 40
0.6666666666666666
 40
0.6666666666666666
 40
0.7777777777777778
 40
0.7777777777777778
 40
0.7777777777777778
 40
0.7777777777777778
 40
1.0
 40
1.0
 40
1.0
 40
1.0
 10
-17.7515
 20
-25.5487
 30
0.0
 10
-17.7515
 20
-25.6442
 30
0.0
 10
-17.7205
 20
-25.7223
 30
0.0
 10
-17.6593
 20
-25.783
 30
0.0
 10
-17.6593
 20
-25.783
 30
0.0
 10
-17.5977
 20
-25.8436
 30
0.0
 10
-17.5177
 20
-25.8742
 30
0.0
 10
-17.4194
 20
-25.8742
 30
0.0
 10
-17.4194
 20
-25.8742
 30
0.0
 10
-17.3239
 20
-25.8742
 30
0.0
 10
-17.2454
 20
-25.8441
 30
0.0
 10
-17.1842
 20
-25.7839
 30
0.0
 10
-17.1842
 20
-25.7839
 30
0.0
 10
-17.1231
 20
-25.7237
 30
0.0
 10
-17.093
 20
-25.6498
 30
0.0
 10
-17.093
 20
-25.5628
 30
0.0
 10
-17.093
 20
-25.5628
 30
0.0
 10
-17.093
 20
-25.4716
 30
0.0
 10
-17.124
 20
-25.3954
 30
0.0
 10
-17.1871
 20
-25.3333
 30
0.0
 10
-17.1871
 20
-25.3333
 30
0.0
 10
-17.2501
 20
-25.2712
 30
0.0
 10
-17.3282
 20
-25.2401
 30
0.0
 10
-17.4222
 20
-25.2401
 30
0.0
 10
-17.4222
 20
-25.2401
 30
0.0
 10
-17.5168
 20
-25.2401
 30
0.0
 10
-17.5953
 20
-25.2707
 30
0.0
 10
-17.6579
 20
-25.3309
 30
0.0
 10
-17.6579
 20
-25.3309
 30
0.0
 10
-17.7205
 20
-25.3916
 30
0.0
 10
-17.7515
 20
-25.4645
 30
0.0
 10
-17.7515
 20
-25.5487
 30
0.0
  0
SPLINE
  5
89
330
1F
100
AcDbEntity
  8
ROUND
 62
   250
100
AcDbSpline
210
0.0
220
0.0
230
1.0
 70
    11
 71
     3
 72
    40
 73
    36
 74
     0
 42
0.0000000001
 43
0.0000000001
 40
0.0
 40
0.0
 40
0.0
 40
0.0
 40
0.1
 40
0.1
 40
0.1
 40
0.1
 40
0.2
 40
0.2
 40
0.2
 40
0.2
 40
0.3
 40
0.3
 40
0.3
 40
0.3
 40
0.4
 40
0.4
 40
0.4
 40
0.4
 40
0.5
 40
0.5
 40
0.5
 40
0.5
 40
0.6
 40
0.6
 40
0.6
 40
0.6
 40
0.7
 40
0.7
 40
0.7
 40
0.7
 40
0.8
 40
0.8
 40
0.8
 40
0.8
 40
1.0
 40
1.0
 40
1.0
 40
1.0
 10
-17.8315
 20
-26.4819
 30
0.0
 10
-17.8315
 20
-26.5525
 30
0.0
 10
-17.8145
 20
-26.6211
 30
0.0
 10
-17.7811
 20
-26.687
 30
0.0
 10
-17.7811
 20
-26.687
 30
0.0
 10
-17.7477
 20
-26.7533
 30
0.0
 10
-17.6979
 20
-26.8046
 30
0.0
 10
-17.6316
 20
-26.8408
 30
0.0
 10
-17.6316
 20
-26.8408
 30
0.0
 10
-17.5652
 20
-26.877
 30
0.0
 10
-17.4942
 20
-26.8954
 30
0.0
 10
-17.418
 20
-26.8954
 30
0.0
 10
-17.418
 20
-26.8954
 30
0.0
 10
-17.2995
 20
-26.8954
 30
0.0
 10
-17.2016
 20
-26.8573
 30
0.0
 10
-17.1245
 20
-26.7806
 30
0.0
 10
-17.1245
 20
-26.7806
 30
0.0
 10
-17.0474
 20
-26.7044
 30
0.0
 10
-17.0088
 20
-26.6075
 30
0.0
 10
-17.0088
 20
-26.4899
 30
0.0
 10
-17.0088
 20
-26.4899
 30
0.0
 10
-17.0088
 20
-26.3704
 30
0.0
 10
-17.0483
 20
-26.2717
 30
0.0
 10
-17.1278
 20
-26.1936
 30
0.0
 10
-17.1278
 20
-26.1936
 30
0.0
 10
-17.2073
 20
-26.1155
 30
0.0
 10
-17.307
 20
-26.0765
 30
0.0
 10
-17.4265
 20
-26.0765
 30
0.0
 10
-17.4265
 20
-26.0765
 30
0.0
 10
-17.5431
 20
-26.0765
 30
0.0
 10
-17.6396
 20
-26.115
 30
0.0
 10
-17.7162
 20
-26.1922
 30
0.0
 10
-17.7162
 20
-26.1922
 30
0.0
 10
-17.7929
 20
-26.2698
 30
0.0
 10
-17.8315
 20
-26.3662
 30
0.0
 10
-17.8315
 20
-26.4819
 30
0.0
  0
SPLINE
  5
8A
330
1F
100
AcDbEntity
  8
ROUND
 62
   250
100
AcDbSpline
210
0.0
220
0.0
230
1.0
 70
    11
 71
     3
 72
    92
 73
    88
 74
     0
 42
0.0000000001
 43
0.0000000001
 40
0.0
 40
0.0
 40
0.0
 40
0.0
 40
0.0434782608695652
 40
0.0434782608695652
 40
0.0434782608695652
 40
0.0434782608695652
 40
0.0869565217391304
 40
0.0869565217391304
 40
0.0869565217391304
 40
0.0869565217391304
 40
0.1304347826086956
 40
0.1304347826086956
 40
0.1304347826086956
 40
0.1304347826086956
 40
0.1739130434782609
 40
0.1739130434782609
 40
0.1739130434782609
 40
0.1739130434782609
 40
0.2173913043478261
 40
0.2173913043478261
 40
0.2173913043478261
 40
0.2173913043478261
 40
0.2608695652173913
 40
0.2608695652173913
 40
0.2608695652173913
 40
0.2608695652173913
 40
0.3043478260869565
 40
0.3043478260869565
 40
0.3043478260869565
 40
0.3043478260869565
 40
0.3478260869565217
 40
0.3478260869565217
 40
0.3478260869565217
 40
0.3478260869565217
 40
0.391304347826087
 40
0.391304347826087
 40
0.391304347826087
 40
0.391304347826087
 40
0.4347826086956522
 40
0.4347826086956522
 40
0.4347826086956522
 40
0.4347826086956522
 40
0.4782608695652174
 40
0.4782608695652174
 40
0.4782608695652174
 40
0.4782608695652174
 40
0.5217391304347826
 40
0.5217391304347826
 40
0.5217391304347826
 40
0.5217391304347826
 40
0.5652173913043478
 40
0.5652173913043478
 40
0.5652173913043478
 40
0.5652173913043478
 40
0.6086956521739131
 40
0.6086956521739131
 40
0.6086956521739131
 40
0.6086956521739131
 40
0.6521739130434783
 40
0.6521739130434783
 40
0.6521739130434783
 40
0.6521739130434783
 40
0.6956521739130435
 40
0.6956521739130435
 40
0.6956521739130435
 40
0.6956521739130435
 40
0.7391304347826086
 40
0.7391304347826086
 40
0.7391304347826086
 40
0.7391304347826086
 40
0.782608695652174
 40
0.782608695652174
 40
0.782608695652174
 40
0.782608695652174
 40
0.8260869565217391
 40
0.8260869565217391
 40
0.8260869565217391
 40
0.8260869565217391
 40
0.8695652173913043
 40
0.8695652173913043
 40
0.8695652173913043
 40
0.8695652173913043
 40
0.9130434782608695
 40
0.9130434782608695
 40
0.9130434782608695
 40
0.9130434782608695
 40
1.0
 40
1.0
 40
1.0
 40
1.0
 10
-16.514
 20
-26.5355
 30
0.0
 10
-16.514
 20
-26.5355
 30
0.0
 10
-16.2534
 20
-26.5134
 30
0.0
 10
-16.2534
 20
-26.5134
 30
0.0
 10
-16.2534
 20
-26.5134
 30
0.0
 10
-16.2341
 20
-26.6404
 30
0.0
 10
-16.1894
 20
-26.7354
 30
0.0
 10
-16.1193
 20
-26.7994
 30
0.0
 10
-16.1193
 20
-26.7994
 30
0.0
 10
-16.0488
 20
-26.8634
 30
0.0
 10
-15.9641
 20
-26.8954
 30
0.0
 10
-15.8649
 20
-26.8954
 30
0.0
 10
-15.8649
 20
-26.8954
 30
0.0
 10
-15.7454
 20
-26.8954
 30
0.0
 10
-15.6443
 20
-26.8502
 30
0.0
 10
-15.562
 20
-26.7604
 30
0.0
 10
-15.562
 20
-26.7604
 30
0.0
 10
-15.4792
 20
-26.6701
 30
0.0
 10
-15.4378
 20
-26.5506
 30
0.0
 10
-15.4378
 20
-26.402
 30
0.0
 10
-15.4378
 20
-26.402
 30
0.0
 10
-15.4378
 20
-26.2604
 30
0.0
 10
-15.4773
 20
-26.1489
 30
0.0
 10
-15.5568
 20
-26.0671
 30
0.0
 10
-15.5568
 20
-26.0671
 30
0.0
 10
-15.6363
 20
-25.9852
 30
0.0
 10
-15.7402
 20
-25.9443
 30
0.0
 10
-15.8691
 20
-25.9443
 30
0.0
 10
-15.8691
 20
-25.9443
 30
0.0
 10
-15.9491
 20
-25.9443
 30
0.0
 10
-16.021
 20
-25.9626
 30
0.0
 10
-16.0855
 20
-25.9988
 30
0.0
 10
-16.0855
 20
-25.9988
 30
0.0
 10
-16.1499
 20
-26.0351
 30
0.0
 10
-16.2002
 20
-26.0821
 30
0.0
 10
-16.2369
 20
-26.14
 30
0.0
 10
-16.2369
 20
-26.14
 30
0.0
 10
-16.2369
 20
-26.14
 30
0.0
 10
-16.4698
 20
-26.1099
 30
0.0
 10
-16.4698
 20
-26.1099
 30
0.0
 10
-16.4698
 20
-26.1099
 30
0.0
 10
-16.4698
 20
-26.1099
 30
0.0
 10
-16.2741
 20
-25.0722
 30
0.0
 10
-16.2741
 20
-25.0722
 30
0.0
 10
-16.2741
 20
-25.0722
 30
0.0
 10
-16.2741
 20
-25.0722
 30
0.0
 10
-15.2694
 20
-25.0722
 30
0.0
 10
-15.2694
 20
-25.0722
 30
0.0
 10
-15.2694
 20
-25.0722
 30
0.0
 10
-15.2694
 20
-25.0722
 30
0.0
 10
-15.2694
 20
-25.3093
 30
0.0
 10
-15.2694
 20
-25.3093
 30
0.0
 10
-15.2694
 20
-25.3093
 30
0.0
 10
-15.2694
 20
-25.3093
 30
0.0
 10
-16.0756
 20
-25.3093
 30
0.0
 10
-16.0756
 20
-25.3093
 30
0.0
 10
-16.0756
 20
-25.3093
 30
0.0
 10
-16.0756
 20
-25.3093
 30
0.0
 10
-16.1847
 20
-25.8521
 30
0.0
 10
-16.1847
 20
-25.8521
 30
0.0
 10
-16.1847
 20
-25.8521
 30
0.0
 10
-16.0634
 20
-25.7674
 30
0.0
 10
-15.9359
 20
-25.7251
 30
0.0
 10
-15.8028
 20
-25.7251
 30
0.0
 10
-15.8028
 20
-25.7251
 30
0.0
 10
-15.6264
 20
-25.7251
 30
0.0
 10
-15.4778
 20
-25.7862
 30
0.0
 10
-15.3564
 20
-25.9085
 30
0.0
 10
-15.3564
 20
-25.9085
 30
0.0
 10
-15.2351
 20
-26.0308
 30
0.0
 10
-15.1744
 20
-26.1879
 30
0.0
 10
-15.1744
 20
-26.3798
 30
0.0
 10
-15.1744
 20
-26.3798
 30
0.0
 10
-15.1744
 20
-26.5628
 30
0.0
 10
-15.228
 20
-26.7209
 30
0.0
 10
-15.3343
 20
-26.854
 30
0.0
 10
-15.3343
 20
-26.854
 30
0.0
 10
-15.4641
 20
-27.0172
 30
0.0
 10
-15.641
 20
-27.099
 30
0.0
 10
-15.8649
 20
-27.099
 30
0.0
 10
-15.8649
 20
-27.099
 30
0.0
 10
-16.0488
 20
-27.099
 30
0.0
 10
-16.1988
 20
-27.0478
 30
0.0
 10
-16.315
 20
-26.9448
 30
0.0
 10
-16.315
 20
-26.9448
 30
0.0
 10
-16.4312
 20
-26.8417
 30
0.0
 10
-16.4975
 20
-26.7053
 30
0.0
 10
-16.514
 20
-26.5355
 30
0.0
  0
SPLINE
  5
8B
330
1F
100
AcDbEntity
  8
ROUND
 62
   250
100
AcDbSpline
210
0.0
220
0.0
230
1.0
 70
    11
 71
     3
 72
    20
 73
    16
 74
     0
 42
0.0000000001
 43
0.0000000001
 40
0.0
 40
0.0
 40
0.0
 40
0.0
 40
0.2
 40
0.2
 40
0.2
 40
0.2
 40
0.4
 40
0.4
 40
0.4
 40
0.4
 40
0.6
 40
0.6
 40
0.6
 40
0.6
 40
1.0
 40
1.0
 40
1.0
 40
1.0
 10
0.5053
 20
-27.0743
 30
0.0
 10
0.5053
 20
-27.0743
 30
0.0
 10
4.0591
 20
-27.5759
 30
0.0
 10
4.0591
 20
-27.5759
 30
0.0
 10
4.0591
 20
-27.5759
 30
0.0
 10
4.0591
 20
-27.5759
 30
0.0
 10
4.0591
 20
-27.6873
 30
0.0
 10
4.0591
 20
-27.6873
 30
0.0
 10
4.0591
 20
-27.6873
 30
0.0
 10
4.0591
 20
-27.6873
 30
0.0
 10
0.5053
 20
-28.2221
 30
0.0
 10
0.5053
 20
-28.2221
 30
0.0
 10
0.5053
 20
-28.2221
 30
0.0
 10
0.5053
 20
-28.2221
 30
0.0
 10
0.5053
 20
-27.0743
 30
0.0
 10
0.5053
 20
-27.0743
 30
0.0
  0
SPLINE
  5
8C
330
1F
100
AcDbEntity
  8
ROUND
 62
   250
100
AcDbSpline
210
0.0
220
0.0
230
1.0
 70
    11
 71
     3
 72
    20
 73
    16
 74
     0
 42
0.0000000001
 43
0.0000000001
 40
0.0
 40
0.0
 40
0.0
 40
0.0
 40
0.2
 40
0.2
 40
0.2
 40
0.2
 40
0.4
 40
0.4
 40
0.4
 40
0.4
 40
0.6
 40
0.6
 40
0.6
 40
0.6
 40
1.0
 40
1.0
 40
1.0
 40
1.0
 10
-35.7199
 20
-28.2163
 30
0.0
 10
-35.7199
 20
-28.2163
 30
0.0
 10
-39.2737
 20
-27.7147
 30
0.0
 10
-39.2737
 20
-27.7147
 30
0.0
 10
-39.2737
 20
-27.7147
 30
0.0
 10
-39.2737
 20
-27.7147
 30
0.0
 10
-39.2737
 20
-27.6033
 30
0.0
 10
-39.2737
 20
-27.6033
 30
0.0
 10
-39.2737
 20
-27.6033
 30
0.0
 10
-39.2737
 20
-27.6033
 30
0.0
 10
-35.7199
 20
-27.0684
 30
0.0
 10
-35.7199
 20
-27.0684
 30
0.0
 10
-35.7199
 20
-27.0684
 30
0.0
 10
-35.7199
 20
-27.0684
 30
0.0
 10
-35.7199
 20
-28.2163
 30
0.0
 10
-35.7199
 20
-28.2163
 30
0.0
  0
SPLINE
  5
8D
330
1F
100
AcDbEntity
  8
ROUND
 62
   250
100
AcDbSpline
210
0.0
220
0.0
230
1.0
 70
    24
 71
     3
 72
     8
 73
     4
 74
     0
 42
0.0000000001
 43
0.0000000001
 40
0.0
 40
0.0
 40
0.0
 40
0.0
 40
1.0
 40
1.0
 40
1.0
 40
1.0
 10
-38.9348
 20
-27.6416
 30
0.0
 10
-38.9348
 20
-27.6416
 30
0.0
 10
3.5977
 20
-27.6416
 30
0.0
 10
3.5977
 20
-27.6416
 30
0.0
  0
SPLINE
  5
8E
330
1F
100
AcDbEntity
  8
ROUND
 62
   250
100
AcDbSpline
210
0.0
220
0.0
230
1.0
 70
    24
 71
     3
 72
     8
 73
     4
 74
     0
 42
0.0000000001
 43
0.0000000001
 40
0.0
 40
0.0
 40
0.0
 40
0.0
 40
1.0
 40
1.0
 40
1.0
 40
1.0
 10
-42.6805
 20
-4.6485
 30
0.0
 10
-42.6805
 20
-4.6485
 30
0.0
 10
-42.6805
 20
17.1362
 30
0.0
 10
-42.6805
 20
17.1362
 30
0.0
  0
SPLINE
  5
8F
330
1F
100
AcDbEntity
  8
ROUND
 62
   250
100
AcDbSpline
210
0.0
220
0.0
230
1.0
 70
    11
 71
     3
 72
    40
 73
    36
 74
     0
 42
0.0000000001
 43
0.0000000001
 40
0.0
 40
0.0
 40
0.0
 40
0.0
 40
0.1
 40
0.1
 40
0.1
 40
0.1
 40
0.2
 40
0.2
 40
0.2
 40
0.2
 40
0.3
 40
0.3
 40
0.3
 40
0.3
 40
0.4
 40
0.4
 40
0.4
 40
0.4
 40
0.5
 40
0.5
 40
0.5
 40
0.5
 40
0.6
 40
0.6
 40
0.6
 40
0.6
 40
0.7
 40
0.7
 40
0.7
 40
0.7
 40
0.8
 40
0.8
 40
0.8
 40
0.8
 40
1.0
 40
1.0
 40
1.0
 40
1.0
 10
12.3616
 20
-0.7604
 30
0.0
 10
12.3616
 20
-0.7604
 30
0.0
 10
12.3616
 20
-1.0083
 30
0.0
 10
12.3616
 20
-1.0083
 30
0.0
 10
12.3616
 20
-1.0083
 30
0.0
 10
12.3616
 20
-1.0083
 30
0.0
 10
10.7811
 20
-1.0083
 30
0.0
 10
10.7811
 20
-1.0083
 30
0.0
 10
10.7811
 20
-1.0083
 30
0.0
 10
10.838
 20
-1.0681
 30
0.0
 10
10.8949
 20
-1.1462
 30
0.0
 10
10.9518
 20
-1.2431
 30
0.0
 10
10.9518
 20
-1.2431
 30
0.0
 10
11.0088
 20
-1.3403
 30
0.0
 10
11.0516
 20
-1.4274
 30
0.0
 10
11.0799
 20
-1.5046
 30
0.0
 10
11.0799
 20
-1.5046
 30
0.0
 10
11.0799
 20
-1.5046
 30
0.0
 10
10.8404
 20
-1.5046
 30
0.0
 10
10.8404
 20
-1.5046
 30
0.0
 10
10.8404
 20
-1.5046
 30
0.0
 10
10.775
 20
-1.3657
 30
0.0
 10
10.696
 20
-1.2444
 30
0.0
 10
10.6034
 20
-1.1404
 30
0.0
 10
10.6034
 20
-1.1404
 30
0.0
 10
10.5102
 20
-1.037
 30
0.0
 10
10.4203
 20
-0.9631
 30
0.0
 10
10.3329
 20
-0.9199
 30
0.0
 10
10.3329
 20
-0.9199
 30
0.0
 10
10.3329
 20
-0.9199
 30
0.0
 10
10.3329
 20
-0.7604
 30
0.0
 10
10.3329
 20
-0.7604
 30
0.0
 10
10.3329
 20
-0.7604
 30
0.0
 10
10.3329
 20
-0.7604
 30
0.0
 10
12.3616
 20
-0.7604
 30
0.0
 10
12.3616
 20
-0.7604
 30
0.0
  0
SPLINE
  5
90
330
1F
100
AcDbEntity
  8
ROUND
 62
   250
100
AcDbSpline
210
0.0
220
0.0
230
1.0
 70
    11
 71
     3
 72
    48
 73
    44
 74
     0
 42
0.0000000001
 43
0.0000000001
 40
0.0
 40
0.0
 40
0.0
 40
0.0
 40
0.0833333333333333
 40
0.0833333333333333
 40
0.0833333333333333
 40
0.0833333333333333
 40
0.1666666666666667
 40
0.1666666666666667
 40
0.1666666666666667
 40
0.1666666666666667
 40
0.25
 40
0.25
 40
0.25
 40
0.25
 40
0.3333333333333333
 40
0.3333333333333333
 40
0.3333333333333333
 40
0.3333333333333333
 40
0.4166666666666667
 40
0.4166666666666667
 40
0.4166666666666667
 40
0.4166666666666667
 40
0.5
 40
0.5
 40
0.5
 40
0.5
 40
0.5833333333333334
 40
0.5833333333333334
 40
0.5833333333333334
 40
0.5833333333333334
 40
0.6666666666666666
 40
0.6666666666666666
 40
0.6666666666666666
 40
0.6666666666666666
 40
0.75
 40
0.75
 40
0.75
 40
0.75
 40
0.8333333333333334
 40
0.8333333333333334
 40
0.8333333333333334
 40
0.8333333333333334
 40
1.0
 40
1.0
 40
1.0
 40
1.0
 10
10.6061
 20
-0.1084
 30
0.0
 10
10.6061
 20
-0.1084
 30
0.0
 10
10.3676
 20
-0.1084
 30
0.0
 10
10.3676
 20
-0.1084
 30
0.0
 10
10.3676
 20
-0.1084
 30
0.0
 10
10.3676
 20
-0.1084
 30
0.0
 10
10.3676
 20
1.1992
 30
0.0
 10
10.3676
 20
1.1992
 30
0.0
 10
10.3676
 20
1.1992
 30
0.0
 10
10.3676
 20
1.1992
 30
0.0
 10
10.5606
 20
1.1992
 30
0.0
 10
10.5606
 20
1.1992
 30
0.0
 10
10.5606
 20
1.1992
 30
0.0
 10
10.6974
 20
1.0708
 30
0.0
 10
10.8795
 20
0.9433
 30
0.0
 10
11.1061
 20
0.8168
 30
0.0
 10
11.1061
 20
0.8168
 30
0.0
 10
11.3329
 20
0.6907
 30
0.0
 10
11.5667
 20
0.5929
 30
0.0
 10
11.806
 20
0.5242
 30
0.0
 10
11.806
 20
0.5242
 30
0.0
 10
11.9754
 20
0.4743
 30
0.0
 10
12.1602
 20
0.4428
 30
0.0
 10
12.3616
 20
0.4292
 30
0.0
 10
12.3616
 20
0.4292
 30
0.0
 10
12.3616
 20
0.4292
 30
0.0
 10
12.3616
 20
0.1743
 30
0.0
 10
12.3616
 20
0.1743
 30
0.0
 10
12.3616
 20
0.1743
 30
0.0
 10
12.2026
 20
0.177
 30
0.0
 10
12.0107
 20
0.2082
 30
0.0
 10
11.7854
 20
0.2678
 30
0.0
 10
11.7854
 20
0.2678
 30
0.0
 10
11.5606
 20
0.3276
 30
0.0
 10
11.3433
 20
0.4131
 30
0.0
 10
11.1344
 20
0.5247
 30
0.0
 10
11.1344
 20
0.5247
 30
0.0
 10
10.9256
 20
0.6366
 30
0.0
 10
10.7491
 20
0.7551
 30
0.0
 10
10.6061
 20
0.8812
 30
0.0
 10
10.6061
 20
0.8812
 30
0.0
 10
10.6061
 20
0.8812
 30
0.0
 10
10.6061
 20
-0.1084
 30
0.0
 10
10.6061
 20
-0.1084
 30
0.0
  0
SPLINE
  5
91
330
1F
100
AcDbEntity
  8
ROUND
 62
   250
100
AcDbSpline
210
0.0
220
0.0
230
1.0
 70
    11
 71
     3
 72
    92
 73
    88
 74
     0
 42
0.0000000001
 43
0.0000000001
 40
0.0
 40
0.0
 40
0.0
 40
0.0
 40
0.0434782608695652
 40
0.0434782608695652
 40
0.0434782608695652
 40
0.0434782608695652
 40
0.0869565217391304
 40
0.0869565217391304
 40
0.0869565217391304
 40
0.0869565217391304
 40
0.1304347826086956
 40
0.1304347826086956
 40
0.1304347826086956
 40
0.1304347826086956
 40
0.1739130434782609
 40
0.1739130434782609
 40
0.1739130434782609
 40
0.1739130434782609
 40
0.2173913043478261
 40
0.2173913043478261
 40
0.2173913043478261
 40
0.2173913043478261
 40
0.2608695652173913
 40
0.2608695652173913
 40
0.2608695652173913
 40
0.2608695652173913
 40
0.3043478260869565
 40
0.3043478260869565
 40
0.3043478260869565
 40
0.3043478260869565
 40
0.3478260869565217
 40
0.3478260869565217
 40
0.3478260869565217
 40
0.3478260869565217
 40
0.391304347826087
 40
0.391304347826087
 40
0.391304347826087
 40
0.391304347826087
 40
0.4347826086956522
 40
0.4347826086956522
 40
0.4347826086956522
 40
0.4347826086956522
 40
0.4782608695652174
 40
0.4782608695652174
 40
0.4782608695652174
 40
0.4782608695652174
 40
0.5217391304347826
 40
0.5217391304347826
 40
0.5217391304347826
 40
0.5217391304347826
 40
0.5652173913043478
 40
0.5652173913043478
 40
0.5652173913043478
 40
0.5652173913043478
 40
0.6086956521739131
 40
0.6086956521739131
 40
0.6086956521739131
 40
0.6086956521739131
 40
0.6521739130434783
 40
0.6521739130434783
 40
0.6521739130434783
 40
0.6521739130434783
 40
0.6956521739130435
 40
0.6956521739130435
 40
0.6956521739130435
 40
0.6956521739130435
 40
0.7391304347826086
 40
0.7391304347826086
 40
0.7391304347826086
 40
0.7391304347826086
 40
0.782608695652174
 40
0.782608695652174
 40
0.782608695652174
 40
0.782608695652174
 40
0.8260869565217391
 40
0.8260869565217391
 40
0.8260869565217391
 40
0.8260869565217391
 40
0.8695652173913043
 40
0.8695652173913043
 40
0.8695652173913043
 40
0.8695652173913043
 40
0.9130434782608695
 40
0.9130434782608695
 40
0.9130434782608695
 40
0.9130434782608695
 40
1.0
 40
1.0
 40
1.0
 40
1.0
 10
11.8324
 20
1.4447
 30
0.0
 10
11.8324
 20
1.4447
 30
0.0
 10
11.8103
 20
1.7053
 30
0.0
 10
11.8103
 20
1.7053
 30
0.0
 10
11.8103
 20
1.7053
 30
0.0
 10
11.9373
 20
1.7246
 30
0.0
 10
12.0323
 20
1.7694
 30
0.0
 10
12.0963
 20
1.8393
 30
0.0
 10
12.0963
 20
1.8393
 30
0.0
 10
12.1602
 20
1.91
 30
0.0
 10
12.1922
 20
1.9946
 30
0.0
 10
12.1922
 20
2.0939
 30
0.0
 10
12.1922
 20
2.0939
 30
0.0
 10
12.1922
 20
2.2133
 30
0.0
 10
12.1471
 20
2.3145
 30
0.0
 10
12.0572
 20
2.3968
 30
0.0
 10
12.0572
 20
2.3968
 30
0.0
 10
11.9669
 20
2.4796
 30
0.0
 10
11.8475
 20
2.5209
 30
0.0
 10
11.6988
 20
2.5209
 30
0.0
 10
11.6988
 20
2.5209
 30
0.0
 10
11.5572
 20
2.5209
 30
0.0
 10
11.4458
 20
2.4815
 30
0.0
 10
11.3639
 20
2.402
 30
0.0
 10
11.3639
 20
2.402
 30
0.0
 10
11.2821
 20
2.3224
 30
0.0
 10
11.2411
 20
2.2186
 30
0.0
 10
11.2411
 20
2.0897
 30
0.0
 10
11.2411
 20
2.0897
 30
0.0
 10
11.2411
 20
2.0097
 30
0.0
 10
11.2595
 20
1.9377
 30
0.0
 10
11.2957
 20
1.8732
 30
0.0
 10
11.2957
 20
1.8732
 30
0.0
 10
11.3319
 20
1.8088
 30
0.0
 10
11.379
 20
1.7585
 30
0.0
 10
11.4368
 20
1.7218
 30
0.0
 10
11.4368
 20
1.7218
 30
0.0
 10
11.4368
 20
1.7218
 30
0.0
 10
11.4068
 20
1.489
 30
0.0
 10
11.4068
 20
1.489
 30
0.0
 10
11.4068
 20
1.489
 30
0.0
 10
11.4068
 20
1.489
 30
0.0
 10
10.3691
 20
1.6847
 30
0.0
 10
10.3691
 20
1.6847
 30
0.0
 10
10.3691
 20
1.6847
 30
0.0
 10
10.3691
 20
1.6847
 30
0.0
 10
10.3691
 20
2.6893
 30
0.0
 10
10.3691
 20
2.6893
 30
0.0
 10
10.3691
 20
2.6893
 30
0.0
 10
10.3691
 20
2.6893
 30
0.0
 10
10.6061
 20
2.6893
 30
0.0
 10
10.6061
 20
2.6893
 30
0.0
 10
10.6061
 20
2.6893
 30
0.0
 10
10.6061
 20
2.6893
 30
0.0
 10
10.6061
 20
1.8832
 30
0.0
 10
10.6061
 20
1.8832
 30
0.0
 10
10.6061
 20
1.8832
 30
0.0
 10
10.6061
 20
1.8832
 30
0.0
 10
11.149
 20
1.774
 30
0.0
 10
11.149
 20
1.774
 30
0.0
 10
11.149
 20
1.774
 30
0.0
 10
11.0643
 20
1.8954
 30
0.0
 10
11.022
 20
2.0228
 30
0.0
 10
11.022
 20
2.1559
 30
0.0
 10
11.022
 20
2.1559
 30
0.0
 10
11.022
 20
2.3324
 30
0.0
 10
11.0831
 20
2.481
 30
0.0
 10
11.2054
 20
2.6024
 30
0.0
 10
11.2054
 20
2.6024
 30
0.0
 10
11.3277
 20
2.7237
 30
0.0
 10
11.4849
 20
2.7843
 30
0.0
 10
11.6768
 20
2.7843
 30
0.0
 10
11.6768
 20
2.7843
 30
0.0
 10
11.8597
 20
2.7843
 30
0.0
 10
12.0178
 20
2.7308
 30
0.0
 10
12.1509
 20
2.6244
 30
0.0
 10
12.1509
 20
2.6244
 30
0.0
 10
12.3142
 20
2.4947
 30
0.0
 10
12.396
 20
2.3178
 30
0.0
 10
12.396
 20
2.0939
 30
0.0
 10
12.396
 20
2.0939
 30
0.0
 10
12.396
 20
1.91
 30
0.0
 10
12.3447
 20
1.7599
 30
0.0
 10
12.2417
 20
1.6437
 30
0.0
 10
12.2417
 20
1.6437
 30
0.0
 10
12.1387
 20
1.5275
 30
0.0
 10
12.0022
 20
1.4613
 30
0.0
 10
11.8324
 20
1.4447
 30
0.0
  0
SPLINE
  5
92
330
1F
100
AcDbEntity
  8
ROUND
 62
   250
100
AcDbSpline
210
0.0
220
0.0
230
1.0
 70
    11
 71
     3
 72
    20
 73
    16
 74
     0
 42
0.0000000001
 43
0.0000000001
 40
0.0
 40
0.0
 40
0.0
 40
0.0
 40
0.2
 40
0.2
 40
0.2
 40
0.2
 40
0.4
 40
0.4
 40
0.4
 40
0.4
 40
0.6
 40
0.6
 40
0.6
 40
0.6
 40
1.0
 40
1.0
 40
1.0
 40
1.0
 10
17.4158
 20
16.3688
 30
0.0
 10
17.4158
 20
16.3688
 30
0.0
 10
17.9174
 20
19.9227
 30
0.0
 10
17.9174
 20
19.9227
 30
0.0
 10
17.9174
 20
19.9227
 30
0.0
 10
17.9174
 20
19.9227
 30
0.0
 10
18.0288
 20
19.9227
 30
0.0
 10
18.0288
 20
19.9227
 30
0.0
 10
18.0288
 20
19.9227
 30
0.0
 10
18.0288
 20
19.9227
 30
0.0
 10
18.5637
 20
16.3688
 30
0.0
 10
18.5637
 20
16.3688
 30
0.0
 10
18.5637
 20
16.3688
 30
0.0
 10
18.5637
 20
16.3688
 30
0.0
 10
17.4158
 20
16.3688
 30
0.0
 10
17.4158
 20
16.3688
 30
0.0
  0
SPLINE
  5
93
330
1F
100
AcDbEntity
  8
ROUND
 62
   250
100
AcDbSpline
210
0.0
220
0.0
230
1.0
 70
    11
 71
     3
 72
    20
 73
    16
 74
     0
 42
0.0000000001
 43
0.0000000001
 40
0.0
 40
0.0
 40
0.0
 40
0.0
 40
0.2
 40
0.2
 40
0.2
 40
0.2
 40
0.4
 40
0.4
 40
0.4
 40
0.4
 40
0.6
 40
0.6
 40
0.6
 40
0.6
 40
1.0
 40
1.0
 40
1.0
 40
1.0
 10
18.5319
 20
9.7265
 30
0.0
 10
18.5319
 20
9.7265
 30
0.0
 10
18.0304
 20
6.1726
 30
0.0
 10
18.0304
 20
6.1726
 30
0.0
 10
18.0304
 20
6.1726
 30
0.0
 10
18.0304
 20
6.1726
 30
0.0
 10
17.919
 20
6.1726
 30
0.0
 10
17.919
 20
6.1726
 30
0.0
 10
17.919
 20
6.1726
 30
0.0
 10
17.919
 20
6.1726
 30
0.0
 10
17.3841
 20
9.7265
 30
0.0
 10
17.3841
 20
9.7265
 30
0.0
 10
17.3841
 20
9.7265
 30
0.0
 10
17.3841
 20
9.7265
 30
0.0
 10
18.5319
 20
9.7265
 30
0.0
 10
18.5319
 20
9.7265
 30
0.0
  0
SPLINE
  5
94
330
1F
100
AcDbEntity
  8
ROUND
 62
   250
100
AcDbSpline
210
0.0
220
0.0
230
1.0
 70
    11
 71
     3
 72
    84
 73
    80
 74
     0
 42
0.0000000001
 43
0.0000000001
 40
0.0
 40
0.0
 40
0.0
 40
0.0
 40
0.0476190476190476
 40
0.0476190476190476
 40
0.0476190476190476
 40
0.0476190476190476
 40
0.0952380952380952
 40
0.0952380952380952
 40
0.0952380952380952
 40
0.0952380952380952
 40
0.1428571428571428
 40
0.1428571428571428
 40
0.1428571428571428
 40
0.1428571428571428
 40
0.1904761904761905
 40
0.1904761904761905
 40
0.1904761904761905
 40
0.1904761904761905
 40
0.2380952380952381
 40
0.2380952380952381
 40
0.2380952380952381
 40
0.2380952380952381
 40
0.2857142857142857
 40
0.2857142857142857
 40
0.2857142857142857
 40
0.2857142857142857
 40
0.3333333333333333
 40
0.3333333333333333
 40
0.3333333333333333
 40
0.3333333333333333
 40
0.3809523809523809
 40
0.3809523809523809
 40
0.3809523809523809
 40
0.3809523809523809
 40
0.4285714285714285
 40
0.4285714285714285
 40
0.4285714285714285
 40
0.4285714285714285
 40
0.4761904761904762
 40
0.4761904761904762
 40
0.4761904761904762
 40
0.4761904761904762
 40
0.5238095238095238
 40
0.5238095238095238
 40
0.5238095238095238
 40
0.5238095238095238
 40
0.5714285714285714
 40
0.5714285714285714
 40
0.5714285714285714
 40
0.5714285714285714
 40
0.6190476190476191
 40
0.6190476190476191
 40
0.6190476190476191
 40
0.6190476190476191
 40
0.6666666666666666
 40
0.6666666666666666
 40
0.6666666666666666
 40
0.6666666666666666
 40
0.7142857142857143
 40
0.7142857142857143
 40
0.7142857142857143
 40
0.7142857142857143
 40
0.7619047619047619
 40
0.7619047619047619
 40
0.7619047619047619
 40
0.7619047619047619
 40
0.8095238095238095
 40
0.8095238095238095
 40
0.8095238095238095
 40
0.8095238095238095
 40
0.8571428571428571
 40
0.8571428571428571
 40
0.8571428571428571
 40
0.8571428571428571
 40
0.9047619047619048
 40
0.9047619047619048
 40
0.9047619047619048
 40
0.9047619047619048
 40
1.0
 40
1.0
 40
1.0
 40
1.0
 10
-11.5969
 20
-15.1867
 30
0.0
 10
-11.5969
 20
-15.1867
 30
0.0
 10
-11.8561
 20
-14.9552
 30
0.0
 10
-11.8561
 20
-14.9552
 30
0.0
 10
-11.8561
 20
-14.9552
 30
0.0
 10
-11.8561
 20
-14.9552
 30
0.0
 10
-11.7404
 20
-14.8189
 30
0.0
 10
-11.7404
 20
-14.8189
 30
0.0
 10
-11.7404
 20
-14.8189
 30
0.0
 10
-11.7404
 20
-14.8189
 30
0.0
 10
-11.4675
 20
-15.0611
 30
0.0
 10
-11.4675
 20
-15.0611
 30
0.0
 10
-11.4675
 20
-15.0611
 30
0.0
 10
-11.35
 20
-14.9821
 30
0.0
 10
-11.247
 20
-14.9289
 30
0.0
 10
-11.1589
 20
-14.9012
 30
0.0
 10
-11.1589
 20
-14.9012
 30
0.0
 10
-11.0432
 20
-14.8644
 30
0.0
 10
-10.9135
 20
-14.8461
 30
0.0
 10
-10.7705
 20
-14.8461
 30
0.0
 10
-10.7705
 20
-14.8461
 30
0.0
 10
-10.5635
 20
-14.8461
 30
0.0
 10
-10.3791
 20
-14.888
 30
0.0
 10
-10.2178
 20
-14.9718
 30
0.0
 10
-10.2178
 20
-14.9718
 30
0.0
 10
-10.0559
 20
-15.0555
 30
0.0
 10
-9.9336
 20
-15.1725
 30
0.0
 10
-9.8509
 20
-15.3236
 30
0.0
 10
-9.8509
 20
-15.3236
 30
0.0
 10
-9.7686
 20
-15.475
 30
0.0
 10
-9.7271
 20
-15.6354
 30
0.0
 10
-9.7271
 20
-15.8052
 30
0.0
 10
-9.7271
 20
-15.8052
 30
0.0
 10
-9.7271
 20
-15.9322
 30
0.0
 10
-9.7451
 20
-16.047
 30
0.0
 10
-9.7808
 20
-16.15
 30
0.0
 10
-9.7808
 20
-16.15
 30
0.0
 10
-9.8086
 20
-16.229
 30
0.0
 10
-9.8613
 20
-16.3213
 30
0.0
 10
-9.9393
 20
-16.4271
 30
0.0
 10
-9.9393
 20
-16.4271
 30
0.0
 10
-9.9393
 20
-16.4271
 30
0.0
 10
-9.6802
 20
-16.6585
 30
0.0
 10
-9.6802
 20
-16.6585
 30
0.0
 10
-9.6802
 20
-16.6585
 30
0.0
 10
-9.6802
 20
-16.6585
 30
0.0
 10
-9.7959
 20
-16.7949
 30
0.0
 10
-9.7959
 20
-16.7949
 30
0.0
 10
-9.7959
 20
-16.7949
 30
0.0
 10
-9.7959
 20
-16.7949
 30
0.0
 10
-10.0672
 20
-16.5522
 30
0.0
 10
-10.0672
 20
-16.5522
 30
0.0
 10
-10.0672
 20
-16.5522
 30
0.0
 10
-10.2041
 20
-16.6424
 30
0.0
 10
-10.3213
 20
-16.7027
 30
0.0
 10
-10.4182
 20
-16.7329
 30
0.0
 10
-10.4182
 20
-16.7329
 30
0.0
 10
-10.5151
 20
-16.7629
 30
0.0
 10
-10.6316
 20
-16.7784
 30
0.0
 10
-10.7676
 20
-16.7784
 30
0.0
 10
-10.7676
 20
-16.7784
 30
0.0
 10
-10.9751
 20
-16.7784
 30
0.0
 10
-11.1599
 20
-16.7371
 30
0.0
 10
-11.3222
 20
-16.6543
 30
0.0
 10
-11.3222
 20
-16.6543
 30
0.0
 10
-11.4845
 20
-16.5715
 30
0.0
 10
-11.6073
 20
-16.4558
 30
0.0
 10
-11.6909
 20
-16.3062
 30
0.0
 10
-11.6909
 20
-16.3062
 30
0.0
 10
-11.7743
 20
-16.1571
 30
0.0
 10
-11.8161
 20
-15.991
 30
0.0
 10
-11.8161
 20
-15.808
 30
0.0
 10
-11.8161
 20
-15.808
 30
0.0
 10
-11.8161
 20
-15.6848
 30
0.0
 10
-11.8002
 20
-15.5772
 30
0.0
 10
-11.7672
 20
-15.4849
 30
0.0
 10
-11.7672
 20
-15.4849
 30
0.0
 10
-11.7348
 20
-15.3927
 30
0.0
 10
-11.6777
 20
-15.293
 30
0.0
 10
-11.5969
 20
-15.1867
 30
0.0
  0
SPLINE
  5
95
330
1F
100
AcDbEntity
  8
ROUND
 62
   250
100
AcDbSpline
210
0.0
220
0.0
230
1.0
 70
    11
 71
     3
 72
    32
 73
    28
 74
     0
 42
0.0000000001
 43
0.0000000001
 40
0.0
 40
0.0
 40
0.0
 40
0.0
 40
0.125
 40
0.125
 40
0.125
 40
0.125
 40
0.25
 40
0.25
 40
0.25
 40
0.25
 40
0.375
 40
0.375
 40
0.375
 40
0.375
 40
0.5
 40
0.5
 40
0.5
 40
0.5
 40
0.625
 40
0.625
 40
0.625
 40
0.625
 40
0.75
 40
0.75
 40
0.75
 40
0.75
 40
1.0
 40
1.0
 40
1.0
 40
1.0
 10
-11.4111
 20
-15.3517
 30
0.0
 10
-11.4789
 20
-15.4383
 30
0.0
 10
-11.5254
 20
-15.514
 30
0.0
 10
-11.5503
 20
-15.5785
 30
0.0
 10
-11.5503
 20
-15.5785
 30
0.0
 10
-11.5748
 20
-15.6434
 30
0.0
 10
-11.5875
 20
-15.7196
 30
0.0
 10
-11.5875
 20
-15.8067
 30
0.0
 10
-11.5875
 20
-15.8067
 30
0.0
 10
-11.5875
 20
-16.0079
 30
0.0
 10
-11.5193
 20
-16.1741
 30
0.0
 10
-11.3828
 20
-16.3057
 30
0.0
 10
-11.3828
 20
-16.3057
 30
0.0
 10
-11.2465
 20
-16.437
 30
0.0
 10
-11.0429
 20
-16.5028
 30
0.0
 10
-10.7714
 20
-16.5028
 30
0.0
 10
-10.7714
 20
-16.5028
 30
0.0
 10
-10.6651
 20
-16.5028
 30
0.0
 10
-10.5705
 20
-16.4925
 30
0.0
 10
-10.4878
 20
-16.4722
 30
0.0
 10
-10.4878
 20
-16.4722
 30
0.0
 10
-10.4262
 20
-16.4576
 30
0.0
 10
-10.3504
 20
-16.4271
 30
0.0
 10
-10.2605
 20
-16.38
 30
0.0
 10
-10.2605
 20
-16.38
 30
0.0
 10
-10.2605
 20
-16.38
 30
0.0
 10
-11.4111
 20
-15.3517
 30
0.0
 10
-11.4111
 20
-15.3517
 30
0.0
  0
SPLINE
  5
96
330
1F
100
AcDbEntity
  8
ROUND
 62
   250
100
AcDbSpline
210
0.0
220
0.0
230
1.0
 70
    11
 71
     3
 72
    28
 73
    24
 74
     0
 42
0.0000000001
 43
0.0000000001
 40
0.0
 40
0.0
 40
0.0
 40
0.0
 40
0.1428571428571428
 40
0.1428571428571428
 40
0.1428571428571428
 40
0.1428571428571428
 40
0.2857142857142857
 40
0.2857142857142857
 40
0.2857142857142857
 40
0.2857142857142857
 40
0.4285714285714285
 40
0.4285714285714285
 40
0.4285714285714285
 40
0.4285714285714285
 40
0.5714285714285714
 40
0.5714285714285714
 40
0.5714285714285714
 40
0.5714285714285714
 40
0.7142857142857143
 40
0.7142857142857143
 40
0.7142857142857143
 40
0.7142857142857143
 40
1.0
 40
1.0
 40
1.0
 40
1.0
 10
-11.269
 20
-15.2389
 30
0.0
 10
-11.269
 20
-15.2389
 30
0.0
 10
-10.1228
 20
-16.2629
 30
0.0
 10
-10.1228
 20
-16.2629
 30
0.0
 10
-10.1228
 20
-16.2629
 30
0.0
 10
-10.0649
 20
-16.1924
 30
0.0
 10
-10.0244
 20
-16.127
 30
0.0
 10
-10.0014
 20
-16.0672
 30
0.0
 10
-10.0014
 20
-16.0672
 30
0.0
 10
-9.9708
 20
-15.9891
 30
0.0
 10
-9.9558
 20
-15.9044
 30
0.0
 10
-9.9558
 20
-15.8137
 30
0.0
 10
-9.9558
 20
-15.8137
 30
0.0
 10
-9.9558
 20
-15.6133
 30
0.0
 10
-10.0263
 20
-15.4483
 30
0.0
 10
-10.1679
 20
-15.3175
 30
0.0
 10
-10.1679
 20
-15.3175
 30
0.0
 10
-10.3095
 20
-15.1871
 30
0.0
 10
-10.508
 20
-15.1217
 30
0.0
 10
-10.7634
 20
-15.1217
 30
0.0
 10
-10.7634
 20
-15.1217
 30
0.0
 10
-10.9543
 20
-15.1217
 30
0.0
 10
-11.1232
 20
-15.1608
 30
0.0
 10
-11.269
 20
-15.2389
 30
0.0
  0
SPLINE
  5
97
330
1F
100
AcDbEntity
  8
ROUND
 62
   250
100
AcDbSpline
210
0.0
220
0.0
230
1.0
 70
    11
 71
     3
 72
    92
 73
    88
 74
     0
 42
0.0000000001
 43
0.0000000001
 40
0.0
 40
0.0
 40
0.0
 40
0.0
 40
0.0434782608695652
 40
0.0434782608695652
 40
0.0434782608695652
 40
0.0434782608695652
 40
0.0869565217391304
 40
0.0869565217391304
 40
0.0869565217391304
 40
0.0869565217391304
 40
0.1304347826086956
 40
0.1304347826086956
 40
0.1304347826086956
 40
0.1304347826086956
 40
0.1739130434782609
 40
0.1739130434782609
 40
0.1739130434782609
 40
0.1739130434782609
 40
0.2173913043478261
 40
0.2173913043478261
 40
0.2173913043478261
 40
0.2173913043478261
 40
0.2608695652173913
 40
0.2608695652173913
 40
0.2608695652173913
 40
0.2608695652173913
 40
0.3043478260869565
 40
0.3043478260869565
 40
0.3043478260869565
 40
0.3043478260869565
 40
0.3478260869565217
 40
0.3478260869565217
 40
0.3478260869565217
 40
0.3478260869565217
 40
0.391304347826087
 40
0.391304347826087
 40
0.391304347826087
 40
0.391304347826087
 40
0.4347826086956522
 40
0.4347826086956522
 40
0.4347826086956522
 40
0.4347826086956522
 40
0.4782608695652174
 40
0.4782608695652174
 40
0.4782608695652174
 40
0.4782608695652174
 40
0.5217391304347826
 40
0.5217391304347826
 40
0.5217391304347826
 40
0.5217391304347826
 40
0.5652173913043478
 40
0.5652173913043478
 40
0.5652173913043478
 40
0.5652173913043478
 40
0.6086956521739131
 40
0.6086956521739131
 40
0.6086956521739131
 40
0.6086956521739131
 40
0.6521739130434783
 40
0.6521739130434783
 40
0.6521739130434783
 40
0.6521739130434783
 40
0.6956521739130435
 40
0.6956521739130435
 40
0.6956521739130435
 40
0.6956521739130435
 40
0.7391304347826086
 40
0.7391304347826086
 40
0.7391304347826086
 40
0.7391304347826086
 40
0.782608695652174
 40
0.782608695652174
 40
0.782608695652174
 40
0.782608695652174
 40
0.8260869565217391
 40
0.8260869565217391
 40
0.8260869565217391
 40
0.8260869565217391
 40
0.8695652173913043
 40
0.8695652173913043
 40
0.8695652173913043
 40
0.8695652173913043
 40
0.9130434782608695
 40
0.9130434782608695
 40
0.9130434782608695
 40
0.9130434782608695
 40
1.0
 40
1.0
 40
1.0
 40
1.0
 10
-10.2907
 20
-14.5969
 30
0.0
 10
-10.2907
 20
-14.5969
 30
0.0
 10
-10.3128
 20
-14.3363
 30
0.0
 10
-10.3128
 20
-14.3363
 30
0.0
 10
-10.3128
 20
-14.3363
 30
0.0
 10
-10.1858
 20
-14.317
 30
0.0
 10
-10.0908
 20
-14.2723
 30
0.0
 10
-10.0268
 20
-14.2023
 30
0.0
 10
-10.0268
 20
-14.2023
 30
0.0
 10
-9.9629
 20
-14.1317
 30
0.0
 10
-9.9309
 20
-14.047
 30
0.0
 10
-9.9309
 20
-13.9477
 30
0.0
 10
-9.9309
 20
-13.9477
 30
0.0
 10
-9.9309
 20
-13.8283
 30
0.0
 10
-9.976
 20
-13.7272
 30
0.0
 10
-10.0659
 20
-13.6448
 30
0.0
 10
-10.0659
 20
-13.6448
 30
0.0
 10
-10.1562
 20
-13.562
 30
0.0
 10
-10.2756
 20
-13.5207
 30
0.0
 10
-10.4243
 20
-13.5207
 30
0.0
 10
-10.4243
 20
-13.5207
 30
0.0
 10
-10.5659
 20
-13.5207
 30
0.0
 10
-10.6773
 20
-13.5602
 30
0.0
 10
-10.7592
 20
-13.6396
 30
0.0
 10
-10.7592
 20
-13.6396
 30
0.0
 10
-10.841
 20
-13.7192
 30
0.0
 10
-10.882
 20
-13.8231
 30
0.0
 10
-10.882
 20
-13.9519
 30
0.0
 10
-10.882
 20
-13.9519
 30
0.0
 10
-10.882
 20
-14.0319
 30
0.0
 10
-10.8636
 20
-14.1039
 30
0.0
 10
-10.8274
 20
-14.1684
 30
0.0
 10
-10.8274
 20
-14.1684
 30
0.0
 10
-10.7912
 20
-14.2328
 30
0.0
 10
-10.7441
 20
-14.2831
 30
0.0
 10
-10.6863
 20
-14.3198
 30
0.0
 10
-10.6863
 20
-14.3198
 30
0.0
 10
-10.6863
 20
-14.3198
 30
0.0
 10
-10.7163
 20
-14.5526
 30
0.0
 10
-10.7163
 20
-14.5526
 30
0.0
 10
-10.7163
 20
-14.5526
 30
0.0
 10
-10.7163
 20
-14.5526
 30
0.0
 10
-11.754
 20
-14.3569
 30
0.0
 10
-11.754
 20
-14.3569
 30
0.0
 10
-11.754
 20
-14.3569
 30
0.0
 10
-11.754
 20
-14.3569
 30
0.0
 10
-11.754
 20
-13.3523
 30
0.0
 10
-11.754
 20
-13.3523
 30
0.0
 10
-11.754
 20
-13.3523
 30
0.0
 10
-11.754
 20
-13.3523
 30
0.0
 10
-11.517
 20
-13.3523
 30
0.0
 10
-11.517
 20
-13.3523
 30
0.0
 10
-11.517
 20
-13.3523
 30
0.0
 10
-11.517
 20
-13.3523
 30
0.0
 10
-11.517
 20
-14.1584
 30
0.0
 10
-11.517
 20
-14.1584
 30
0.0
 10
-11.517
 20
-14.1584
 30
0.0
 10
-11.517
 20
-14.1584
 30
0.0
 10
-10.9741
 20
-14.2677
 30
0.0
 10
-10.9741
 20
-14.2677
 30
0.0
 10
-10.9741
 20
-14.2677
 30
0.0
 10
-11.0588
 20
-14.1462
 30
0.0
 10
-11.1011
 20
-14.0188
 30
0.0
 10
-11.1011
 20
-13.8857
 30
0.0
 10
-11.1011
 20
-13.8857
 30
0.0
 10
-11.1011
 20
-13.7092
 30
0.0
 10
-11.04
 20
-13.5607
 30
0.0
 10
-10.9177
 20
-13.4392
 30
0.0
 10
-10.9177
 20
-13.4392
 30
0.0
 10
-10.7954
 20
-13.3179
 30
0.0
 10
-10.6382
 20
-13.2573
 30
0.0
 10
-10.4463
 20
-13.2573
 30
0.0
 10
-10.4463
 20
-13.2573
 30
0.0
 10
-10.2634
 20
-13.2573
 30
0.0
 10
-10.1053
 20
-13.3108
 30
0.0
 10
-9.9722
 20
-13.4172
 30
0.0
 10
-9.9722
 20
-13.4172
 30
0.0
 10
-9.8089
 20
-13.547
 30
0.0
 10
-9.7271
 20
-13.7238
 30
0.0
 10
-9.7271
 20
-13.9477
 30
0.0
 10
-9.7271
 20
-13.9477
 30
0.0
 10
-9.7271
 20
-14.1317
 30
0.0
 10
-9.7784
 20
-14.2817
 30
0.0
 10
-9.8814
 20
-14.3979
 30
0.0
 10
-9.8814
 20
-14.3979
 30
0.0
 10
-9.9844
 20
-14.5141
 30
0.0
 10
-10.1209
 20
-14.5804
 30
0.0
 10
-10.2907
 20
-14.5969
 30
0.0
  0
SPLINE
  5
98
330
1F
100
AcDbEntity
  8
ROUND
 62
   250
100
AcDbSpline
210
0.0
220
0.0
230
1.0
 70
    11
 71
     3
 72
    52
 73
    48
 74
     0
 42
0.0000000001
 43
0.0000000001
 40
0.0
 40
0.0
 40
0.0
 40
0.0
 40
0.0769230769230769
 40
0.0769230769230769
 40
0.0769230769230769
 40
0.0769230769230769
 40
0.1538461538461539
 40
0.1538461538461539
 40
0.1538461538461539
 40
0.1538461538461539
 40
0.2307692307692308
 40
0.2307692307692308
 40
0.2307692307692308
 40
0.2307692307692308
 40
0.3076923076923077
 40
0.3076923076923077
 40
0.3076923076923077
 40
0.3076923076923077
 40
0.3846153846153846
 40
0.3846153846153846
 40
0.3846153846153846
 40
0.3846153846153846
 40
0.4615384615384616
 40
0.4615384615384616
 40
0.4615384615384616
 40
0.4615384615384616
 40
0.5384615384615384
 40
0.5384615384615384
 40
0.5384615384615384
 40
0.5384615384615384
 40
0.6153846153846154
 40
0.6153846153846154
 40
0.6153846153846154
 40
0.6153846153846154
 40
0.6923076923076923
 40
0.6923076923076923
 40
0.6923076923076923
 40
0.6923076923076923
 40
0.7692307692307693
 40
0.7692307692307693
 40
0.7692307692307693
 40
0.7692307692307693
 40
0.8461538461538461
 40
0.8461538461538461
 40
0.8461538461538461
 40
0.8461538461538461
 40
1.0
 40
1.0
 40
1.0
 40
1.0
 10
-10.7578
 20
-13.0273
 30
0.0
 10
-10.9967
 20
-13.0273
 30
0.0
 10
-11.1891
 20
-13.0027
 30
0.0
 10
-11.3344
 20
-12.9534
 30
0.0
 10
-11.3344
 20
-12.9534
 30
0.0
 10
-11.4802
 20
-12.9045
 30
0.0
 10
-11.5927
 20
-12.8311
 30
0.0
 10
-11.6716
 20
-12.7341
 30
0.0
 10
-11.6716
 20
-12.7341
 30
0.0
 10
-11.7507
 20
-12.6372
 30
0.0
 10
-11.7902
 20
-12.5154
 30
0.0
 10
-11.7902
 20
-12.3687
 30
0.0
 10
-11.7902
 20
-12.3687
 30
0.0
 10
-11.7902
 20
-12.26
 30
0.0
 10
-11.7682
 20
-12.165
 30
0.0
 10
-11.7243
 20
-12.0832
 30
0.0
 10
-11.7243
 20
-12.0832
 30
0.0
 10
-11.6811
 20
-12.0013
 30
0.0
 10
-11.6181
 20
-11.9341
 30
0.0
 10
-11.5358
 20
-11.8804
 30
0.0
 10
-11.5358
 20
-11.8804
 30
0.0
 10
-11.4535
 20
-11.8272
 30
0.0
 10
-11.3532
 20
-11.7854
 30
0.0
 10
-11.2351
 20
-11.7554
 30
0.0
 10
-11.2351
 20
-11.7554
 30
0.0
 10
-11.1171
 20
-11.7247
 30
0.0
 10
-10.9582
 20
-11.7097
 30
0.0
 10
-10.7578
 20
-11.7097
 30
0.0
 10
-10.7578
 20
-11.7097
 30
0.0
 10
-10.5207
 20
-11.7097
 30
0.0
 10
-10.3298
 20
-11.7342
 30
0.0
 10
-10.1839
 20
-11.7826
 30
0.0
 10
-10.1839
 20
-11.7826
 30
0.0
 10
-10.0381
 20
-11.8315
 30
0.0
 10
-9.9256
 20
-11.9044
 30
0.0
 10
-9.8462
 20
-12.0013
 30
0.0
 10
-9.8462
 20
-12.0013
 30
0.0
 10
-9.7667
 20
-12.0982
 30
0.0
 10
-9.7271
 20
-12.2205
 30
0.0
 10
-9.7271
 20
-12.3687
 30
0.0
 10
-9.7271
 20
-12.3687
 30
0.0
 10
-9.7271
 20
-12.5634
 30
0.0
 10
-9.7967
 20
-12.7163
 30
0.0
 10
-9.9365
 20
-12.8273
 30
0.0
 10
-9.9365
 20
-12.8273
 30
0.0
 10
-10.1043
 20
-12.9604
 30
0.0
 10
-10.3786
 20
-13.0273
 30
0.0
 10
-10.7578
 20
-13.0273
 30
0.0
  0
SPLINE
  5
99
330
1F
100
AcDbEntity
  8
ROUND
 62
   250
100
AcDbSpline
210
0.0
220
0.0
230
1.0
 70
    11
 71
     3
 72
    36
 73
    32
 74
     0
 42
0.0000000001
 43
0.0000000001
 40
0.0
 40
0.0
 40
0.0
 40
0.0
 40
0.1111111111111111
 40
0.1111111111111111
 40
0.1111111111111111
 40
0.1111111111111111
 40
0.2222222222222222
 40
0.2222222222222222
 40
0.2222222222222222
 40
0.2222222222222222
 40
0.3333333333333333
 40
0.3333333333333333
 40
0.3333333333333333
 40
0.3333333333333333
 40
0.4444444444444444
 40
0.4444444444444444
 40
0.4444444444444444
 40
0.4444444444444444
 40
0.5555555555555556
 40
0.5555555555555556
 40
0.5555555555555556
 40
0.5555555555555556
 40
0.6666666666666666
 40
0.6666666666666666
 40
0.6666666666666666
 40
0.6666666666666666
 40
0.7777777777777778
 40
0.7777777777777778
 40
0.7777777777777778
 40
0.7777777777777778
 40
1.0
 40
1.0
 40
1.0
 40
1.0
 10
-10.7578
 20
-12.7722
 30
0.0
 10
-10.4262
 20
-12.7722
 30
0.0
 10
-10.2055
 20
-12.7332
 30
0.0
 10
-10.0955
 20
-12.6556
 30
0.0
 10
-10.0955
 20
-12.6556
 30
0.0
 10
-9.9859
 20
-12.5779
 30
0.0
 10
-9.9309
 20
-12.4825
 30
0.0
 10
-9.9309
 20
-12.3687
 30
0.0
 10
-9.9309
 20
-12.3687
 30
0.0
 10
-9.9309
 20
-12.2544
 30
0.0
 10
-9.9863
 20
-12.1589
 30
0.0
 10
-10.0964
 20
-12.0813
 30
0.0
 10
-10.0964
 20
-12.0813
 30
0.0
 10
-10.2065
 20
-12.0037
 30
0.0
 10
-10.427
 20
-11.9646
 30
0.0
 10
-10.7578
 20
-11.9646
 30
0.0
 10
-10.7578
 20
-11.9646
 30
0.0
 10
-11.0903
 20
-11.9646
 30
0.0
 10
-11.3114
 20
-12.0037
 30
0.0
 10
-11.4205
 20
-12.0813
 30
0.0
 10
-11.4205
 20
-12.0813
 30
0.0
 10
-11.5302
 20
-12.1589
 30
0.0
 10
-11.5847
 20
-12.2553
 30
0.0
 10
-11.5847
 20
-12.3711
 30
0.0
 10
-11.5847
 20
-12.3711
 30
0.0
 10
-11.5847
 20
-12.4853
 30
0.0
 10
-11.5363
 20
-12.5761
 30
0.0
 10
-11.4398
 20
-12.6443
 30
0.0
 10
-11.4398
 20
-12.6443
 30
0.0
 10
-11.3171
 20
-12.7295
 30
0.0
 10
-11.0893
 20
-12.7722
 30
0.0
 10
-10.7578
 20
-12.7722
 30
0.0
  0
SPLINE
  5
9A
330
1F
100
AcDbEntity
  8
ROUND
 62
   250
100
AcDbSpline
210
0.0
220
0.0
230
1.0
 70
    11
 71
     3
 72
    20
 73
    16
 74
     0
 42
0.0000000001
 43
0.0000000001
 40
0.0
 40
0.0
 40
0.0
 40
0.0
 40
0.2
 40
0.2
 40
0.2
 40
0.2
 40
0.4
 40
0.4
 40
0.4
 40
0.4
 40
0.6
 40
0.6
 40
0.6
 40
0.6
 40
1.0
 40
1.0
 40
1.0
 40
1.0
 10
-9.6578
 20
-24.2745
 30
0.0
 10
-9.6578
 20
-24.2745
 30
0.0
 10
-9.1562
 20
-20.7206
 30
0.0
 10
-9.1562
 20
-20.7206
 30
0.0
 10
-9.1562
 20
-20.7206
 30
0.0
 10
-9.1562
 20
-20.7206
 30
0.0
 10
-9.0448
 20
-20.7206
 30
0.0
 10
-9.0448
 20
-20.7206
 30
0.0
 10
-9.0448
 20
-20.7206
 30
0.0
 10
-9.0448
 20
-20.7206
 30
0.0
 10
-8.5099
 20
-24.2745
 30
0.0
 10
-8.5099
 20
-24.2745
 30
0.0
 10
-8.5099
 20
-24.2745
 30
0.0
 10
-8.5099
 20
-24.2745
 30
0.0
 10
-9.6578
 20
-24.2745
 30
0.0
 10
-9.6578
 20
-24.2745
 30
0.0
  0
SPLINE
  5
9B
330
1F
100
AcDbEntity
  8
ROUND
 62
   250
100
AcDbSpline
210
0.0
220
0.0
230
1.0
 70
    11
 71
     3
 72
    20
 73
    16
 74
     0
 42
0.0000000001
 43
0.0000000001
 40
0.0
 40
0.0
 40
0.0
 40
0.0
 40
0.2
 40
0.2
 40
0.2
 40
0.2
 40
0.4
 40
0.4
 40
0.4
 40
0.4
 40
0.6
 40
0.6
 40
0.6
 40
0.6
 40
1.0
 40
1.0
 40
1.0
 40
1.0
 10
-8.5521
 20
-5.185
 30
0.0
 10
-8.5521
 20
-5.185
 30
0.0
 10
-9.0536
 20
-8.7389
 30
0.0
 10
-9.0536
 20
-8.7389
 30
0.0
 10
-9.0536
 20
-8.7389
 30
0.0
 10
-9.0536
 20
-8.7389
 30
0.0
 10
-9.165
 20
-8.7389
 30
0.0
 10
-9.165
 20
-8.7389
 30
0.0
 10
-9.165
 20
-8.7389
 30
0.0
 10
-9.165
 20
-8.7389
 30
0.0
 10
-9.6999
 20
-5.185
 30
0.0
 10
-9.6999
 20
-5.185
 30
0.0
 10
-9.6999
 20
-5.185
 30
0.0
 10
-9.6999
 20
-5.185
 30
0.0
 10
-8.5521
 20
-5.185
 30
0.0
 10
-8.5521
 20
-5.185
 30
0.0
  0
SPLINE
  5
9C
330
1F
100
AcDbEntity
  8
ROUND
 62
   250
100
AcDbSpline
210
0.0
220
0.0
230
1.0
 70
    24
 71
     3
 72
     8
 73
     4
 74
     0
 42
0.0000000001
 43
0.0000000001
 40
0.0
 40
0.0
 40
0.0
 40
0.0
 40
1.0
 40
1.0
 40
1.0
 40
1.0
 10
-9.1108
 20
-25.6524
 30
0.0
 10
-9.1108
 20
-25.6524
 30
0.0
 10
-9.1108
 20
-3.8677
 30
0.0
 10
-9.1108
 20
-3.8677
 30
0.0
  0
SPLINE
  5
9D
330
1F
100
AcDbEntity
  8
ROUND
 62
   250
100
AcDbSpline
210
0.0
220
0.0
230
1.0
 70
    11
 71
     3
 72
    48
 73
    44
 74
     0
 42
0.0000000001
 43
0.0000000001
 40
0.0
 40
0.0
 40
0.0
 40
0.0
 40
0.0833333333333333
 40
0.0833333333333333
 40
0.0833333333333333
 40
0.0833333333333333
 40
0.1666666666666667
 40
0.1666666666666667
 40
0.1666666666666667
 40
0.1666666666666667
 40
0.25
 40
0.25
 40
0.25
 40
0.25
 40
0.3333333333333333
 40
0.3333333333333333
 40
0.3333333333333333
 40
0.3333333333333333
 40
0.4166666666666667
 40
0.4166666666666667
 40
0.4166666666666667
 40
0.4166666666666667
 40
0.5
 40
0.5
 40
0.5
 40
0.5
 40
0.5833333333333334
 40
0.5833333333333334
 40
0.5833333333333334
 40
0.5833333333333334
 40
0.6666666666666666
 40
0.6666666666666666
 40
0.6666666666666666
 40
0.6666666666666666
 40
0.75
 40
0.75
 40
0.75
 40
0.75
 40
0.8333333333333334
 40
0.8333333333333334
 40
0.8333333333333334
 40
0.8333333333333334
 40
1.0
 40
1.0
 40
1.0
 40
1.0
 10
-31.7074
 20
27.9788
 30
0.0
 10
-31.7074
 20
27.9788
 30
0.0
 10
-31.7074
 20
28.2173
 30
0.0
 10
-31.7074
 20
28.2173
 30
0.0
 10
-31.7074
 20
28.2173
 30
0.0
 10
-31.7074
 20
28.2173
 30
0.0
 10
-30.3998
 20
28.2173
 30
0.0
 10
-30.3998
 20
28.2173
 30
0.0
 10
-30.3998
 20
28.2173
 30
0.0
 10
-30.3998
 20
28.2173
 30
0.0
 10
-30.3998
 20
28.0244
 30
0.0
 10
-30.3998
 20
28.0244
 30
0.0
 10
-30.3998
 20
28.0244
 30
0.0
 10
-30.5282
 20
27.8876
 30
0.0
 10
-30.6557
 20
27.7055
 30
0.0
 10
-30.7822
 20
27.4788
 30
0.0
 10
-30.7822
 20
27.4788
 30
0.0
 10
-30.9083
 20
27.2521
 30
0.0
 10
-31.0061
 20
27.0183
 30
0.0
 10
-31.0748
 20
26.7789
 30
0.0
 10
-31.0748
 20
26.7789
 30
0.0
 10
-31.1246
 20
26.6096
 30
0.0
 10
-31.1561
 20
26.4247
 30
0.0
 10
-31.1698
 20
26.2234
 30
0.0
 10
-31.1698
 20
26.2234
 30
0.0
 10
-31.1698
 20
26.2234
 30
0.0
 10
-31.4247
 20
26.2234
 30
0.0
 10
-31.4247
 20
26.2234
 30
0.0
 10
-31.4247
 20
26.2234
 30
0.0
 10
-31.4219
 20
26.3824
 30
0.0
 10
-31.3909
 20
26.5743
 30
0.0
 10
-31.3311
 20
26.7996
 30
0.0
 10
-31.3311
 20
26.7996
 30
0.0
 10
-31.2714
 20
27.0244
 30
0.0
 10
-31.1858
 20
27.2417
 30
0.0
 10
-31.0743
 20
27.4506
 30
0.0
 10
-31.0743
 20
27.4506
 30
0.0
 10
-30.9624
 20
27.6594
 30
0.0
 10
-30.8438
 20
27.8358
 30
0.0
 10
-30.7178
 20
27.9788
 30
0.0
 10
-30.7178
 20
27.9788
 30
0.0
 10
-30.7178
 20
27.9788
 30
0.0
 10
-31.7074
 20
27.9788
 30
0.0
 10
-31.7074
 20
27.9788
 30
0.0
  0
SPLINE
  5
9E
330
1F
100
AcDbEntity
  8
ROUND
 62
   250
100
AcDbSpline
210
0.0
220
0.0
230
1.0
 70
    11
 71
     3
 72
    92
 73
    88
 74
     0
 42
0.0000000001
 43
0.0000000001
 40
0.0
 40
0.0
 40
0.0
 40
0.0
 40
0.0434782608695652
 40
0.0434782608695652
 40
0.0434782608695652
 40
0.0434782608695652
 40
0.0869565217391304
 40
0.0869565217391304
 40
0.0869565217391304
 40
0.0869565217391304
 40
0.1304347826086956
 40
0.1304347826086956
 40
0.1304347826086956
 40
0.1304347826086956
 40
0.1739130434782609
 40
0.1739130434782609
 40
0.1739130434782609
 40
0.1739130434782609
 40
0.2173913043478261
 40
0.2173913043478261
 40
0.2173913043478261
 40
0.2173913043478261
 40
0.2608695652173913
 40
0.2608695652173913
 40
0.2608695652173913
 40
0.2608695652173913
 40
0.3043478260869565
 40
0.3043478260869565
 40
0.3043478260869565
 40
0.3043478260869565
 40
0.3478260869565217
 40
0.3478260869565217
 40
0.3478260869565217
 40
0.3478260869565217
 40
0.391304347826087
 40
0.391304347826087
 40
0.391304347826087
 40
0.391304347826087
 40
0.4347826086956522
 40
0.4347826086956522
 40
0.4347826086956522
 40
0.4347826086956522
 40
0.4782608695652174
 40
0.4782608695652174
 40
0.4782608695652174
 40
0.4782608695652174
 40
0.5217391304347826
 40
0.5217391304347826
 40
0.5217391304347826
 40
0.5217391304347826
 40
0.5652173913043478
 40
0.5652173913043478
 40
0.5652173913043478
 40
0.5652173913043478
 40
0.6086956521739131
 40
0.6086956521739131
 40
0.6086956521739131
 40
0.6086956521739131
 40
0.6521739130434783
 40
0.6521739130434783
 40
0.6521739130434783
 40
0.6521739130434783
 40
0.6956521739130435
 40
0.6956521739130435
 40
0.6956521739130435
 40
0.6956521739130435
 40
0.7391304347826086
 40
0.7391304347826086
 40
0.7391304347826086
 40
0.7391304347826086
 40
0.782608695652174
 40
0.782608695652174
 40
0.782608695652174
 40
0.782608695652174
 40
0.8260869565217391
 40
0.8260869565217391
 40
0.8260869565217391
 40
0.8260869565217391
 40
0.8695652173913043
 40
0.8695652173913043
 40
0.8695652173913043
 40
0.8695652173913043
 40
0.9130434782608695
 40
0.9130434782608695
 40
0.9130434782608695
 40
0.9130434782608695
 40
1.0
 40
1.0
 40
1.0
 40
1.0
 10
-30.1543
 20
26.7526
 30
0.0
 10
-30.1543
 20
26.7526
 30
0.0
 10
-29.8937
 20
26.7747
 30
0.0
 10
-29.8937
 20
26.7747
 30
0.0
 10
-29.8937
 20
26.7747
 30
0.0
 10
-29.8744
 20
26.6477
 30
0.0
 10
-29.8297
 20
26.5527
 30
0.0
 10
-29.7596
 20
26.4887
 30
0.0
 10
-29.7596
 20
26.4887
 30
0.0
 10
-29.6891
 20
26.4247
 30
0.0
 10
-29.6044
 20
26.3927
 30
0.0
 10
-29.5052
 20
26.3927
 30
0.0
 10
-29.5052
 20
26.3927
 30
0.0
 10
-29.3857
 20
26.3927
 30
0.0
 10
-29.2846
 20
26.4379
 30
0.0
 10
-29.2023
 20
26.5277
 30
0.0
 10
-29.2023
 20
26.5277
 30
0.0
 10
-29.1195
 20
26.618
 30
0.0
 10
-29.0781
 20
26.7375
 30
0.0
 10
-29.0781
 20
26.8861
 30
0.0
 10
-29.0781
 20
26.8861
 30
0.0
 10
-29.0781
 20
27.0277
 30
0.0
 10
-29.1176
 20
27.1392
 30
0.0
 10
-29.1971
 20
27.221
 30
0.0
 10
-29.1971
 20
27.221
 30
0.0
 10
-29.2766
 20
27.3029
 30
0.0
 10
-29.3805
 20
27.3438
 30
0.0
 10
-29.5094
 20
27.3438
 30
0.0
 10
-29.5094
 20
27.3438
 30
0.0
 10
-29.5894
 20
27.3438
 30
0.0
 10
-29.6613
 20
27.3255
 30
0.0
 10
-29.7258
 20
27.2893
 30
0.0
 10
-29.7258
 20
27.2893
 30
0.0
 10
-29.7902
 20
27.253
 30
0.0
 10
-29.8405
 20
27.206
 30
0.0
 10
-29.8772
 20
27.1481
 30
0.0
 10
-29.8772
 20
27.1481
 30
0.0
 10
-29.8772
 20
27.1481
 30
0.0
 10
-30.1101
 20
27.1782
 30
0.0
 10
-30.1101
 20
27.1782
 30
0.0
 10
-30.1101
 20
27.1782
 30
0.0
 10
-30.1101
 20
27.1782
 30
0.0
 10
-29.9144
 20
28.2159
 30
0.0
 10
-29.9144
 20
28.2159
 30
0.0
 10
-29.9144
 20
28.2159
 30
0.0
 10
-29.9144
 20
28.2159
 30
0.0
 10
-28.9097
 20
28.2159
 30
0.0
 10
-28.9097
 20
28.2159
 30
0.0
 10
-28.9097
 20
28.2159
 30
0.0
 10
-28.9097
 20
28.2159
 30
0.0
 10
-28.9097
 20
27.9788
 30
0.0
 10
-28.9097
 20
27.9788
 30
0.0
 10
-28.9097
 20
27.9788
 30
0.0
 10
-28.9097
 20
27.9788
 30
0.0
 10
-29.7159
 20
27.9788
 30
0.0
 10
-29.7159
 20
27.9788
 30
0.0
 10
-29.7159
 20
27.9788
 30
0.0
 10
-29.7159
 20
27.9788
 30
0.0
 10
-29.825
 20
27.436
 30
0.0
 10
-29.825
 20
27.436
 30
0.0
 10
-29.825
 20
27.436
 30
0.0
 10
-29.7037
 20
27.5207
 30
0.0
 10
-29.5762
 20
27.563
 30
0.0
 10
-29.4431
 20
27.563
 30
0.0
 10
-29.4431
 20
27.563
 30
0.0
 10
-29.2667
 20
27.563
 30
0.0
 10
-29.1181
 20
27.5019
 30
0.0
 10
-28.9967
 20
27.3796
 30
0.0
 10
-28.9967
 20
27.3796
 30
0.0
 10
-28.8754
 20
27.2573
 30
0.0
 10
-28.8147
 20
27.1002
 30
0.0
 10
-28.8147
 20
26.9083
 30
0.0
 10
-28.8147
 20
26.9083
 30
0.0
 10
-28.8147
 20
26.7253
 30
0.0
 10
-28.8683
 20
26.5672
 30
0.0
 10
-28.9746
 20
26.4341
 30
0.0
 10
-28.9746
 20
26.4341
 30
0.0
 10
-29.1044
 20
26.2709
 30
0.0
 10
-29.2813
 20
26.1891
 30
0.0
 10
-29.5052
 20
26.1891
 30
0.0
 10
-29.5052
 20
26.1891
 30
0.0
 10
-29.6891
 20
26.1891
 30
0.0
 10
-29.8391
 20
26.2403
 30
0.0
 10
-29.9553
 20
26.3433
 30
0.0
 10
-29.9553
 20
26.3433
 30
0.0
 10
-30.0715
 20
26.4464
 30
0.0
 10
-30.1378
 20
26.5828
 30
0.0
 10
-30.1543
 20
26.7526
 30
0.0
  0
SPLINE
  5
9F
330
1F
100
AcDbEntity
  8
ROUND
 62
   250
100
AcDbSpline
210
0.0
220
0.0
230
1.0
 70
    11
 71
     3
 72
    20
 73
    16
 74
     0
 42
0.0000000001
 43
0.0000000001
 40
0.0
 40
0.0
 40
0.0
 40
0.0
 40
0.2
 40
0.2
 40
0.2
 40
0.2
 40
0.4
 40
0.4
 40
0.4
 40
0.4
 40
0.6
 40
0.6
 40
0.6
 40
0.6
 40
1.0
 40
1.0
 40
1.0
 40
1.0
 10
-24.9863
 20
26.2638
 30
0.0
 10
-24.9863
 20
26.2638
 30
0.0
 10
-21.4325
 20
25.7622
 30
0.0
 10
-21.4325
 20
25.7622
 30
0.0
 10
-21.4325
 20
25.7622
 30
0.0
 10
-21.4325
 20
25.7622
 30
0.0
 10
-21.4325
 20
25.6508
 30
0.0
 10
-21.4325
 20
25.6508
 30
0.0
 10
-21.4325
 20
25.6508
 30
0.0
 10
-21.4325
 20
25.6508
 30
0.0
 10
-24.9863
 20
25.116
 30
0.0
 10
-24.9863
 20
25.116
 30
0.0
 10
-24.9863
 20
25.116
 30
0.0
 10
-24.9863
 20
25.116
 30
0.0
 10
-24.9863
 20
26.2638
 30
0.0
 10
-24.9863
 20
26.2638
 30
0.0
  0
SPLINE
  5
A0
330
1F
100
AcDbEntity
  8
ROUND
 62
   250
100
AcDbSpline
210
0.0
220
0.0
230
1.0
 70
    11
 71
     3
 72
    20
 73
    16
 74
     0
 42
0.0000000001
 43
0.0000000001
 40
0.0
 40
0.0
 40
0.0
 40
0.0
 40
0.2
 40
0.2
 40
0.2
 40
0.2
 40
0.4
 40
0.4
 40
0.4
 40
0.4
 40
0.6
 40
0.6
 40
0.6
 40
0.6
 40
1.0
 40
1.0
 40
1.0
 40
1.0
 10
-35.7217
 20
25.1519
 30
0.0
 10
-35.7217
 20
25.1519
 30
0.0
 10
-39.2755
 20
25.6535
 30
0.0
 10
-39.2755
 20
25.6535
 30
0.0
 10
-39.2755
 20
25.6535
 30
0.0
 10
-39.2755
 20
25.6535
 30
0.0
 10
-39.2755
 20
25.7649
 30
0.0
 10
-39.2755
 20
25.7649
 30
0.0
 10
-39.2755
 20
25.7649
 30
0.0
 10
-39.2755
 20
25.7649
 30
0.0
 10
-35.7217
 20
26.2998
 30
0.0
 10
-35.7217
 20
26.2998
 30
0.0
 10
-35.7217
 20
26.2998
 30
0.0
 10
-35.7217
 20
26.2998
 30
0.0
 10
-35.7217
 20
25.1519
 30
0.0
 10
-35.7217
 20
25.1519
 30
0.0
  0
SPLINE
  5
A1
330
1F
100
AcDbEntity
  8
ROUND
 62
   250
100
AcDbSpline
210
0.0
220
0.0
230
1.0
 70
    24
 71
     3
 72
     8
 73
     4
 74
     0
 42
0.0000000001
 43
0.0000000001
 40
0.0
 40
0.0
 40
0.0
 40
0.0
 40
1.0
 40
1.0
 40
1.0
 40
1.0
 10
-38.8549
 20
25.6965
 30
0.0
 10
-38.8549
 20
25.6965
 30
0.0
 10
-22.407
 20
25.6965
 30
0.0
 10
-22.407
 20
25.6965
 30
0.0
  0
SPLINE
  5
A2
330
1F
100
AcDbEntity
  8
ROUND
 62
   250
100
AcDbSpline
210
0.0
220
0.0
230
1.0
 70
    24
 71
     3
 72
     8
 73
     4
 74
     0
 42
0.0000000001
 43
0.0000000001
 40
0.0
 40
0.0
 40
0.0
 40
0.0
 40
1.0
 40
1.0
 40
1.0
 40
1.0
 10
12.8918
 20
-20.0581
 30
0.0
 10
12.8918
 20
-20.0581
 30
0.0
 10
12.8918
 20
19.2466
 30
0.0
 10
12.8918
 20
19.2466
 30
0.0
  0
SPLINE
  5
A3
330
1F
100
AcDbEntity
  8
ROUND
 62
   250
100
AcDbSpline
210
0.0
220
0.0
230
1.0
 70
    11
 71
     3
 72
    20
 73
    16
 74
     0
 42
0.0000000001
 43
0.0000000001
 40
0.0
 40
0.0
 40
0.0
 40
0.0
 40
0.2
 40
0.2
 40
0.2
 40
0.2
 40
0.4
 40
0.4
 40
0.4
 40
0.4
 40
0.6
 40
0.6
 40
0.6
 40
0.6
 40
1.0
 40
1.0
 40
1.0
 40
1.0
 10
12.3358
 20
16.3688
 30
0.0
 10
12.3358
 20
16.3688
 30
0.0
 10
12.8374
 20
19.9227
 30
0.0
 10
12.8374
 20
19.9227
 30
0.0
 10
12.8374
 20
19.9227
 30
0.0
 10
12.8374
 20
19.9227
 30
0.0
 10
12.9488
 20
19.9227
 30
0.0
 10
12.9488
 20
19.9227
 30
0.0
 10
12.9488
 20
19.9227
 30
0.0
 10
12.9488
 20
19.9227
 30
0.0
 10
13.4837
 20
16.3688
 30
0.0
 10
13.4837
 20
16.3688
 30
0.0
 10
13.4837
 20
16.3688
 30
0.0
 10
13.4837
 20
16.3688
 30
0.0
 10
12.3358
 20
16.3688
 30
0.0
 10
12.3358
 20
16.3688
 30
0.0
  0
SPLINE
  5
A4
330
1F
100
AcDbEntity
  8
ROUND
 62
   250
100
AcDbSpline
210
0.0
220
0.0
230
1.0
 70
    11
 71
     3
 72
    20
 73
    16
 74
     0
 42
0.0000000001
 43
0.0000000001
 40
0.0
 40
0.0
 40
0.0
 40
0.0
 40
0.2
 40
0.2
 40
0.2
 40
0.2
 40
0.4
 40
0.4
 40
0.4
 40
0.4
 40
0.6
 40
0.6
 40
0.6
 40
0.6
 40
1.0
 40
1.0
 40
1.0
 40
1.0
 10
13.4519
 20
-16.774
 30
0.0
 10
13.4519
 20
-16.774
 30
0.0
 10
12.9504
 20
-20.3279
 30
0.0
 10
12.9504
 20
-20.3279
 30
0.0
 10
12.9504
 20
-20.3279
 30
0.0
 10
12.9504
 20
-20.3279
 30
0.0
 10
12.839
 20
-20.3279
 30
0.0
 10
12.839
 20
-20.3279
 30
0.0
 10
12.839
 20
-20.3279
 30
0.0
 10
12.839
 20
-20.3279
 30
0.0
 10
12.3041
 20
-16.774
 30
0.0
 10
12.3041
 20
-16.774
 30
0.0
 10
12.3041
 20
-16.774
 30
0.0
 10
12.3041
 20
-16.774
 30
0.0
 10
13.4519
 20
-16.774
 30
0.0
 10
13.4519
 20
-16.774
 30
0.0
  0
SPLINE
  5
A5
330
1F
100
AcDbEntity
  8
ROUND
 62
   250
100
AcDbSpline
210
0.0
220
0.0
230
1.0
 70
    11
 71
     3
 72
    92
 73
    88
 74
     0
 42
0.0000000001
 43
0.0000000001
 40
0.0
 40
0.0
 40
0.0
 40
0.0
 40
0.0434782608695652
 40
0.0434782608695652
 40
0.0434782608695652
 40
0.0434782608695652
 40
0.0869565217391304
 40
0.0869565217391304
 40
0.0869565217391304
 40
0.0869565217391304
 40
0.1304347826086956
 40
0.1304347826086956
 40
0.1304347826086956
 40
0.1304347826086956
 40
0.1739130434782609
 40
0.1739130434782609
 40
0.1739130434782609
 40
0.1739130434782609
 40
0.2173913043478261
 40
0.2173913043478261
 40
0.2173913043478261
 40
0.2173913043478261
 40
0.2608695652173913
 40
0.2608695652173913
 40
0.2608695652173913
 40
0.2608695652173913
 40
0.3043478260869565
 40
0.3043478260869565
 40
0.3043478260869565
 40
0.3043478260869565
 40
0.3478260869565217
 40
0.3478260869565217
 40
0.3478260869565217
 40
0.3478260869565217
 40
0.391304347826087
 40
0.391304347826087
 40
0.391304347826087
 40
0.391304347826087
 40
0.4347826086956522
 40
0.4347826086956522
 40
0.4347826086956522
 40
0.4347826086956522
 40
0.4782608695652174
 40
0.4782608695652174
 40
0.4782608695652174
 40
0.4782608695652174
 40
0.5217391304347826
 40
0.5217391304347826
 40
0.5217391304347826
 40
0.5217391304347826
 40
0.5652173913043478
 40
0.5652173913043478
 40
0.5652173913043478
 40
0.5652173913043478
 40
0.6086956521739131
 40
0.6086956521739131
 40
0.6086956521739131
 40
0.6086956521739131
 40
0.6521739130434783
 40
0.6521739130434783
 40
0.6521739130434783
 40
0.6521739130434783
 40
0.6956521739130435
 40
0.6956521739130435
 40
0.6956521739130435
 40
0.6956521739130435
 40
0.7391304347826086
 40
0.7391304347826086
 40
0.7391304347826086
 40
0.7391304347826086
 40
0.782608695652174
 40
0.782608695652174
 40
0.782608695652174
 40
0.782608695652174
 40
0.8260869565217391
 40
0.8260869565217391
 40
0.8260869565217391
 40
0.8260869565217391
 40
0.8695652173913043
 40
0.8695652173913043
 40
0.8695652173913043
 40
0.8695652173913043
 40
0.9130434782608695
 40
0.9130434782608695
 40
0.9130434782608695
 40
0.9130434782608695
 40
1.0
 40
1.0
 40
1.0
 40
1.0
 10
17.0523
 20
-5.1975
 30
0.0
 10
17.0523
 20
-5.1975
 30
0.0
 10
17.0302
 20
-4.959
 30
0.0
 10
17.0302
 20
-4.959
 30
0.0
 10
17.0302
 20
-4.959
 30
0.0
 10
17.1422
 20
-4.9388
 30
0.0
 10
17.2235
 20
-4.9002
 30
0.0
 10
17.2743
 20
-4.8433
 30
0.0
 10
17.2743
 20
-4.8433
 30
0.0
 10
17.3246
 20
-4.7864
 30
0.0
 10
17.35
 20
-4.7135
 30
0.0
 10
17.35
 20
-4.6241
 30
0.0
 10
17.35
 20
-4.6241
 30
0.0
 10
17.35
 20
-4.5479
 30
0.0
 10
17.3327
 20
-4.4812
 30
0.0
 10
17.2974
 20
-4.4238
 30
0.0
 10
17.2974
 20
-4.4238
 30
0.0
 10
17.2626
 20
-4.3663
 30
0.0
 10
17.216
 20
-4.3193
 30
0.0
 10
17.1576
 20
-4.2827
 30
0.0
 10
17.1576
 20
-4.2827
 30
0.0
 10
17.0993
 20
-4.2454
 30
0.0
 10
17.0204
 20
-4.2149
 30
0.0
 10
16.9215
 20
-4.19
 30
0.0
 10
16.9215
 20
-4.19
 30
0.0
 10
16.8222
 20
-4.1655
 30
0.0
 10
16.7211
 20
-4.1528
 30
0.0
 10
16.6181
 20
-4.1528
 30
0.0
 10
16.6181
 20
-4.1528
 30
0.0
 10
16.6073
 20
-4.1528
 30
0.0
 10
16.5904
 20
-4.1533
 30
0.0
 10
16.5688
 20
-4.1543
 30
0.0
 10
16.5688
 20
-4.1543
 30
0.0
 10
16.6473
 20
-4.2041
 30
0.0
 10
16.7118
 20
-4.2718
 30
0.0
 10
16.7607
 20
-4.3574
 30
0.0
 10
16.7607
 20
-4.3574
 30
0.0
 10
16.81
 20
-4.4436
 30
0.0
 10
16.8346
 20
-4.5366
 30
0.0
 10
16.8346
 20
-4.6363
 30
0.0
 10
16.8346
 20
-4.6363
 30
0.0
 10
16.8346
 20
-4.8038
 30
0.0
 10
16.7738
 20
-4.9454
 30
0.0
 10
16.6525
 20
-5.0611
 30
0.0
 10
16.6525
 20
-5.0611
 30
0.0
 10
16.5312
 20
-5.1768
 30
0.0
 10
16.3717
 20
-5.2347
 30
0.0
 10
16.1732
 20
-5.2347
 30
0.0
 10
16.1732
 20
-5.2347
 30
0.0
 10
15.968
 20
-5.2347
 30
0.0
 10
15.8035
 20
-5.1745
 30
0.0
 10
15.6784
 20
-5.0535
 30
0.0
 10
15.6784
 20
-5.0535
 30
0.0
 10
15.5532
 20
-4.9327
 30
0.0
 10
15.4907
 20
-4.7812
 30
0.0
 10
15.4907
 20
-4.5992
 30
0.0
 10
15.4907
 20
-4.5992
 30
0.0
 10
15.4907
 20
-4.468
 30
0.0
 10
15.5264
 20
-4.348
 30
0.0
 10
15.5969
 20
-4.2389
 30
0.0
 10
15.5969
 20
-4.2389
 30
0.0
 10
15.6675
 20
-4.1302
 30
0.0
 10
15.7687
 20
-4.0474
 30
0.0
 10
15.8994
 20
-3.991
 30
0.0
 10
15.8994
 20
-3.991
 30
0.0
 10
16.0302
 20
-3.9346
 30
0.0
 10
16.2197
 20
-3.9063
 30
0.0
 10
16.4681
 20
-3.9063
 30
0.0
 10
16.4681
 20
-3.9063
 30
0.0
 10
16.7259
 20
-3.9063
 30
0.0
 10
16.9315
 20
-3.9341
 30
0.0
 10
17.0848
 20
-3.9901
 30
0.0
 10
17.0848
 20
-3.9901
 30
0.0
 10
17.2377
 20
-4.0465
 30
0.0
 10
17.3538
 20
-4.1297
 30
0.0
 10
17.4338
 20
-4.2403
 30
0.0
 10
17.4338
 20
-4.2403
 30
0.0
 10
17.5138
 20
-4.3513
 30
0.0
 10
17.5538
 20
-4.4807
 30
0.0
 10
17.5538
 20
-4.6297
 30
0.0
 10
17.5538
 20
-4.6297
 30
0.0
 10
17.5538
 20
-4.7878
 30
0.0
 10
17.5099
 20
-4.9167
 30
0.0
 10
17.422
 20
-5.0169
 30
0.0
 10
17.422
 20
-5.0169
 30
0.0
 10
17.3346
 20
-5.117
 30
0.0
 10
17.2113
 20
-5.1773
 30
0.0
 10
17.0523
 20
-5.1975
 30
0.0
  0
SPLINE
  5
A6
330
1F
100
AcDbEntity
  8
ROUND
 62
   250
100
AcDbSpline
210
0.0
220
0.0
230
1.0
 70
    11
 71
     3
 72
    36
 73
    32
 74
     0
 42
0.0000000001
 43
0.0000000001
 40
0.0
 40
0.0
 40
0.0
 40
0.0
 40
0.1111111111111111
 40
0.1111111111111111
 40
0.1111111111111111
 40
0.1111111111111111
 40
0.2222222222222222
 40
0.2222222222222222
 40
0.2222222222222222
 40
0.2222222222222222
 40
0.3333333333333333
 40
0.3333333333333333
 40
0.3333333333333333
 40
0.3333333333333333
 40
0.4444444444444444
 40
0.4444444444444444
 40
0.4444444444444444
 40
0.4444444444444444
 40
0.5555555555555556
 40
0.5555555555555556
 40
0.5555555555555556
 40
0.5555555555555556
 40
0.6666666666666666
 40
0.6666666666666666
 40
0.6666666666666666
 40
0.6666666666666666
 40
0.7777777777777778
 40
0.7777777777777778
 40
0.7777777777777778
 40
0.7777777777777778
 40
1.0
 40
1.0
 40
1.0
 40
1.0
 10
16.1605
 20
-4.182
 30
0.0
 10
16.0185
 20
-4.182
 30
0.0
 10
15.905
 20
-4.2196
 30
0.0
 10
15.8218
 20
-4.2954
 30
0.0
 10
15.8218
 20
-4.2954
 30
0.0
 10
15.7382
 20
-4.3716
 30
0.0
 10
15.6962
 20
-4.4624
 30
0.0
 10
15.6962
 20
-4.5691
 30
0.0
 10
15.6962
 20
-4.5691
 30
0.0
 10
15.6962
 20
-4.6792
 30
0.0
 10
15.7414
 20
-4.7751
 30
0.0
 10
15.8312
 20
-4.857
 30
0.0
 10
15.8312
 20
-4.857
 30
0.0
 10
15.9216
 20
-4.9388
 30
0.0
 10
16.0382
 20
-4.9797
 30
0.0
 10
16.1811
 20
-4.9797
 30
0.0
 10
16.1811
 20
-4.9797
 30
0.0
 10
16.31
 20
-4.9797
 30
0.0
 10
16.4145
 20
-4.9407
 30
0.0
 10
16.495
 20
-4.8631
 30
0.0
 10
16.495
 20
-4.8631
 30
0.0
 10
16.5754
 20
-4.7854
 30
0.0
 10
16.6154
 20
-4.69
 30
0.0
 10
16.6154
 20
-4.5762
 30
0.0
 10
16.6154
 20
-4.5762
 30
0.0
 10
16.6154
 20
-4.4609
 30
0.0
 10
16.5754
 20
-4.3668
 30
0.0
 10
16.495
 20
-4.293
 30
0.0
 10
16.495
 20
-4.293
 30
0.0
 10
16.4145
 20
-4.2186
 30
0.0
 10
16.3031
 20
-4.182
 30
0.0
 10
16.1605
 20
-4.182
 30
0.0
  0
SPLINE
  5
A7
330
1F
100
AcDbEntity
  8
ROUND
 62
   250
100
AcDbSpline
210
0.0
220
0.0
230
1.0
 70
    11
 71
     3
 72
    52
 73
    48
 74
     0
 42
0.0000000001
 43
0.0000000001
 40
0.0
 40
0.0
 40
0.0
 40
0.0
 40
0.0769230769230769
 40
0.0769230769230769
 40
0.0769230769230769
 40
0.0769230769230769
 40
0.1538461538461539
 40
0.1538461538461539
 40
0.1538461538461539
 40
0.1538461538461539
 40
0.2307692307692308
 40
0.2307692307692308
 40
0.2307692307692308
 40
0.2307692307692308
 40
0.3076923076923077
 40
0.3076923076923077
 40
0.3076923076923077
 40
0.3076923076923077
 40
0.3846153846153846
 40
0.3846153846153846
 40
0.3846153846153846
 40
0.3846153846153846
 40
0.4615384615384616
 40
0.4615384615384616
 40
0.4615384615384616
 40
0.4615384615384616
 40
0.5384615384615384
 40
0.5384615384615384
 40
0.5384615384615384
 40
0.5384615384615384
 40
0.6153846153846154
 40
0.6153846153846154
 40
0.6153846153846154
 40
0.6153846153846154
 40
0.6923076923076923
 40
0.6923076923076923
 40
0.6923076923076923
 40
0.6923076923076923
 40
0.7692307692307693
 40
0.7692307692307693
 40
0.7692307692307693
 40
0.7692307692307693
 40
0.8461538461538461
 40
0.8461538461538461
 40
0.8461538461538461
 40
0.8461538461538461
 40
1.0
 40
1.0
 40
1.0
 40
1.0
 10
16.5231
 20
-3.6651
 30
0.0
 10
16.2842
 20
-3.6651
 30
0.0
 10
16.0918
 20
-3.6405
 30
0.0
 10
15.9465
 20
-3.5912
 30
0.0
 10
15.9465
 20
-3.5912
 30
0.0
 10
15.8007
 20
-3.5423
 30
0.0
 10
15.6882
 20
-3.4689
 30
0.0
 10
15.6093
 20
-3.3719
 30
0.0
 10
15.6093
 20
-3.3719
 30
0.0
 10
15.5302
 20
-3.275
 30
0.0
 10
15.4907
 20
-3.1532
 30
0.0
 10
15.4907
 20
-3.0065
 30
0.0
 10
15.4907
 20
-3.0065
 30
0.0
 10
15.4907
 20
-2.8978
 30
0.0
 10
15.5127
 20
-2.8028
 30
0.0
 10
15.5566
 20
-2.721
 30
0.0
 10
15.5566
 20
-2.721
 30
0.0
 10
15.5998
 20
-2.6391
 30
0.0
 10
15.6628
 20
-2.5719
 30
0.0
 10
15.7451
 20
-2.5182
 30
0.0
 10
15.7451
 20
-2.5182
 30
0.0
 10
15.8274
 20
-2.465
 30
0.0
 10
15.9277
 20
-2.4232
 30
0.0
 10
16.0458
 20
-2.3932
 30
0.0
 10
16.0458
 20
-2.3932
 30
0.0
 10
16.1638
 20
-2.3625
 30
0.0
 10
16.3227
 20
-2.3475
 30
0.0
 10
16.5231
 20
-2.3475
 30
0.0
 10
16.5231
 20
-2.3475
 30
0.0
 10
16.7602
 20
-2.3475
 30
0.0
 10
16.9511
 20
-2.372
 30
0.0
 10
17.097
 20
-2.4205
 30
0.0
 10
17.097
 20
-2.4205
 30
0.0
 10
17.2428
 20
-2.4693
 30
0.0
 10
17.3553
 20
-2.5423
 30
0.0
 10
17.4347
 20
-2.6391
 30
0.0
 10
17.4347
 20
-2.6391
 30
0.0
 10
17.5142
 20
-2.736
 30
0.0
 10
17.5538
 20
-2.8583
 30
0.0
 10
17.5538
 20
-3.0065
 30
0.0
 10
17.5538
 20
-3.0065
 30
0.0
 10
17.5538
 20
-3.2012
 30
0.0
 10
17.4842
 20
-3.3541
 30
0.0
 10
17.3444
 20
-3.4651
 30
0.0
 10
17.3444
 20
-3.4651
 30
0.0
 10
17.1766
 20
-3.5982
 30
0.0
 10
16.9023
 20
-3.6651
 30
0.0
 10
16.5231
 20
-3.6651
 30
0.0
  0
SPLINE
  5
A8
330
1F
100
AcDbEntity
  8
ROUND
 62
   250
100
AcDbSpline
210
0.0
220
0.0
230
1.0
 70
    11
 71
     3
 72
    36
 73
    32
 74
     0
 42
0.0000000001
 43
0.0000000001
 40
0.0
 40
0.0
 40
0.0
 40
0.0
 40
0.1111111111111111
 40
0.1111111111111111
 40
0.1111111111111111
 40
0.1111111111111111
 40
0.2222222222222222
 40
0.2222222222222222
 40
0.2222222222222222
 40
0.2222222222222222
 40
0.3333333333333333
 40
0.3333333333333333
 40
0.3333333333333333
 40
0.3333333333333333
 40
0.4444444444444444
 40
0.4444444444444444
 40
0.4444444444444444
 40
0.4444444444444444
 40
0.5555555555555556
 40
0.5555555555555556
 40
0.5555555555555556
 40
0.5555555555555556
 40
0.6666666666666666
 40
0.6666666666666666
 40
0.6666666666666666
 40
0.6666666666666666
 40
0.7777777777777778
 40
0.7777777777777778
 40
0.7777777777777778
 40
0.7777777777777778
 40
1.0
 40
1.0
 40
1.0
 40
1.0
 10
16.5231
 20
-3.41
 30
0.0
 10
16.8547
 20
-3.41
 30
0.0
 10
17.0754
 20
-3.371
 30
0.0
 10
17.1854
 20
-3.2935
 30
0.0
 10
17.1854
 20
-3.2935
 30
0.0
 10
17.295
 20
-3.2157
 30
0.0
 10
17.35
 20
-3.1204
 30
0.0
 10
17.35
 20
-3.0065
 30
0.0
 10
17.35
 20
-3.0065
 30
0.0
 10
17.35
 20
-2.8922
 30
0.0
 10
17.2946
 20
-2.7967
 30
0.0
 10
17.1845
 20
-2.7191
 30
0.0
 10
17.1845
 20
-2.7191
 30
0.0
 10
17.0744
 20
-2.6415
 30
0.0
 10
16.8539
 20
-2.6024
 30
0.0
 10
16.5231
 20
-2.6024
 30
0.0
 10
16.5231
 20
-2.6024
 30
0.0
 10
16.1906
 20
-2.6024
 30
0.0
 10
15.9695
 20
-2.6415
 30
0.0
 10
15.8604
 20
-2.7191
 30
0.0
 10
15.8604
 20
-2.7191
 30
0.0
 10
15.7507
 20
-2.7967
 30
0.0
 10
15.6962
 20
-2.8931
 30
0.0
 10
15.6962
 20
-3.0089
 30
0.0
 10
15.6962
 20
-3.0089
 30
0.0
 10
15.6962
 20
-3.1231
 30
0.0
 10
15.7446
 20
-3.2139
 30
0.0
 10
15.8411
 20
-3.2821
 30
0.0
 10
15.8411
 20
-3.2821
 30
0.0
 10
15.9638
 20
-3.3673
 30
0.0
 10
16.1916
 20
-3.41
 30
0.0
 10
16.5231
 20
-3.41
 30
0.0
  0
SPLINE
  5
A9
330
1F
100
AcDbEntity
  8
ROUND
 62
   250
100
AcDbSpline
210
0.0
220
0.0
230
1.0
 70
    11
 71
     3
 72
    80
 73
    76
 74
     0
 42
0.0000000001
 43
0.0000000001
 40
0.0
 40
0.0
 40
0.0
 40
0.0
 40
0.05
 40
0.05
 40
0.05
 40
0.05
 40
0.1
 40
0.1
 40
0.1
 40
0.1
 40
0.15
 40
0.15
 40
0.15
 40
0.15
 40
0.2
 40
0.2
 40
0.2
 40
0.2
 40
0.25
 40
0.25
 40
0.25
 40
0.25
 40
0.3
 40
0.3
 40
0.3
 40
0.3
 40
0.35
 40
0.35
 40
0.35
 40
0.35
 40
0.4
 40
0.4
 40
0.4
 40
0.4
 40
0.45
 40
0.45
 40
0.45
 40
0.45
 40
0.5
 40
0.5
 40
0.5
 40
0.5
 40
0.55
 40
0.55
 40
0.55
 40
0.55
 40
0.6
 40
0.6
 40
0.6
 40
0.6
 40
0.65
 40
0.65
 40
0.65
 40
0.65
 40
0.7
 40
0.7
 40
0.7
 40
0.7
 40
0.75
 40
0.75
 40
0.75
 40
0.75
 40
0.8
 40
0.8
 40
0.8
 40
0.8
 40
0.85
 40
0.85
 40
0.85
 40
0.85
 40
0.9
 40
0.9
 40
0.9
 40
0.9
 40
1.0
 40
1.0
 40
1.0
 40
1.0
 10
16.1294
 20
11.2401
 30
0.0
 10
16.1294
 20
11.2401
 30
0.0
 10
16.1487
 20
10.9937
 30
0.0
 10
16.1487
 20
10.9937
 30
0.0
 10
16.1487
 20
10.9937
 30
0.0
 10
16.0513
 20
10.9716
 30
0.0
 10
15.9803
 20
10.9405
 30
0.0
 10
15.9366
 20
10.9001
 30
0.0
 10
15.9366
 20
10.9001
 30
0.0
 10
15.8655
 20
10.8328
 30
0.0
 10
15.8302
 20
10.7501
 30
0.0
 10
15.8302
 20
10.6517
 30
0.0
 10
15.8302
 20
10.6517
 30
0.0
 10
15.8302
 20
10.5727
 30
0.0
 10
15.8524
 20
10.5036
 30
0.0
 10
15.8966
 20
10.4438
 30
0.0
 10
15.8966
 20
10.4438
 30
0.0
 10
15.9535
 20
10.3658
 30
0.0
 10
16.0367
 20
10.3041
 30
0.0
 10
16.1458
 20
10.259
 30
0.0
 10
16.1458
 20
10.259
 30
0.0
 10
16.255
 20
10.2143
 30
0.0
 10
16.4107
 20
10.1908
 30
0.0
 10
16.6129
 20
10.1889
 30
0.0
 10
16.6129
 20
10.1889
 30
0.0
 10
16.5221
 20
10.2486
 30
0.0
 10
16.4544
 20
10.3215
 30
0.0
 10
16.4102
 20
10.4081
 30
0.0
 10
16.4102
 20
10.4081
 30
0.0
 10
16.3665
 20
10.4942
 30
0.0
 10
16.3443
 20
10.5849
 30
0.0
 10
16.3443
 20
10.6795
 30
0.0
 10
16.3443
 20
10.6795
 30
0.0
 10
16.3443
 20
10.8451
 30
0.0
 10
16.4051
 20
10.9857
 30
0.0
 10
16.5269
 20
11.1019
 30
0.0
 10
16.5269
 20
11.1019
 30
0.0
 10
16.6487
 20
11.2181
 30
0.0
 10
16.8058
 20
11.2764
 30
0.0
 10
16.9986
 20
11.2764
 30
0.0
 10
16.9986
 20
11.2764
 30
0.0
 10
17.1256
 20
11.2764
 30
0.0
 10
17.2432
 20
11.2486
 30
0.0
 10
17.3523
 20
11.194
 30
0.0
 10
17.3523
 20
11.194
 30
0.0
 10
17.461
 20
11.1395
 30
0.0
 10
17.5447
 20
11.0643
 30
0.0
 10
17.6026
 20
10.9688
 30
0.0
 10
17.6026
 20
10.9688
 30
0.0
 10
17.6604
 20
10.8732
 30
0.0
 10
17.6892
 20
10.7651
 30
0.0
 10
17.6892
 20
10.6437
 30
0.0
 10
17.6892
 20
10.6437
 30
0.0
 10
17.6892
 20
10.4367
 30
0.0
 10
17.6135
 20
10.2684
 30
0.0
 10
17.461
 20
10.1381
 30
0.0
 10
17.461
 20
10.1381
 30
0.0
 10
17.3091
 20
10.0073
 30
0.0
 10
17.0584
 20
9.9425
 30
0.0
 10
16.7093
 20
9.9425
 30
0.0
 10
16.7093
 20
9.9425
 30
0.0
 10
16.3189
 20
9.9425
 30
0.0
 10
16.0353
 20
10.0143
 30
0.0
 10
15.858
 20
10.1588
 30
0.0
 10
15.858
 20
10.1588
 30
0.0
 10
15.7037
 20
10.2843
 30
0.0
 10
15.6261
 20
10.4537
 30
0.0
 10
15.6261
 20
10.6673
 30
0.0
 10
15.6261
 20
10.6673
 30
0.0
 10
15.6261
 20
10.8258
 30
0.0
 10
15.6708
 20
10.9561
 30
0.0
 10
15.7601
 20
11.0577
 30
0.0
 10
15.7601
 20
11.0577
 30
0.0
 10
15.849
 20
11.1593
 30
0.0
 10
15.9723
 20
11.22
 30
0.0
 10
16.1294
 20
11.2401
 30
0.0
  0
SPLINE
  5
AA
330
1F
100
AcDbEntity
  8
ROUND
 62
   250
100
AcDbSpline
210
0.0
220
0.0
230
1.0
 70
    11
 71
     3
 72
    40
 73
    36
 74
     0
 42
0.0000000001
 43
0.0000000001
 40
0.0
 40
0.0
 40
0.0
 40
0.0
 40
0.1
 40
0.1
 40
0.1
 40
0.1
 40
0.2
 40
0.2
 40
0.2
 40
0.2
 40
0.3
 40
0.3
 40
0.3
 40
0.3
 40
0.4
 40
0.4
 40
0.4
 40
0.4
 40
0.5
 40
0.5
 40
0.5
 40
0.5
 40
0.6
 40
0.6
 40
0.6
 40
0.6
 40
0.7
 40
0.7
 40
0.7
 40
0.7
 40
0.8
 40
0.8
 40
0.8
 40
0.8
 40
1.0
 40
1.0
 40
1.0
 40
1.0
 10
17.0
 20
10.2274
 30
0.0
 10
17.0857
 20
10.2274
 30
0.0
 10
17.1675
 20
10.2458
 30
0.0
 10
17.2456
 20
10.2821
 30
0.0
 10
17.2456
 20
10.2821
 30
0.0
 10
17.3237
 20
10.3182
 30
0.0
 10
17.3829
 20
10.369
 30
0.0
 10
17.4238
 20
10.434
 30
0.0
 10
17.4238
 20
10.434
 30
0.0
 10
17.4648
 20
10.4994
 30
0.0
 10
17.4854
 20
10.568
 30
0.0
 10
17.4854
 20
10.6395
 30
0.0
 10
17.4854
 20
10.6395
 30
0.0
 10
17.4854
 20
10.7443
 30
0.0
 10
17.4431
 20
10.8343
 30
0.0
 10
17.3584
 20
10.9095
 30
0.0
 10
17.3584
 20
10.9095
 30
0.0
 10
17.2738
 20
10.9847
 30
0.0
 10
17.159
 20
11.0224
 30
0.0
 10
17.0142
 20
11.0224
 30
0.0
 10
17.0142
 20
11.0224
 30
0.0
 10
16.8745
 20
11.0224
 30
0.0
 10
16.7644
 20
10.9852
 30
0.0
 10
16.6839
 20
10.9109
 30
0.0
 10
16.6839
 20
10.9109
 30
0.0
 10
16.6035
 20
10.8366
 30
0.0
 10
16.5635
 20
10.743
 30
0.0
 10
16.5635
 20
10.6301
 30
0.0
 10
16.5635
 20
10.6301
 30
0.0
 10
16.5635
 20
10.5177
 30
0.0
 10
16.6035
 20
10.4227
 30
0.0
 10
16.6839
 20
10.3446
 30
0.0
 10
16.6839
 20
10.3446
 30
0.0
 10
16.7644
 20
10.2665
 30
0.0
 10
16.8697
 20
10.2274
 30
0.0
 10
17.0
 20
10.2274
 30
0.0
  0
SPLINE
  5
AB
330
1F
100
AcDbEntity
  8
ROUND
 62
   250
100
AcDbSpline
210
0.0
220
0.0
230
1.0
 70
    11
 71
     3
 72
    52
 73
    48
 74
     0
 42
0.0000000001
 43
0.0000000001
 40
0.0
 40
0.0
 40
0.0
 40
0.0
 40
0.0769230769230769
 40
0.0769230769230769
 40
0.0769230769230769
 40
0.0769230769230769
 40
0.1538461538461539
 40
0.1538461538461539
 40
0.1538461538461539
 40
0.1538461538461539
 40
0.2307692307692308
 40
0.2307692307692308
 40
0.2307692307692308
 40
0.2307692307692308
 40
0.3076923076923077
 40
0.3076923076923077
 40
0.3076923076923077
 40
0.3076923076923077
 40
0.3846153846153846
 40
0.3846153846153846
 40
0.3846153846153846
 40
0.3846153846153846
 40
0.4615384615384616
 40
0.4615384615384616
 40
0.4615384615384616
 40
0.4615384615384616
 40
0.5384615384615384
 40
0.5384615384615384
 40
0.5384615384615384
 40
0.5384615384615384
 40
0.6153846153846154
 40
0.6153846153846154
 40
0.6153846153846154
 40
0.6153846153846154
 40
0.6923076923076923
 40
0.6923076923076923
 40
0.6923076923076923
 40
0.6923076923076923
 40
0.7692307692307693
 40
0.7692307692307693
 40
0.7692307692307693
 40
0.7692307692307693
 40
0.8461538461538461
 40
0.8461538461538461
 40
0.8461538461538461
 40
0.8461538461538461
 40
1.0
 40
1.0
 40
1.0
 40
1.0
 10
16.6585
 20
11.5228
 30
0.0
 10
16.4196
 20
11.5228
 30
0.0
 10
16.2272
 20
11.5474
 30
0.0
 10
16.0819
 20
11.5967
 30
0.0
 10
16.0819
 20
11.5967
 30
0.0
 10
15.9361
 20
11.6456
 30
0.0
 10
15.8236
 20
11.719
 30
0.0
 10
15.7447
 20
11.816
 30
0.0
 10
15.7447
 20
11.816
 30
0.0
 10
15.6656
 20
11.9129
 30
0.0
 10
15.6261
 20
12.0347
 30
0.0
 10
15.6261
 20
12.1814
 30
0.0
 10
15.6261
 20
12.1814
 30
0.0
 10
15.6261
 20
12.2901
 30
0.0
 10
15.6481
 20
12.3851
 30
0.0
 10
15.692
 20
12.4669
 30
0.0
 10
15.692
 20
12.4669
 30
0.0
 10
15.7352
 20
12.5488
 30
0.0
 10
15.7982
 20
12.616
 30
0.0
 10
15.8805
 20
12.6697
 30
0.0
 10
15.8805
 20
12.6697
 30
0.0
 10
15.9628
 20
12.7229
 30
0.0
 10
16.0631
 20
12.7647
 30
0.0
 10
16.1812
 20
12.7947
 30
0.0
 10
16.1812
 20
12.7947
 30
0.0
 10
16.2992
 20
12.8254
 30
0.0
 10
16.4581
 20
12.8404
 30
0.0
 10
16.6585
 20
12.8404
 30
0.0
 10
16.6585
 20
12.8404
 30
0.0
 10
16.8956
 20
12.8404
 30
0.0
 10
17.0865
 20
12.8159
 30
0.0
 10
17.2324
 20
12.7674
 30
0.0
 10
17.2324
 20
12.7674
 30
0.0
 10
17.3782
 20
12.7186
 30
0.0
 10
17.4907
 20
12.6456
 30
0.0
 10
17.5701
 20
12.5488
 30
0.0
 10
17.5701
 20
12.5488
 30
0.0
 10
17.6496
 20
12.4519
 30
0.0
 10
17.6892
 20
12.3296
 30
0.0
 10
17.6892
 20
12.1814
 30
0.0
 10
17.6892
 20
12.1814
 30
0.0
 10
17.6892
 20
11.9867
 30
0.0
 10
17.6196
 20
11.8338
 30
0.0
 10
17.4798
 20
11.7228
 30
0.0
 10
17.4798
 20
11.7228
 30
0.0
 10
17.312
 20
11.5897
 30
0.0
 10
17.0377
 20
11.5228
 30
0.0
 10
16.6585
 20
11.5228
 30
0.0
  0
SPLINE
  5
AC
330
1F
100
AcDbEntity
  8
ROUND
 62
   250
100
AcDbSpline
210
0.0
220
0.0
230
1.0
 70
    11
 71
     3
 72
    36
 73
    32
 74
     0
 42
0.0000000001
 43
0.0000000001
 40
0.0
 40
0.0
 40
0.0
 40
0.0
 40
0.1111111111111111
 40
0.1111111111111111
 40
0.1111111111111111
 40
0.1111111111111111
 40
0.2222222222222222
 40
0.2222222222222222
 40
0.2222222222222222
 40
0.2222222222222222
 40
0.3333333333333333
 40
0.3333333333333333
 40
0.3333333333333333
 40
0.3333333333333333
 40
0.4444444444444444
 40
0.4444444444444444
 40
0.4444444444444444
 40
0.4444444444444444
 40
0.5555555555555556
 40
0.5555555555555556
 40
0.5555555555555556
 40
0.5555555555555556
 40
0.6666666666666666
 40
0.6666666666666666
 40
0.6666666666666666
 40
0.6666666666666666
 40
0.7777777777777778
 40
0.7777777777777778
 40
0.7777777777777778
 40
0.7777777777777778
 40
1.0
 40
1.0
 40
1.0
 40
1.0
 10
16.6585
 20
11.7779
 30
0.0
 10
16.9901
 20
11.7779
 30
0.0
 10
17.2108
 20
11.8169
 30
0.0
 10
17.3208
 20
11.8944
 30
0.0
 10
17.3208
 20
11.8944
 30
0.0
 10
17.4304
 20
11.9722
 30
0.0
 10
17.4854
 20
12.0675
 30
0.0
 10
17.4854
 20
12.1814
 30
0.0
 10
17.4854
 20
12.1814
 30
0.0
 10
17.4854
 20
12.2957
 30
0.0
 10
17.43
 20
12.3912
 30
0.0
 10
17.3199
 20
12.4688
 30
0.0
 10
17.3199
 20
12.4688
 30
0.0
 10
17.2098
 20
12.5464
 30
0.0
 10
16.9893
 20
12.5855
 30
0.0
 10
16.6585
 20
12.5855
 30
0.0
 10
16.6585
 20
12.5855
 30
0.0
 10
16.326
 20
12.5855
 30
0.0
 10
16.1049
 20
12.5464
 30
0.0
 10
15.9958
 20
12.4688
 30
0.0
 10
15.9958
 20
12.4688
 30
0.0
 10
15.8861
 20
12.3912
 30
0.0
 10
15.8316
 20
12.2948
 30
0.0
 10
15.8316
 20
12.179
 30
0.0
 10
15.8316
 20
12.179
 30
0.0
 10
15.8316
 20
12.0648
 30
0.0
 10
15.88
 20
11.974
 30
0.0
 10
15.9765
 20
11.9058
 30
0.0
 10
15.9765
 20
11.9058
 30
0.0
 10
16.0992
 20
11.8206
 30
0.0
 10
16.327
 20
11.7779
 30
0.0
 10
16.6585
 20
11.7779
 30
0.0
  0
SPLINE
  5
AD
330
1F
100
AcDbEntity
  8
ROUND
 62
   250
100
AcDbSpline
210
0.0
220
0.0
230
1.0
 70
    11
 71
     3
 72
    20
 73
    16
 74
     0
 42
0.0000000001
 43
0.0000000001
 40
0.0
 40
0.0
 40
0.0
 40
0.0
 40
0.2
 40
0.2
 40
0.2
 40
0.2
 40
0.4
 40
0.4
 40
0.4
 40
0.4
 40
0.6
 40
0.6
 40
0.6
 40
0.6
 40
1.0
 40
1.0
 40
1.0
 40
1.0
 10
17.4158
 20
2.5425
 30
0.0
 10
17.4158
 20
2.5425
 30
0.0
 10
17.9174
 20
6.0964
 30
0.0
 10
17.9174
 20
6.0964
 30
0.0
 10
17.9174
 20
6.0964
 30
0.0
 10
17.9174
 20
6.0964
 30
0.0
 10
18.0288
 20
6.0964
 30
0.0
 10
18.0288
 20
6.0964
 30
0.0
 10
18.0288
 20
6.0964
 30
0.0
 10
18.0288
 20
6.0964
 30
0.0
 10
18.5637
 20
2.5425
 30
0.0
 10
18.5637
 20
2.5425
 30
0.0
 10
18.5637
 20
2.5425
 30
0.0
 10
18.5637
 20
2.5425
 30
0.0
 10
17.4158
 20
2.5425
 30
0.0
 10
17.4158
 20
2.5425
 30
0.0
  0
SPLINE
  5
AE
330
1F
100
AcDbEntity
  8
ROUND
 62
   250
100
AcDbSpline
210
0.0
220
0.0
230
1.0
 70
    11
 71
     3
 72
    20
 73
    16
 74
     0
 42
0.0000000001
 43
0.0000000001
 40
0.0
 40
0.0
 40
0.0
 40
0.0
 40
0.2
 40
0.2
 40
0.2
 40
0.2
 40
0.4
 40
0.4
 40
0.4
 40
0.4
 40
0.6
 40
0.6
 40
0.6
 40
0.6
 40
1.0
 40
1.0
 40
1.0
 40
1.0
 10
18.5319
 20
-10.9738
 30
0.0
 10
18.5319
 20
-10.9738
 30
0.0
 10
18.0304
 20
-14.5277
 30
0.0
 10
18.0304
 20
-14.5277
 30
0.0
 10
18.0304
 20
-14.5277
 30
0.0
 10
18.0304
 20
-14.5277
 30
0.0
 10
17.919
 20
-14.5277
 30
0.0
 10
17.919
 20
-14.5277
 30
0.0
 10
17.919
 20
-14.5277
 30
0.0
 10
17.919
 20
-14.5277
 30
0.0
 10
17.3841
 20
-10.9738
 30
0.0
 10
17.3841
 20
-10.9738
 30
0.0
 10
17.3841
 20
-10.9738
 30
0.0
 10
17.3841
 20
-10.9738
 30
0.0
 10
18.5319
 20
-10.9738
 30
0.0
 10
18.5319
 20
-10.9738
 30
0.0
  0
SPLINE
  5
AF
330
1F
100
AcDbEntity
  8
ROUND
 62
   250
100
AcDbSpline
210
0.0
220
0.0
230
1.0
 70
    11
 71
     3
 72
    40
 73
    36
 74
     0
 42
0.0000000001
 43
0.0000000001
 40
0.0
 40
0.0
 40
0.0
 40
0.0
 40
0.1
 40
0.1
 40
0.1
 40
0.1
 40
0.2
 40
0.2
 40
0.2
 40
0.2
 40
0.3
 40
0.3
 40
0.3
 40
0.3
 40
0.4
 40
0.4
 40
0.4
 40
0.4
 40
0.5
 40
0.5
 40
0.5
 40
0.5
 40
0.6
 40
0.6
 40
0.6
 40
0.6
 40
0.7
 40
0.7
 40
0.7
 40
0.7
 40
0.8
 40
0.8
 40
0.8
 40
0.8
 40
1.0
 40
1.0
 40
1.0
 40
1.0
 10
32.4935
 20
26.1934
 30
0.0
 10
32.4935
 20
26.1934
 30
0.0
 10
32.2456
 20
26.1934
 30
0.0
 10
32.2456
 20
26.1934
 30
0.0
 10
32.2456
 20
26.1934
 30
0.0
 10
32.2456
 20
26.1934
 30
0.0
 10
32.2456
 20
27.7738
 30
0.0
 10
32.2456
 20
27.7738
 30
0.0
 10
32.2456
 20
27.7738
 30
0.0
 10
32.1858
 20
27.7169
 30
0.0
 10
32.1078
 20
27.66
 30
0.0
 10
32.0109
 20
27.6031
 30
0.0
 10
32.0109
 20
27.6031
 30
0.0
 10
31.9135
 20
27.5462
 30
0.0
 10
31.8265
 20
27.5034
 30
0.0
 10
31.7493
 20
27.4751
 30
0.0
 10
31.7493
 20
27.4751
 30
0.0
 10
31.7493
 20
27.4751
 30
0.0
 10
31.7493
 20
27.7146
 30
0.0
 10
31.7493
 20
27.7146
 30
0.0
 10
31.7493
 20
27.7146
 30
0.0
 10
31.8881
 20
27.7799
 30
0.0
 10
32.0095
 20
27.859
 30
0.0
 10
32.1134
 20
27.9516
 30
0.0
 10
32.1134
 20
27.9516
 30
0.0
 10
32.2169
 20
28.0448
 30
0.0
 10
32.2907
 20
28.1346
 30
0.0
 10
32.334
 20
28.2221
 30
0.0
 10
32.334
 20
28.2221
 30
0.0
 10
32.334
 20
28.2221
 30
0.0
 10
32.4935
 20
28.2221
 30
0.0
 10
32.4935
 20
28.2221
 30
0.0
 10
32.4935
 20
28.2221
 30
0.0
 10
32.4935
 20
28.2221
 30
0.0
 10
32.4935
 20
26.1934
 30
0.0
 10
32.4935
 20
26.1934
 30
0.0
  0
SPLINE
  5
B0
330
1F
100
AcDbEntity
  8
ROUND
 62
   250
100
AcDbSpline
210
0.0
220
0.0
230
1.0
 70
    11
 71
     3
 72
    52
 73
    48
 74
     0
 42
0.0000000001
 43
0.0000000001
 40
0.0
 40
0.0
 40
0.0
 40
0.0
 40
0.0769230769230769
 40
0.0769230769230769
 40
0.0769230769230769
 40
0.0769230769230769
 40
0.1538461538461539
 40
0.1538461538461539
 40
0.1538461538461539
 40
0.1538461538461539
 40
0.2307692307692308
 40
0.2307692307692308
 40
0.2307692307692308
 40
0.2307692307692308
 40
0.3076923076923077
 40
0.3076923076923077
 40
0.3076923076923077
 40
0.3076923076923077
 40
0.3846153846153846
 40
0.3846153846153846
 40
0.3846153846153846
 40
0.3846153846153846
 40
0.4615384615384616
 40
0.4615384615384616
 40
0.4615384615384616
 40
0.4615384615384616
 40
0.5384615384615384
 40
0.5384615384615384
 40
0.5384615384615384
 40
0.5384615384615384
 40
0.6153846153846154
 40
0.6153846153846154
 40
0.6153846153846154
 40
0.6153846153846154
 40
0.6923076923076923
 40
0.6923076923076923
 40
0.6923076923076923
 40
0.6923076923076923
 40
0.7692307692307693
 40
0.7692307692307693
 40
0.7692307692307693
 40
0.7692307692307693
 40
0.8461538461538461
 40
0.8461538461538461
 40
0.8461538461538461
 40
0.8461538461538461
 40
1.0
 40
1.0
 40
1.0
 40
1.0
 10
33.1289
 20
27.1896
 30
0.0
 10
33.1289
 20
27.4286
 30
0.0
 10
33.1534
 20
27.621
 30
0.0
 10
33.2028
 20
27.7663
 30
0.0
 10
33.2028
 20
27.7663
 30
0.0
 10
33.2517
 20
27.9121
 30
0.0
 10
33.3251
 20
28.0245
 30
0.0
 10
33.422
 20
28.1036
 30
0.0
 10
33.422
 20
28.1036
 30
0.0
 10
33.5189
 20
28.1826
 30
0.0
 10
33.6407
 20
28.2221
 30
0.0
 10
33.7874
 20
28.2221
 30
0.0
 10
33.7874
 20
28.2221
 30
0.0
 10
33.8961
 20
28.2221
 30
0.0
 10
33.9911
 20
28.2
 30
0.0
 10
34.0729
 20
28.1562
 30
0.0
 10
34.0729
 20
28.1562
 30
0.0
 10
34.1548
 20
28.113
 30
0.0
 10
34.2221
 20
28.0499
 30
0.0
 10
34.2757
 20
27.9676
 30
0.0
 10
34.2757
 20
27.9676
 30
0.0
 10
34.3288
 20
27.8853
 30
0.0
 10
34.3707
 20
27.7851
 30
0.0
 10
34.4008
 20
27.6671
 30
0.0
 10
34.4008
 20
27.6671
 30
0.0
 10
34.4314
 20
27.549
 30
0.0
 10
34.4464
 20
27.39
 30
0.0
 10
34.4464
 20
27.1896
 30
0.0
 10
34.4464
 20
27.1896
 30
0.0
 10
34.4464
 20
26.9526
 30
0.0
 10
34.422
 20
26.7616
 30
0.0
 10
34.3735
 20
26.6158
 30
0.0
 10
34.3735
 20
26.6158
 30
0.0
 10
34.3246
 20
26.47
 30
0.0
 10
34.2517
 20
26.3576
 30
0.0
 10
34.1548
 20
26.2781
 30
0.0
 10
34.1548
 20
26.2781
 30
0.0
 10
34.0579
 20
26.1986
 30
0.0
 10
33.9356
 20
26.1591
 30
0.0
 10
33.7874
 20
26.1591
 30
0.0
 10
33.7874
 20
26.1591
 30
0.0
 10
33.5927
 20
26.1591
 30
0.0
 10
33.4398
 20
26.2287
 30
0.0
 10
33.3288
 20
26.3684
 30
0.0
 10
33.3288
 20
26.3684
 30
0.0
 10
33.1957
 20
26.5363
 30
0.0
 10
33.1289
 20
26.8105
 30
0.0
 10
33.1289
 20
27.1896
 30
0.0
  0
SPLINE
  5
B1
330
1F
100
AcDbEntity
  8
ROUND
 62
   250
100
AcDbSpline
210
0.0
220
0.0
230
1.0
 70
    11
 71
     3
 72
    36
 73
    32
 74
     0
 42
0.0000000001
 43
0.0000000001
 40
0.0
 40
0.0
 40
0.0
 40
0.0
 40
0.1111111111111111
 40
0.1111111111111111
 40
0.1111111111111111
 40
0.1111111111111111
 40
0.2222222222222222
 40
0.2222222222222222
 40
0.2222222222222222
 40
0.2222222222222222
 40
0.3333333333333333
 40
0.3333333333333333
 40
0.3333333333333333
 40
0.3333333333333333
 40
0.4444444444444444
 40
0.4444444444444444
 40
0.4444444444444444
 40
0.4444444444444444
 40
0.5555555555555556
 40
0.5555555555555556
 40
0.5555555555555556
 40
0.5555555555555556
 40
0.6666666666666666
 40
0.6666666666666666
 40
0.6666666666666666
 40
0.6666666666666666
 40
0.7777777777777778
 40
0.7777777777777778
 40
0.7777777777777778
 40
0.7777777777777778
 40
1.0
 40
1.0
 40
1.0
 40
1.0
 10
33.3839
 20
27.1896
 30
0.0
 10
33.3839
 20
26.858
 30
0.0
 10
33.4229
 20
26.6374
 30
0.0
 10
33.5005
 20
26.5274
 30
0.0
 10
33.5005
 20
26.5274
 30
0.0
 10
33.5781
 20
26.4178
 30
0.0
 10
33.6736
 20
26.3627
 30
0.0
 10
33.7874
 20
26.3627
 30
0.0
 10
33.7874
 20
26.3627
 30
0.0
 10
33.9017
 20
26.3627
 30
0.0
 10
33.9972
 20
26.4182
 30
0.0
 10
34.0748
 20
26.5283
 30
0.0
 10
34.0748
 20
26.5283
 30
0.0
 10
34.1524
 20
26.6384
 30
0.0
 10
34.1915
 20
26.859
 30
0.0
 10
34.1915
 20
27.1896
 30
0.0
 10
34.1915
 20
27.1896
 30
0.0
 10
34.1915
 20
27.5222
 30
0.0
 10
34.1524
 20
27.7433
 30
0.0
 10
34.0748
 20
27.8524
 30
0.0
 10
34.0748
 20
27.8524
 30
0.0
 10
33.9972
 20
27.962
 30
0.0
 10
33.9008
 20
28.0165
 30
0.0
 10
33.7851
 20
28.0165
 30
0.0
 10
33.7851
 20
28.0165
 30
0.0
 10
33.6708
 20
28.0165
 30
0.0
 10
33.58
 20
27.9681
 30
0.0
 10
33.5118
 20
27.8717
 30
0.0
 10
33.5118
 20
27.8717
 30
0.0
 10
33.4267
 20
27.7489
 30
0.0
 10
33.3839
 20
27.5212
 30
0.0
 10
33.3839
 20
27.1896
 30
0.0
  0
SPLINE
  5
B2
330
1F
100
AcDbEntity
  8
ROUND
 62
   250
100
AcDbSpline
210
0.0
220
0.0
230
1.0
 70
    11
 71
     3
 72
    52
 73
    48
 74
     0
 42
0.0000000001
 43
0.0000000001
 40
0.0
 40
0.0
 40
0.0
 40
0.0
 40
0.0769230769230769
 40
0.0769230769230769
 40
0.0769230769230769
 40
0.0769230769230769
 40
0.1538461538461539
 40
0.1538461538461539
 40
0.1538461538461539
 40
0.1538461538461539
 40
0.2307692307692308
 40
0.2307692307692308
 40
0.2307692307692308
 40
0.2307692307692308
 40
0.3076923076923077
 40
0.3076923076923077
 40
0.3076923076923077
 40
0.3076923076923077
 40
0.3846153846153846
 40
0.3846153846153846
 40
0.3846153846153846
 40
0.3846153846153846
 40
0.4615384615384616
 40
0.4615384615384616
 40
0.4615384615384616
 40
0.4615384615384616
 40
0.5384615384615384
 40
0.5384615384615384
 40
0.5384615384615384
 40
0.5384615384615384
 40
0.6153846153846154
 40
0.6153846153846154
 40
0.6153846153846154
 40
0.6153846153846154
 40
0.6923076923076923
 40
0.6923076923076923
 40
0.6923076923076923
 40
0.6923076923076923
 40
0.7692307692307693
 40
0.7692307692307693
 40
0.7692307692307693
 40
0.7692307692307693
 40
0.8461538461538461
 40
0.8461538461538461
 40
0.8461538461538461
 40
0.8461538461538461
 40
1.0
 40
1.0
 40
1.0
 40
1.0
 10
34.6985
 20
27.1896
 30
0.0
 10
34.6985
 20
27.4286
 30
0.0
 10
34.723
 20
27.621
 30
0.0
 10
34.7724
 20
27.7663
 30
0.0
 10
34.7724
 20
27.7663
 30
0.0
 10
34.8213
 20
27.9121
 30
0.0
 10
34.8947
 20
28.0245
 30
0.0
 10
34.9916
 20
28.1036
 30
0.0
 10
34.9916
 20
28.1036
 30
0.0
 10
35.0885
 20
28.1826
 30
0.0
 10
35.2103
 20
28.2221
 30
0.0
 10
35.357
 20
28.2221
 30
0.0
 10
35.357
 20
28.2221
 30
0.0
 10
35.4657
 20
28.2221
 30
0.0
 10
35.5607
 20
28.2
 30
0.0
 10
35.6425
 20
28.1562
 30
0.0
 10
35.6425
 20
28.1562
 30
0.0
 10
35.7244
 20
28.113
 30
0.0
 10
35.7917
 20
28.0499
 30
0.0
 10
35.8453
 20
27.9676
 30
0.0
 10
35.8453
 20
27.9676
 30
0.0
 10
35.8984
 20
27.8853
 30
0.0
 10
35.9403
 20
27.7851
 30
0.0
 10
35.9704
 20
27.6671
 30
0.0
 10
35.9704
 20
27.6671
 30
0.0
 10
36.001
 20
27.549
 30
0.0
 10
36.016
 20
27.39
 30
0.0
 10
36.016
 20
27.1896
 30
0.0
 10
36.016
 20
27.1896
 30
0.0
 10
36.016
 20
26.9526
 30
0.0
 10
35.9916
 20
26.7616
 30
0.0
 10
35.9431
 20
26.6158
 30
0.0
 10
35.9431
 20
26.6158
 30
0.0
 10
35.8942
 20
26.47
 30
0.0
 10
35.8213
 20
26.3576
 30
0.0
 10
35.7244
 20
26.2781
 30
0.0
 10
35.7244
 20
26.2781
 30
0.0
 10
35.6275
 20
26.1986
 30
0.0
 10
35.5052
 20
26.1591
 30
0.0
 10
35.357
 20
26.1591
 30
0.0
 10
35.357
 20
26.1591
 30
0.0
 10
35.1623
 20
26.1591
 30
0.0
 10
35.0094
 20
26.2287
 30
0.0
 10
34.8984
 20
26.3684
 30
0.0
 10
34.8984
 20
26.3684
 30
0.0
 10
34.7653
 20
26.5363
 30
0.0
 10
34.6985
 20
26.8105
 30
0.0
 10
34.6985
 20
27.1896
 30
0.0
  0
SPLINE
  5
B3
330
1F
100
AcDbEntity
  8
ROUND
 62
   250
100
AcDbSpline
210
0.0
220
0.0
230
1.0
 70
    11
 71
     3
 72
    36
 73
    32
 74
     0
 42
0.0000000001
 43
0.0000000001
 40
0.0
 40
0.0
 40
0.0
 40
0.0
 40
0.1111111111111111
 40
0.1111111111111111
 40
0.1111111111111111
 40
0.1111111111111111
 40
0.2222222222222222
 40
0.2222222222222222
 40
0.2222222222222222
 40
0.2222222222222222
 40
0.3333333333333333
 40
0.3333333333333333
 40
0.3333333333333333
 40
0.3333333333333333
 40
0.4444444444444444
 40
0.4444444444444444
 40
0.4444444444444444
 40
0.4444444444444444
 40
0.5555555555555556
 40
0.5555555555555556
 40
0.5555555555555556
 40
0.5555555555555556
 40
0.6666666666666666
 40
0.6666666666666666
 40
0.6666666666666666
 40
0.6666666666666666
 40
0.7777777777777778
 40
0.7777777777777778
 40
0.7777777777777778
 40
0.7777777777777778
 40
1.0
 40
1.0
 40
1.0
 40
1.0
 10
34.9535
 20
27.1896
 30
0.0
 10
34.9535
 20
26.858
 30
0.0
 10
34.9925
 20
26.6374
 30
0.0
 10
35.0701
 20
26.5274
 30
0.0
 10
35.0701
 20
26.5274
 30
0.0
 10
35.1477
 20
26.4178
 30
0.0
 10
35.2432
 20
26.3627
 30
0.0
 10
35.357
 20
26.3627
 30
0.0
 10
35.357
 20
26.3627
 30
0.0
 10
35.4713
 20
26.3627
 30
0.0
 10
35.5668
 20
26.4182
 30
0.0
 10
35.6444
 20
26.5283
 30
0.0
 10
35.6444
 20
26.5283
 30
0.0
 10
35.722
 20
26.6384
 30
0.0
 10
35.7611
 20
26.859
 30
0.0
 10
35.7611
 20
27.1896
 30
0.0
 10
35.7611
 20
27.1896
 30
0.0
 10
35.7611
 20
27.5222
 30
0.0
 10
35.722
 20
27.7433
 30
0.0
 10
35.6444
 20
27.8524
 30
0.0
 10
35.6444
 20
27.8524
 30
0.0
 10
35.5668
 20
27.962
 30
0.0
 10
35.4704
 20
28.0165
 30
0.0
 10
35.3547
 20
28.0165
 30
0.0
 10
35.3547
 20
28.0165
 30
0.0
 10
35.2404
 20
28.0165
 30
0.0
 10
35.1496
 20
27.9681
 30
0.0
 10
35.0814
 20
27.8717
 30
0.0
 10
35.0814
 20
27.8717
 30
0.0
 10
34.9963
 20
27.7489
 30
0.0
 10
34.9535
 20
27.5212
 30
0.0
 10
34.9535
 20
27.1896
 30
0.0
  0
SPLINE
  5
B4
330
1F
100
AcDbEntity
  8
ROUND
 62
   250
100
AcDbSpline
210
0.0
220
0.0
230
1.0
 70
    11
 71
     3
 72
    20
 73
    16
 74
     0
 42
0.0000000001
 43
0.0000000001
 40
0.0
 40
0.0
 40
0.0
 40
0.0
 40
0.2
 40
0.2
 40
0.2
 40
0.2
 40
0.4
 40
0.4
 40
0.4
 40
0.4
 40
0.6
 40
0.6
 40
0.6
 40
0.6
 40
1.0
 40
1.0
 40
1.0
 40
1.0
 10
41.7435
 20
26.2338
 30
0.0
 10
41.7435
 20
26.2338
 30
0.0
 10
45.2973
 20
25.7322
 30
0.0
 10
45.2973
 20
25.7322
 30
0.0
 10
45.2973
 20
25.7322
 30
0.0
 10
45.2973
 20
25.7322
 30
0.0
 10
45.2973
 20
25.6208
 30
0.0
 10
45.2973
 20
25.6208
 30
0.0
 10
45.2973
 20
25.6208
 30
0.0
 10
45.2973
 20
25.6208
 30
0.0
 10
41.7435
 20
25.086
 30
0.0
 10
41.7435
 20
25.086
 30
0.0
 10
41.7435
 20
25.086
 30
0.0
 10
41.7435
 20
25.086
 30
0.0
 10
41.7435
 20
26.2338
 30
0.0
 10
41.7435
 20
26.2338
 30
0.0
  0
SPLINE
  5
B5
330
1F
100
AcDbEntity
  8
ROUND
 62
   250
100
AcDbSpline
210
0.0
220
0.0
230
1.0
 70
    11
 71
     3
 72
    20
 73
    16
 74
     0
 42
0.0000000001
 43
0.0000000001
 40
0.0
 40
0.0
 40
0.0
 40
0.0
 40
0.2
 40
0.2
 40
0.2
 40
0.2
 40
0.4
 40
0.4
 40
0.4
 40
0.4
 40
0.6
 40
0.6
 40
0.6
 40
0.6
 40
1.0
 40
1.0
 40
1.0
 40
1.0
 10
26.0183
 20
25.1219
 30
0.0
 10
26.0183
 20
25.1219
 30
0.0
 10
22.4645
 20
25.6235
 30
0.0
 10
22.4645
 20
25.6235
 30
0.0
 10
22.4645
 20
25.6235
 30
0.0
 10
22.4645
 20
25.6235
 30
0.0
 10
22.4645
 20
25.7349
 30
0.0
 10
22.4645
 20
25.7349
 30
0.0
 10
22.4645
 20
25.7349
 30
0.0
 10
22.4645
 20
25.7349
 30
0.0
 10
26.0183
 20
26.2698
 30
0.0
 10
26.0183
 20
26.2698
 30
0.0
 10
26.0183
 20
26.2698
 30
0.0
 10
26.0183
 20
26.2698
 30
0.0
 10
26.0183
 20
25.1219
 30
0.0
 10
26.0183
 20
25.1219
 30
0.0
  0
SPLINE
  5
B6
330
1F
100
AcDbEntity
  8
ROUND
 62
   250
100
AcDbSpline
210
0.0
220
0.0
230
1.0
 70
    24
 71
     3
 72
     8
 73
     4
 74
     0
 42
0.0000000001
 43
0.0000000001
 40
0.0
 40
0.0
 40
0.0
 40
0.0
 40
1.0
 40
1.0
 40
1.0
 40
1.0
 10
22.8851
 20
25.6664
 30
0.0
 10
22.8851
 20
25.6664
 30
0.0
 10
45.1511
 20
25.6664
 30
0.0
 10
45.1511
 20
25.6664
 30
0.0
  0
ENDSEC
  0
SECTION
  2
OBJECTS
  0
DICTIONARY
  5
C
330
0
100
AcDbDictionary
  3
ACAD_GROUP
350
D
  3
ACAD_LAYOUT
350
1A
  3
ACAD_MATERIAL
350
3B
  3
ACAD_MLEADERSTYLE
350
D9
  3
ACAD_MLINESTYLE
350
17
  3
ACAD_PLOTSETTINGS
350
19
  3
ACAD_VISUALSTYLE
350
2A
  3
ACDBHEADERROUNDTRIPXREC
350
B7
  3
ACDBVARIABLEDICTIONARY
350
D7
  0
DICTIONARY
  5
D
102
{ACAD_REACTORS
330
C
102
}
330
C
100
AcDbDictionary
  0
DICTIONARY
  5
1A
102
{ACAD_REACTORS
330
C
102
}
330
C
100
AcDbDictionary
  0
DICTIONARY
  5
3B
102
{ACAD_REACTORS
330
C
102
}
330
C
100
AcDbDictionary
  3
BYBLOCK
350
3D
  3
BYLAYER
350
3C
  3
GLOBAL
350
3E
  0
DICTIONARY
  5
D9
102
{ACAD_REACTORS
330
C
102
}
330
C
100
AcDbDictionary
  0
DICTIONARY
  5
17
102
{ACAD_REACTORS
330
C
102
}
330
C
100
AcDbDictionary
  3
STANDARD
350
18
  0
DICTIONARY
  5
19
102
{ACAD_REACTORS
330
C
102
}
330
C
100
AcDbDictionary
  0
DICTIONARY
  5
2A
102
{ACAD_REACTORS
330
C
102
}
330
C
100
AcDbDictionary
  3
2DWIREFRAME
350
2F
  3
3D_HIDDEN
350
31
  3
3DWIREFRAME
350
30
  3
BASIC
350
32
  3
BRIGHTEN
350
36
  3
COLORCHANGE
350
3A
  3
CONCEPTUAL
350
34
  3
DIM
350
35
  3
FACEPATTERN
350
39
  3
FLAT
350
2B
  3
FLATWITHEDGES
350
2C
  3
GOURAUD
350
2D
  3
GOURAUDWITHEDGES
350
2E
  3
LINEPATTERN
350
38
  3
REALISTIC
350
33
  3
THICKEN
350
37
  0
DICTIONARY
  5
B7
102
{ACAD_REACTORS
330
C
102
}
330
C
100
AcDbDictionary
  3
CEPSNTYPE
350
C0
  3
DIMSTYLEDATA
350
D6
  3
FINGERPRINTGUID
350
C1
  3
HYPERLINKBASE
350
BA
  3
INSUNITS
350
BF
  3
LAYOUTDICT
350
BC
  3
LWETCUNION
350
BE
  3
PLOTSETDICT
350
BD
  3
PSVPSCALE
350
C3
  3
PUCSBASE
350
C6
  3
PUCSORGBACK
350
CC
  3
PUCSORGBOTTOM
350
C8
  3
PUCSORGFRONT
350
CB
  3
PUCSORGLEFT
350
C9
  3
PUCSORGRIGHT
350
CA
  3
PUCSORGTOP
350
C7
  3
PUCSORTHOREF
350
C4
  3
PUCSORTHOVIEW
350
C5
  3
STYLESHEET
350
BB
  3
TSTACKALIGN
350
B8
  3
TSTACKSIZE
350
B9
  3
UCSBASE
350
CF
  3
UCSORGBACK
350
D5
  3
UCSORGBOTTOM
350
D1
  3
UCSORGFRONT
350
D4
  3
UCSORGLEFT
350
D2
  3
UCSORGRIGHT
350
D3
  3
UCSORGTOP
350
D0
  3
UCSORTHOREF
350
CD
  3
UCSORTHOVIEW
350
CE
  3
VERSIONGUID
350
C2
  0
DICTIONARY
  5
D7
102
{ACAD_REACTORS
330
C
102
}
330
C
100
AcDbDictionary
  3
DIMASSOC
350
DA
  3
HIDETEXT
350
DB
  0
MATERIAL
  5
3D
102
{ACAD_REACTORS
330
3B
102
}
102
{ACAD_XDICTIONARY
360
DE
102
}
330
3B
100
AcDbMaterial
  1
ByBlock
  0
MATERIAL
  5
3C
102
{ACAD_REACTORS
330
3B
102
}
102
{ACAD_XDICTIONARY
360
DC
102
}
330
3B
100
AcDbMaterial
  1
ByLayer
  0
MATERIAL
  5
3E
102
{ACAD_REACTORS
330
3B
102
}
102
{ACAD_XDICTIONARY
360
E0
102
}
330
3B
100
AcDbMaterial
  1
Global
  0
MLINESTYLE
  5
18
102
{ACAD_REACTORS
330
17
102
}
330
17
100
AcDbMlineStyle
  2
Standard
 70
     0
  3

 62
   256
 51
90.0
 52
90.0
 71
     2
 49
0.5
 62
   256
  6
BYLAYER
 49
-0.5
 62
   256
  6
BYLAYER
  0
ACAD_PROXY_OBJECT
  5
2F
102
{ACAD_REACTORS
330
2A
102
}
330
2A
100
AcDbProxyObject
 90
      499
 91
      501
 93
      436
310
42CC9915DA5C99599C985B595049028333333333333E3BF0000000000000FB0107901411070040501600405405064090741402480A0340
1001
ACAD
1000
AcDbSavedByObjectVersion
1070
     0
  0
ACAD_PROXY_OBJECT
  5
31
102
{ACAD_REACTORS
330
2A
102
}
330
2A
100
AcDbProxyObject
 90
      499
 91
      501
 93
      500
310
424CD108121A5919195B90640502408333333333333E3BF0000000000000FB01079024090700405020000000000001110200405405064090740C02480A0340
1001
ACAD
1000
AcDbSavedByObjectVersion
1070
     0
  0
ACAD_PROXY_OBJECT
  5
30
102
{ACAD_REACTORS
330
2A
102
}
330
2A
100
AcDbProxyObject
 90
      499
 91
      501
 93
      436
310
42CCD915DA5C99599C985B595059028333333333333E3BF0000000000000FB0107901411070040501600405405064090741402480A0340
1001
ACAD
1000
AcDbSavedByObjectVersion
1070
     0
  0
ACAD_PROXY_OBJECT
  5
32
102
{ACAD_REACTORS
330
2A
102
}
330
2A
100
AcDbProxyObject
 90
      499
 91
      501
 93
      388
310
4150985CDA58D07406404333333333333E3BF0000000000000FB0107A41107004050150841D405064090741402480A0350
1001
ACAD
1000
AcDbSavedByObjectVersion
1070
     0
  0
ACAD_PROXY_OBJECT
  5
36
102
{ACAD_REACTORS
330
2A
102
}
330
2A
100
AcDbProxyObject
 90
      499
 91
      501
 93
      428
310
42109C9A59DA1D195B90C409028333333333333E3BF0000000000000FB010790141107004050150841D405064090741402480A029950
1001
ACAD
1000
AcDbSavedByObjectVersion
1070
     0
  0
ACAD_PROXY_OBJECT
  5
3A
102
{ACAD_REACTORS
330
2A
102
}
330
2A
100
AcDbProxyObject
 90
      499
 91
      501
 93
      452
310
42D0DBDB1BDC90DA185B99D95104090240C333333333333E3BF0000000000000FB0108901411070040501508421405064090741402480A0350
1001
ACAD
1000
AcDbSavedByObjectVersion
1070
     0
  0
ACAD_PROXY_OBJECT
  5
34
102
{ACAD_REACTORS
330
2A
102
}
330
2A
100
AcDbProxyObject
 90
      499
 91
      501
 93
      500
310
4290DBDB98D95C1D1D585B10940D028333333333333E3BF0000000000000FB0107902409070040501000000000000111010841D405064090740C02480A0340
1001
ACAD
1000
AcDbSavedByObjectVersion
1070
     0
  0
ACAD_PROXY_OBJECT
  5
35
102
{ACAD_REACTORS
330
2A
102
}
330
2A
100
AcDbProxyObject
 90
      499
 91
      501
 93
      412
310
40D11A5B50B409028333333333333E3BF0000000000000FB010790141107004050150841D405064090741402480A02677FFFFFD0
1001
ACAD
1000
AcDbSavedByObjectVersion
1070
     0
  0
ACAD_PROXY_OBJECT
  5
39
102
{ACAD_REACTORS
330
2A
102
}
330
2A
100
AcDbProxyObject
 90
      499
 91
      501
 93
      444
310
42D19858D95C185D1D195C9B90F409028333333333333E3BF0000000000000FB010790141107004050150841D405064090741402480A0350
1001
ACAD
1000
AcDbSavedByObjectVersion
1070
     0
  0
ACAD_PROXY_OBJECT
  5
2B
102
{ACAD_REACTORS
330
2A
102
}
330
2A
100
AcDbProxyObject
 90
      499
 91
      501
 93
      388
310
41119B185D240901404333333333333E3BF0000000000000F9010740A41107004050150841D405064090741402480A1B50
1001
ACAD
1000
AcDbSavedByObjectVersion
1070
     0
  0
ACAD_PROXY_OBJECT
  5
2C
102
{ACAD_REACTORS
330
2A
102
}
330
2A
100
AcDbProxyObject
 90
      499
 91
      501
 93
      476
310
43519B185D15DA5D1A115919D95CD0140901404333333333333E3BF0000000000000F9010740901411070040501600405405064090741402480A1B50
1001
ACAD
1000
AcDbSavedByObjectVersion
1070
     0
  0
ACAD_PROXY_OBJECT
  5
2D
102
{ACAD_REACTORS
330
2A
102
}
330
2A
100
AcDbProxyObject
 90
      499
 91
      501
 93
      412
310
41D1DBDD5C985D5910240902404333333333333E3BF0000000000000F9010740A411070040501641D405064090741402480A1B50
1001
ACAD
1000
AcDbSavedByObjectVersion
1070
     0
  0
ACAD_PROXY_OBJECT
  5
2E
102
{ACAD_REACTORS
330
2A
102
}
330
2A
100
AcDbProxyObject
 90
      499
 91
      501
 93
      500
310
4411DBDD5C985D5915DA5D1A115919D95CD0340902404333333333333E3BF0000000000000F9010740901411070040501600405405064090741402480A1B50
1001
ACAD
1000
AcDbSavedByObjectVersion
1070
     0
  0
ACAD_PROXY_OBJECT
  5
38
102
{ACAD_REACTORS
330
2A
102
}
330
2A
100
AcDbProxyObject
 90
      499
 91
      501
 93
      444
310
42D31A5B995C185D1D195C9B90E409028333333333333E3BF0000000000000FB010790141107004050750841D405064090741402483A0350
1001
ACAD
1000
AcDbSavedByObjectVersion
1070
     0
  0
ACAD_PROXY_OBJECT
  5
33
102
{ACAD_REACTORS
330
2A
102
}
330
2A
100
AcDbProxyObject
 90
      499
 91
      501
 93
      420
310
425499585B1A5CDD1A58D08409028333333333333E3BF0000000000000FB01079019070040501508421405064090741402480A1B40
1001
ACAD
1000
AcDbSavedByObjectVersion
1070
     0
  0
ACAD_PROXY_OBJECT
  5
37
102
{ACAD_REACTORS
330
2A
102
}
330
2A
100
AcDbProxyObject
 90
      499
 91
      501
 93
      412
310
41D51A1A58DAD95B90D409028333333333333E3BF0000000000000FB010790141107004050150C41D405064090741402480A0350
1001
ACAD
1000
AcDbSavedByObjectVersion
1070
     0
  0
XRECORD
  5
C0
102
{ACAD_REACTORS
330
B7
102
}
330
B7
100
AcDbXrecord
 90
        0
  0
XRECORD
  5
D6
102
{ACAD_REACTORS
330
B7
102
}
330
B7
100
AcDbXrecord
1000
DSTYLE
1002
{
1070
   340
340
11
1002
}
  0
XRECORD
  5
C1
102
{ACAD_REACTORS
330
B7
102
}
330
B7
100
AcDbXrecord
  1
{CA509C1F-F3AB-4D96-93DD-71ABB2061A00}
  0
XRECORD
  5
BA
102
{ACAD_REACTORS
330
B7
102
}
330
B7
100
AcDbXrecord
  1

  0
XRECORD
  5
BF
102
{ACAD_REACTORS
330
B7
102
}
330
B7
100
AcDbXrecord
 90
        4
  0
XRECORD
  5
BC
102
{ACAD_REACTORS
330
B7
102
}
330
B7
100
AcDbXrecord
340
1A
  0
XRECORD
  5
BE
102
{ACAD_REACTORS
330
B7
102
}
330
B7
100
AcDbXrecord
 90
    10781
  0
XRECORD
  5
BD
102
{ACAD_REACTORS
330
B7
102
}
330
B7
100
AcDbXrecord
340
19
  0
XRECORD
  5
C3
102
{ACAD_REACTORS
330
B7
102
}
330
B7
100
AcDbXrecord
 40
0.0
  0
XRECORD
  5
C6
102
{ACAD_REACTORS
330
B7
102
}
330
B7
100
AcDbXrecord
340
0
  0
XRECORD
  5
CC
102
{ACAD_REACTORS
330
B7
102
}
330
B7
100
AcDbXrecord
 10
0.0
 20
0.0
 30
0.0
  0
XRECORD
  5
C8
102
{ACAD_REACTORS
330
B7
102
}
330
B7
100
AcDbXrecord
 10
0.0
 20
0.0
 30
0.0
  0
XRECORD
  5
CB
102
{ACAD_REACTORS
330
B7
102
}
330
B7
100
AcDbXrecord
 10
0.0
 20
0.0
 30
0.0
  0
XRECORD
  5
C9
102
{ACAD_REACTORS
330
B7
102
}
330
B7
100
AcDbXrecord
 10
0.0
 20
0.0
 30
0.0
  0
XRECORD
  5
CA
102
{ACAD_REACTORS
330
B7
102
}
330
B7
100
AcDbXrecord
 10
0.0
 20
0.0
 30
0.0
  0
XRECORD
  5
C7
102
{ACAD_REACTORS
330
B7
102
}
330
B7
100
AcDbXrecord
 10
0.0
 20
0.0
 30
0.0
  0
XRECORD
  5
C4
102
{ACAD_REACTORS
330
B7
102
}
330
B7
100
AcDbXrecord
340
0
  0
XRECORD
  5
C5
102
{ACAD_REACTORS
330
B7
102
}
330
B7
100
AcDbXrecord
 70
     0
  0
XRECORD
  5
BB
102
{ACAD_REACTORS
330
B7
102
}
330
B7
100
AcDbXrecord
  1

  0
XRECORD
  5
B8
102
{ACAD_REACTORS
330
B7
102
}
330
B7
100
AcDbXrecord
 90
        1
  0
XRECORD
  5
B9
102
{ACAD_REACTORS
330
B7
102
}
330
B7
100
AcDbXrecord
 90
       70
  0
XRECORD
  5
CF
102
{ACAD_REACTORS
330
B7
102
}
330
B7
100
AcDbXrecord
340
0
  0
XRECORD
  5
D5
102
{ACAD_REACTORS
330
B7
102
}
330
B7
100
AcDbXrecord
 10
0.0
 20
0.0
 30
0.0
  0
XRECORD
  5
D1
102
{ACAD_REACTORS
330
B7
102
}
330
B7
100
AcDbXrecord
 10
0.0
 20
0.0
 30
0.0
  0
XRECORD
  5
D4
102
{ACAD_REACTORS
330
B7
102
}
330
B7
100
AcDbXrecord
 10
0.0
 20
0.0
 30
0.0
  0
XRECORD
  5
D2
102
{ACAD_REACTORS
330
B7
102
}
330
B7
100
AcDbXrecord
 10
0.0
 20
0.0
 30
0.0
  0
XRECORD
  5
D3
102
{ACAD_REACTORS
330
B7
102
}
330
B7
100
AcDbXrecord
 10
0.0
 20
0.0
 30
0.0
  0
XRECORD
  5
D0
102
{ACAD_REACTORS
330
B7
102
}
330
B7
100
AcDbXrecord
 10
0.0
 20
0.0
 30
0.0
  0
XRECORD
  5
CD
102
{ACAD_REACTORS
330
B7
102
}
330
B7
100
AcDbXrecord
340
0
  0
XRECORD
  5
CE
102
{ACAD_REACTORS
330
B7
102
}
330
B7
100
AcDbXrecord
 70
     0
  0
XRECORD
  5
C2
102
{ACAD_REACTORS
330
B7
102
}
330
B7
100
AcDbXrecord
  1
{FAEB1C32-E019-11D5-929B-00C0DF256EC4}
  0
DICTIONARYVAR
  5
DA
102
{ACAD_REACTORS
330
D7
102
}
330
D7
100
DictionaryVariables
280
     0
  1
2
  0
DICTIONARYVAR
  5
DB
102
{ACAD_REACTORS
330
D7
102
}
330
D7
100
DictionaryVariables
280
     0
  1
1
  0
DICTIONARY
  5
DE
330
3D
100
AcDbDictionary
280
     1
  3
ACAD_XREC_ROUNDTRIP
360
DF
  0
DICTIONARY
  5
DC
330
3C
100
AcDbDictionary
280
     1
  3
ACAD_XREC_ROUNDTRIP
360
DD
  0
DICTIONARY
  5
E0
330
3E
100
AcDbDictionary
280
     1
  3
ACAD_XREC_ROUNDTRIP
360
E1
  0
XRECORD
  5
DF
102
{ACAD_REACTORS
330
DE
102
}
330
DE
100
AcDbXrecord
102
MATERIAL
148
0.0
149
0.0
149
0.0
 93
        0
 94
      127
282
     0
 72
     1
 77
     1
171
     1
175
     1
179
     1
273
     0
  0
XRECORD
  5
DD
102
{ACAD_REACTORS
330
DC
102
}
330
DC
100
AcDbXrecord
102
MATERIAL
148
0.0
149
0.0
149
0.0
 93
        0
 94
      127
282
     0
 72
     1
 77
     1
171
     1
175
     1
179
     1
273
     0
  0
XRECORD
  5
E1
102
{ACAD_REACTORS
330
E0
102
}
330
E0
100
AcDbXrecord
102
MATERIAL
148
0.0
149
0.0
149
0.0
 93
        0
 94
      127
282
     0
 72
     1
 77
     1
171
     1
175
     1
179
     1
273
     0
  0
ENDSEC
  0
EOF
