  0
SECTION
  2
HEADER
  9
$ACADVER
  1
AC1014
  9
$ACADMAINTVER
 70
     9
  9
$DWGCODEPAGE
  3
ANSI_1250
  9
$INSBASE
 10
0.0
 20
0.0
 30
0.0
  9
$EXTMIN
 10
-38.0225
 20
-32.0364
 30
0.0
  9
$EXTMAX
 10
38.0223
 20
32.1638
 30
0.0
  9
$LIMMIN
 10
0.0
 20
0.0
  9
$LIMMAX
 10
12.0
 20
9.0
  9
$ORTHOMODE
 70
     0
  9
$REGENMODE
 70
     1
  9
$FILLMODE
 70
     1
  9
$QTEXTMODE
 70
     0
  9
$MIRRTEXT
 70
     1
  9
$DRAGMODE
 70
     2
  9
$LTSCALE
 40
1.0
  9
$OSMODE
 70
    37
  9
$ATTMODE
 70
     1
  9
$TEXTSIZE
 40
0.2
  9
$TRACEWID
 40
0.05
  9
$TEXTSTYLE
  7
STANDARD
  9
$CLAYER
  8
0
  9
$CELTYPE
  6
BYLAYER
  9
$CECOLOR
 62
   256
  9
$CELTSCALE
 40
1.0
  9
$DELOBJ
 70
     1
  9
$DISPSILH
 70
     0
  9
$DIMSCALE
 40
1.0
  9
$DIMASZ
 40
0.18
  9
$DIMEXO
 40
0.0625
  9
$DIMDLI
 40
0.38
  9
$DIMRND
 40
0.0
  9
$DIMDLE
 40
0.0
  9
$DIMEXE
 40
0.18
  9
$DIMTP
 40
0.0
  9
$DIMTM
 40
0.0
  9
$DIMTXT
 40
0.18
  9
$DIMCEN
 40
0.09
  9
$DIMTSZ
 40
0.0
  9
$DIMTOL
 70
     0
  9
$DIMLIM
 70
     0
  9
$DIMTIH
 70
     1
  9
$DIMTOH
 70
     1
  9
$DIMSE1
 70
     0
  9
$DIMSE2
 70
     0
  9
$DIMTAD
 70
     0
  9
$DIMZIN
 70
     0
  9
$DIMBLK
  1

  9
$DIMASO
 70
     1
  9
$DIMSHO
 70
     1
  9
$DIMPOST
  1

  9
$DIMAPOST
  1

  9
$DIMALT
 70
     0
  9
$DIMALTD
 70
     2
  9
$DIMALTF
 40
25.4
  9
$DIMLFAC
 40
1.0
  9
$DIMTOFL
 70
     0
  9
$DIMTVP
 40
0.0
  9
$DIMTIX
 70
     0
  9
$DIMSOXD
 70
     0
  9
$DIMSAH
 70
     0
  9
$DIMBLK1
  1

  9
$DIMBLK2
  1

  9
$DIMSTYLE
  2
STANDARD
  9
$DIMCLRD
 70
     0
  9
$DIMCLRE
 70
     0
  9
$DIMCLRT
 70
     0
  9
$DIMTFAC
 40
1.0
  9
$DIMGAP
 40
0.09
  9
$DIMJUST
 70
     0
  9
$DIMSD1
 70
     0
  9
$DIMSD2
 70
     0
  9
$DIMTOLJ
 70
     1
  9
$DIMTZIN
 70
     0
  9
$DIMALTZ
 70
     0
  9
$DIMALTTZ
 70
     0
  9
$DIMFIT
 70
     3
  9
$DIMUPT
 70
     0
  9
$DIMUNIT
 70
     2
  9
$DIMDEC
 70
     4
  9
$DIMTDEC
 70
     4
  9
$DIMALTU
 70
     2
  9
$DIMALTTD
 70
     2
  9
$DIMTXSTY
  7
STANDARD
  9
$DIMAUNIT
 70
     0
  9
$LUNITS
 70
     2
  9
$LUPREC
 70
     4
  9
$SKETCHINC
 40
0.1
  9
$FILLETRAD
 40
0.5
  9
$AUNITS
 70
     0
  9
$AUPREC
 70
     0
  9
$MENU
  1
.
  9
$ELEVATION
 40
0.0
  9
$PELEVATION
 40
0.0
  9
$THICKNESS
 40
0.0
  9
$LIMCHECK
 70
     0
  9
$CHAMFERA
 40
0.5
  9
$CHAMFERB
 40
0.5
  9
$CHAMFERC
 40
1.0
  9
$CHAMFERD
 40
0.0
  9
$SKPOLY
 70
     0
  9
$TDCREATE
 40
2456266.404360729
  9
$TDUPDATE
 40
2456266.404360741
  9
$TDINDWG
 40
0.0000000116
  9
$TDUSRTIMER
 40
0.0000000116
  9
$USRTIMER
 70
     1
  9
$ANGBASE
 50
0.0
  9
$ANGDIR
 70
     0
  9
$PDMODE
 70
     0
  9
$PDSIZE
 40
0.0
  9
$PLINEWID
 40
0.0
  9
$COORDS
 70
     1
  9
$SPLFRAME
 70
     0
  9
$SPLINETYPE
 70
     6
  9
$SPLINESEGS
 70
     8
  9
$ATTDIA
 70
     0
  9
$ATTREQ
 70
     1
  9
$HANDLING
 70
     1
  9
$HANDSEED
  5
14F
  9
$SURFTAB1
 70
     6
  9
$SURFTAB2
 70
     6
  9
$SURFTYPE
 70
     6
  9
$SURFU
 70
     6
  9
$SURFV
 70
     6
  9
$UCSNAME
  2

  9
$UCSORG
 10
0.0
 20
0.0
 30
0.0
  9
$UCSXDIR
 10
1.0
 20
0.0
 30
0.0
  9
$UCSYDIR
 10
0.0
 20
1.0
 30
0.0
  9
$PUCSNAME
  2

  9
$PUCSORG
 10
0.0
 20
0.0
 30
0.0
  9
$PUCSXDIR
 10
1.0
 20
0.0
 30
0.0
  9
$PUCSYDIR
 10
0.0
 20
1.0
 30
0.0
  9
$USERI1
 70
     0
  9
$USERI2
 70
     0
  9
$USERI3
 70
     0
  9
$USERI4
 70
     0
  9
$USERI5
 70
     0
  9
$USERR1
 40
0.0
  9
$USERR2
 40
0.0
  9
$USERR3
 40
0.0
  9
$USERR4
 40
0.0
  9
$USERR5
 40
0.0
  9
$WORLDVIEW
 70
     1
  9
$SHADEDGE
 70
     3
  9
$SHADEDIF
 70
    70
  9
$TILEMODE
 70
     1
  9
$MAXACTVP
 70
    64
  9
$PINSBASE
 10
0.0
 20
0.0
 30
0.0
  9
$PLIMCHECK
 70
     0
  9
$PEXTMIN
 10
1.000000000000000E+20
 20
1.000000000000000E+20
 30
1.000000000000000E+20
  9
$PEXTMAX
 10
-1.000000000000000E+20
 20
-1.000000000000000E+20
 30
-1.000000000000000E+20
  9
$PLIMMIN
 10
0.0
 20
0.0
  9
$PLIMMAX
 10
12.0
 20
9.0
  9
$UNITMODE
 70
     0
  9
$VISRETAIN
 70
     1
  9
$PLINEGEN
 70
     0
  9
$PSLTSCALE
 70
     1
  9
$TREEDEPTH
 70
  3020
  9
$PICKSTYLE
 70
     1
  9
$CMLSTYLE
  2
STANDARD
  9
$CMLJUST
 70
     0
  9
$CMLSCALE
 40
1.0
  9
$PROXYGRAPHICS
 70
     1
  9
$MEASUREMENT
 70
     0
  0
ENDSEC
  0
SECTION
  2
CLASSES
  0
CLASS
  1
ACDBDICTIONARYWDFLT
  2
AcDbDictionaryWithDefault
  3
ObjectDBX Classes
 90
        0
280
     0
281
     0
  0
CLASS
  1
VISUALSTYLE
  2
AcDbVisualStyle
  3
ObjectDBX Classes
 90
     4095
280
     0
281
     0
  0
CLASS
  1
MATERIAL
  2
AcDbMaterial
  3
ObjectDBX Classes
 90
     1153
280
     0
281
     0
  0
CLASS
  1
DICTIONARYVAR
  2
AcDbDictionaryVar
  3
ObjectDBX Classes
 90
        0
280
     0
281
     0
  0
CLASS
  1
XRECORD
  2
AcDbXrecord
  3
AutoCAD 2000
 90
        0
280
     0
281
     0
  0
CLASS
  1
LWPOLYLINE
  2
AcDbPolyline
  3
AutoCAD 2000
 90
        0
280
     0
281
     1
  0
CLASS
  1
HATCH
  2
AcDbHatch
  3
AutoCAD 2000
 90
        0
280
     0
281
     1
  0
CLASS
  1
ACDBPLACEHOLDER
  2
AcDbPlaceHolder
  3
ObjectDBX Classes
 90
        0
280
     0
281
     0
  0
CLASS
  1
LAYOUT
  2
AcDbLayout
  3
ObjectDBX Classes
 90
        0
280
     0
281
     0
  0
ENDSEC
  0
SECTION
  2
TABLES
  0
TABLE
  2
VPORT
  5
8
330
0
100
AcDbSymbolTable
 70
     1
  0
VPORT
  5
29
330
8
100
AcDbSymbolTableRecord
100
AcDbViewportTableRecord
  2
*ACTIVE
 70
     0
 10
0.0
 20
0.0
 11
1.0
 21
1.0
 12
10.42990654205607
 22
4.5
 13
0.0
 23
0.0
 14
0.5
 24
0.5
 15
0.5
 25
0.5
 16
0.0
 26
0.0
 36
1.0
 17
0.0
 27
0.0
 37
0.0
 40
9.0
 41
1.972972972850329
 42
50.0
 43
0.0
 44
0.0
 50
0.0
 51
0.0
 71
     0
 72
   100
 73
     1
 74
     3
 75
     0
 76
     0
 77
     0
 78
     0
  0
ENDTAB
  0
TABLE
  2
LTYPE
  5
5
330
0
100
AcDbSymbolTable
 70
     5
  0
LTYPE
  5
14
330
5
100
AcDbSymbolTableRecord
100
AcDbLinetypeTableRecord
  2
BYBLOCK
 70
     0
  3

 72
    65
 73
     0
 40
0.0
  0
LTYPE
  5
15
330
5
100
AcDbSymbolTableRecord
100
AcDbLinetypeTableRecord
  2
BYLAYER
 70
     0
  3

 72
    65
 73
     0
 40
0.0
  0
LTYPE
  5
16
330
5
100
AcDbSymbolTableRecord
100
AcDbLinetypeTableRecord
  2
CONTINUOUS
 70
     0
  3
Solid line
 72
    65
 73
     0
 40
0.0
  0
LTYPE
  5
E6
330
5
100
AcDbSymbolTableRecord
100
AcDbLinetypeTableRecord
  2
NEW_LINE1
 70
     0
  3

 72
    65
 73
     4
 40
1.2
 49
0.5
 74
     4
 75
     0
340
0
 46
1.0
 50
0.0
 44
0.0
 45
0.0
 49
-0.3
 74
     4
 75
     0
340
0
 46
1.0
 50
0.0
 44
0.0
 45
0.0
 49
0.1
 74
     4
 75
     0
340
0
 46
1.0
 50
0.0
 44
0.0
 45
0.0
 49
-0.3
 74
     4
 75
     0
340
0
 46
1.0
 50
0.0
 44
0.0
 45
0.0
  0
LTYPE
  5
E8
330
5
100
AcDbSymbolTableRecord
100
AcDbLinetypeTableRecord
  2
NEW_LINE2
 70
     0
  3

 72
    65
 73
     4
 40
1.2
 49
0.5
 74
     4
 75
     0
340
0
 46
1.0
 50
0.0
 44
0.0
 45
0.0
 49
-0.3
 74
     4
 75
     0
340
0
 46
1.0
 50
0.0
 44
0.0
 45
0.0
 49
0.1
 74
     4
 75
     0
340
0
 46
1.0
 50
0.0
 44
0.0
 45
0.0
 49
-0.3
 74
     4
 75
     0
340
0
 46
1.0
 50
0.0
 44
0.0
 45
0.0
  0
LTYPE
  5
EA
330
5
100
AcDbSymbolTableRecord
100
AcDbLinetypeTableRecord
  2
NEW_LINE3
 70
     0
  3

 72
    65
 73
     4
 40
1.2
 49
0.5
 74
     4
 75
     0
340
0
 46
1.0
 50
0.0
 44
0.0
 45
0.0
 49
-0.3
 74
     4
 75
     0
340
0
 46
1.0
 50
0.0
 44
0.0
 45
0.0
 49
0.1
 74
     4
 75
     0
340
0
 46
1.0
 50
0.0
 44
0.0
 45
0.0
 49
-0.3
 74
     4
 75
     0
340
0
 46
1.0
 50
0.0
 44
0.0
 45
0.0
  0
LTYPE
  5
EC
330
5
100
AcDbSymbolTableRecord
100
AcDbLinetypeTableRecord
  2
NEW_LINE4
 70
     0
  3

 72
    65
 73
     4
 40
1.2
 49
0.5
 74
     4
 75
     0
340
0
 46
1.0
 50
0.0
 44
0.0
 45
0.0
 49
-0.3
 74
     4
 75
     0
340
0
 46
1.0
 50
0.0
 44
0.0
 45
0.0
 49
0.1
 74
     4
 75
     0
340
0
 46
1.0
 50
0.0
 44
0.0
 45
0.0
 49
-0.3
 74
     4
 75
     0
340
0
 46
1.0
 50
0.0
 44
0.0
 45
0.0
  0
ENDTAB
  0
TABLE
  2
LAYER
  5
2
330
0
100
AcDbSymbolTable
 70
     2
  0
LAYER
  5
10
330
2
100
AcDbSymbolTableRecord
100
AcDbLayerTableRecord
  2
0
 70
     0
 62
     7
  6
CONTINUOUS
  0
LAYER
  5
40
330
2
100
AcDbSymbolTableRecord
100
AcDbLayerTableRecord
  2
DEFAULT_1
 70
     0
 62
     7
  6
CONTINUOUS
  0
ENDTAB
  0
TABLE
  2
STYLE
  5
3
330
0
100
AcDbSymbolTable
 70
     1
  0
STYLE
  5
11
330
3
100
AcDbSymbolTableRecord
100
AcDbTextStyleTableRecord
  2
STANDARD
 70
     0
 40
0.0
 41
1.0
 50
0.0
 71
     0
 42
0.2
  3
txt
  4

  0
ENDTAB
  0
TABLE
  2
VIEW
  5
6
330
0
100
AcDbSymbolTable
 70
     0
  0
ENDTAB
  0
TABLE
  2
UCS
  5
7
330
0
100
AcDbSymbolTable
 70
     0
  0
ENDTAB
  0
TABLE
  2
APPID
  5
9
330
0
100
AcDbSymbolTable
 70
     2
  0
APPID
  5
12
330
9
100
AcDbSymbolTableRecord
100
AcDbRegAppTableRecord
  2
ACAD
 70
     0
  0
APPID
  5
3F
330
9
100
AcDbSymbolTableRecord
100
AcDbRegAppTableRecord
  2
ODA
 70
     0
  0
ENDTAB
  0
TABLE
  2
DIMSTYLE
  5
A
330
0
100
AcDbSymbolTable
 70
     1
  0
DIMSTYLE
105
27
330
A
100
AcDbSymbolTableRecord
100
AcDbDimStyleTableRecord
  2
STANDARD
 70
     0
  3

  4

  5

  6

  7

 40
1.0
 41
0.18
 42
0.0625
 43
0.38
 44
0.18
 45
0.0
 46
0.0
 47
0.0
 48
0.0
140
0.18
141
0.09
142
0.0
143
25.4
144
1.0
145
0.0
146
1.0
147
0.09
 71
     0
 72
     0
 73
     1
 74
     1
 75
     0
 76
     0
 77
     0
 78
     0
170
     0
171
     2
172
     0
173
     0
174
     0
175
     0
176
     0
177
     0
178
     0
270
     2
271
     4
272
     4
273
     2
274
     2
340
11
275
     0
280
     0
281
     0
282
     0
283
     1
284
     0
285
     0
286
     0
287
     3
288
     0
  0
ENDTAB
  0
TABLE
  2
BLOCK_RECORD
  5
1
330
0
100
AcDbSymbolTable
 70
     1
  0
BLOCK_RECORD
  5
1F
330
1
100
AcDbSymbolTableRecord
100
AcDbBlockTableRecord
  2
*MODEL_SPACE
  0
BLOCK_RECORD
  5
1B
330
1
100
AcDbSymbolTableRecord
100
AcDbBlockTableRecord
  2
*PAPER_SPACE
  0
ENDTAB
  0
ENDSEC
  0
SECTION
  2
BLOCKS
  0
BLOCK
  5
20
330
1F
100
AcDbEntity
  8
0
100
AcDbBlockBegin
  2
*MODEL_SPACE
 70
     0
 10
0.0
 20
0.0
 30
0.0
  3
*MODEL_SPACE
  1

  0
ENDBLK
  5
21
330
1F
100
AcDbEntity
  8
0
100
AcDbBlockEnd
  0
BLOCK
  5
1C
330
1B
100
AcDbEntity
 67
     1
  8
0
100
AcDbBlockBegin
  2
*PAPER_SPACE
 70
     0
 10
0.0
 20
0.0
 30
0.0
  3
*PAPER_SPACE
  1

  0
ENDBLK
  5
1D
330
1B
100
AcDbEntity
 67
     1
  8
0
100
AcDbBlockEnd
  0
ENDSEC
  0
SECTION
  2
ENTITIES
  0
SPLINE
  5
41
330
1F
100
AcDbEntity
  8
DEFAULT_1
 62
   250
100
AcDbSpline
210
0.0
220
0.0
230
1.0
 70
    24
 71
     3
 72
     8
 73
     4
 74
     0
 42
0.0000000001
 43
0.0000000001
 40
0.0
 40
0.0
 40
0.0
 40
0.0
 40
1.0
 40
1.0
 40
1.0
 40
1.0
 10
-19.6504
 20
-7.278
 30
0.0
 10
-19.6504
 20
-7.278
 30
0.0
 10
-35.421
 20
-7.278
 30
0.0
 10
-35.421
 20
-7.278
 30
0.0
  0
SPLINE
  5
42
330
1F
100
AcDbEntity
  8
DEFAULT_1
 62
   250
100
AcDbSpline
210
0.0
220
0.0
230
1.0
 70
    24
 71
     3
 72
     8
 73
     4
 74
     0
 42
0.0000000001
 43
0.0000000001
 40
0.0
 40
0.0
 40
0.0
 40
0.0
 40
1.0
 40
1.0
 40
1.0
 40
1.0
 10
-31.7069
 20
25.7006
 30
0.0
 10
-31.7069
 20
25.7006
 30
0.0
 10
-35.421
 20
25.7006
 30
0.0
 10
-35.421
 20
25.7006
 30
0.0
  0
SPLINE
  5
43
330
1F
100
AcDbEntity
  8
DEFAULT_1
 62
   250
100
AcDbSpline
210
0.0
220
0.0
230
1.0
 70
    24
 71
     3
 72
     8
 73
     4
 74
     0
 42
0.0000000001
 43
0.0000000001
 40
0.0
 40
0.0
 40
0.0
 40
0.0
 40
1.0
 40
1.0
 40
1.0
 40
1.0
 10
-35.204
 20
25.7006
 30
0.0
 10
-35.204
 20
25.7006
 30
0.0
 10
-35.204
 20
-6.875
 30
0.0
 10
-35.204
 20
-6.875
 30
0.0
  0
SPLINE
  5
44
330
1F
100
AcDbEntity
  8
DEFAULT_1
 62
   250
100
AcDbSpline
210
0.0
220
0.0
230
1.0
 70
    24
 71
     3
 72
     8
 73
     4
 74
     0
 42
0.0000000001
 43
0.0000000001
 40
0.0
 40
0.0
 40
0.0
 40
0.0
 40
1.0
 40
1.0
 40
1.0
 40
1.0
 10
-31.273
 20
26.3198
 30
0.0
 10
-31.273
 20
26.3198
 30
0.0
 10
-31.273
 20
29.8289
 30
0.0
 10
-31.273
 20
29.8289
 30
0.0
  0
SPLINE
  5
45
330
1F
100
AcDbEntity
  8
DEFAULT_1
 62
   250
100
AcDbSpline
210
0.0
220
0.0
230
1.0
 70
    24
 71
     3
 72
     8
 73
     4
 74
     0
 42
0.0000000001
 43
0.0000000001
 40
0.0
 40
0.0
 40
0.0
 40
0.0
 40
1.0
 40
1.0
 40
1.0
 40
1.0
 10
-18.7975
 20
26.3198
 30
0.0
 10
-18.7975
 20
26.3198
 30
0.0
 10
-18.7975
 20
29.9446
 30
0.0
 10
-18.7975
 20
29.9446
 30
0.0
  0
SPLINE
  5
46
330
1F
100
AcDbEntity
  8
DEFAULT_1
 62
   250
100
AcDbSpline
210
0.0
220
0.0
230
1.0
 70
    24
 71
     3
 72
     8
 73
     4
 74
     0
 42
0.0000000001
 43
0.0000000001
 40
0.0
 40
0.0
 40
0.0
 40
0.0
 40
1.0
 40
1.0
 40
1.0
 40
1.0
 10
36.2572
 20
-2.136
 30
0.0
 10
36.2572
 20
-2.136
 30
0.0
 10
36.2572
 20
22.4625
 30
0.0
 10
36.2572
 20
22.4625
 30
0.0
  0
SPLINE
  5
47
330
1F
100
AcDbEntity
  8
DEFAULT_1
 62
   250
100
AcDbSpline
210
0.0
220
0.0
230
1.0
 70
    24
 71
     3
 72
     8
 73
     4
 74
     0
 42
0.0000000001
 43
0.0000000001
 40
0.0
 40
0.0
 40
0.0
 40
0.0
 40
1.0
 40
1.0
 40
1.0
 40
1.0
 10
-21.0757
 20
10.1788
 30
0.0
 10
-21.0757
 20
10.1788
 30
0.0
 10
-21.0757
 20
6.5263
 30
0.0
 10
-21.0757
 20
6.5263
 30
0.0
  0
SPLINE
  5
48
330
1F
100
AcDbEntity
  8
DEFAULT_1
 62
   250
100
AcDbSpline
210
0.0
220
0.0
230
1.0
 70
    24
 71
     3
 72
     8
 73
     4
 74
     0
 42
0.0000000001
 43
0.0000000001
 40
0.0
 40
0.0
 40
0.0
 40
0.0
 40
1.0
 40
1.0
 40
1.0
 40
1.0
 10
-14.2413
 20
10.1789
 30
0.0
 10
-14.2413
 20
10.1789
 30
0.0
 10
-14.2413
 20
6.5263
 30
0.0
 10
-14.2413
 20
6.5263
 30
0.0
  0
SPLINE
  5
49
330
1F
100
AcDbEntity
  8
DEFAULT_1
 62
   250
100
AcDbSpline
210
0.0
220
0.0
230
1.0
 70
    24
 71
     3
 72
     8
 73
     4
 74
     0
 42
0.0000000001
 43
0.0000000001
 40
0.0
 40
0.0
 40
0.0
 40
0.0
 40
1.0
 40
1.0
 40
1.0
 40
1.0
 10
-15.5973
 20
-31.7299
 30
0.0
 10
-15.5973
 20
-31.7299
 30
0.0
 10
-35.436
 20
-31.7299
 30
0.0
 10
-35.436
 20
-31.7299
 30
0.0
  0
SPLINE
  5
4A
330
1F
100
AcDbEntity
  8
DEFAULT_1
 62
   250
100
AcDbSpline
210
0.0
220
0.0
230
1.0
 70
    24
 71
     3
 72
     8
 73
     4
 74
     0
 42
0.0000000001
 43
0.0000000001
 40
0.0
 40
0.0
 40
0.0
 40
0.0
 40
1.0
 40
1.0
 40
1.0
 40
1.0
 10
-35.2191
 20
-31.7299
 30
0.0
 10
-35.2191
 20
-31.7299
 30
0.0
 10
-35.2191
 20
-8.0245
 30
0.0
 10
-35.2191
 20
-8.0245
 30
0.0
  0
SPLINE
  5
4B
330
1F
100
AcDbEntity
  8
DEFAULT_1
 62
   250
100
AcDbSpline
210
0.0
220
0.0
230
1.0
 70
    24
 71
     3
 72
     8
 73
     4
 74
     0
 42
0.0000000001
 43
0.0000000001
 40
0.0
 40
0.0
 40
0.0
 40
0.0
 40
1.0
 40
1.0
 40
1.0
 40
1.0
 10
-32.2493
 20
25.1582
 30
0.0
 10
-32.2493
 20
25.1582
 30
0.0
 10
-32.2493
 20
23.748
 30
0.0
 10
-32.2493
 20
23.748
 30
0.0
  0
SPLINE
  5
4C
330
1F
100
AcDbEntity
  8
DEFAULT_1
 62
   250
100
AcDbSpline
210
0.0
220
0.0
230
1.0
 70
    24
 71
     3
 72
     8
 73
     4
 74
     0
 42
0.0000000001
 43
0.0000000001
 40
0.0
 40
0.0
 40
0.0
 40
0.0
 40
1.0
 40
1.0
 40
1.0
 40
1.0
 10
-31.9781
 20
20.319
 30
0.0
 10
-31.9781
 20
20.319
 30
0.0
 10
-31.9781
 20
23.748
 30
0.0
 10
-31.9781
 20
23.748
 30
0.0
  0
SPLINE
  5
4D
330
1F
100
AcDbEntity
  8
DEFAULT_1
 62
   250
100
AcDbSpline
210
0.0
220
0.0
230
1.0
 70
    24
 71
     3
 72
     8
 73
     4
 74
     0
 42
0.0000000001
 43
0.0000000001
 40
0.0
 40
0.0
 40
0.0
 40
0.0
 40
1.0
 40
1.0
 40
1.0
 40
1.0
 10
-31.3272
 20
19.1917
 30
0.0
 10
-31.3272
 20
19.1917
 30
0.0
 10
-31.3272
 20
17.6135
 30
0.0
 10
-31.3272
 20
17.6135
 30
0.0
  0
SPLINE
  5
4E
330
1F
100
AcDbEntity
  8
DEFAULT_1
 62
   250
100
AcDbSpline
210
0.0
220
0.0
230
1.0
 70
    24
 71
     3
 72
     8
 73
     4
 74
     0
 42
0.0000000001
 43
0.0000000001
 40
0.0
 40
0.0
 40
0.0
 40
0.0
 40
1.0
 40
1.0
 40
1.0
 40
1.0
 10
-18.7433
 20
19.1917
 30
0.0
 10
-18.7433
 20
19.1917
 30
0.0
 10
-18.0924
 20
20.319
 30
0.0
 10
-18.0924
 20
20.319
 30
0.0
  0
SPLINE
  5
4F
330
1F
100
AcDbEntity
  8
DEFAULT_1
 62
   250
100
AcDbSpline
210
0.0
220
0.0
230
1.0
 70
    24
 71
     3
 72
     8
 73
     4
 74
     0
 42
0.0000000001
 43
0.0000000001
 40
0.0
 40
0.0
 40
0.0
 40
0.0
 40
1.0
 40
1.0
 40
1.0
 40
1.0
 10
-22.9741
 20
3.9188
 30
0.0
 10
-22.9741
 20
3.9188
 30
0.0
 10
-22.9741
 20
1.1836
 30
0.0
 10
-22.9741
 20
1.1836
 30
0.0
  0
SPLINE
  5
50
330
1F
100
AcDbEntity
  8
DEFAULT_1
 62
   250
100
AcDbSpline
210
0.0
220
0.0
230
1.0
 70
    24
 71
     3
 72
     8
 73
     4
 74
     0
 42
0.0000000001
 43
0.0000000001
 40
0.0
 40
0.0
 40
0.0
 40
0.0
 40
1.0
 40
1.0
 40
1.0
 40
1.0
 10
-22.6487
 20
-24.8677
 30
0.0
 10
-22.6487
 20
-24.8677
 30
0.0
 10
-22.6487
 20
-21.9665
 30
0.0
 10
-22.6487
 20
-21.9665
 30
0.0
  0
SPLINE
  5
51
330
1F
100
AcDbEntity
  8
DEFAULT_1
 62
   250
100
AcDbSpline
210
0.0
220
0.0
230
1.0
 70
    24
 71
     3
 72
     8
 73
     4
 74
     0
 42
0.0000000001
 43
0.0000000001
 40
0.0
 40
0.0
 40
0.0
 40
0.0
 40
1.0
 40
1.0
 40
1.0
 40
1.0
 10
-22.6487
 20
-22.0124
 30
0.0
 10
-22.6487
 20
-22.0124
 30
0.0
 10
-22.6487
 20
-21.4892
 30
0.0
 10
-22.6487
 20
-21.4892
 30
0.0
  0
SPLINE
  5
52
330
1F
100
AcDbEntity
  8
DEFAULT_1
 62
   250
100
AcDbSpline
210
0.0
220
0.0
230
1.0
 70
    24
 71
     3
 72
     8
 73
     4
 74
     0
 42
0.0000000001
 43
0.0000000001
 40
0.0
 40
0.0
 40
0.0
 40
0.0
 40
1.0
 40
1.0
 40
1.0
 40
1.0
 10
-22.2039
 20
0.3158
 30
0.0
 10
-22.2039
 20
0.3158
 30
0.0
 10
-22.2039
 20
1.1836
 30
0.0
 10
-22.2039
 20
1.1836
 30
0.0
  0
SPLINE
  5
53
330
1F
100
AcDbEntity
  8
DEFAULT_1
 62
   250
100
AcDbSpline
210
0.0
220
0.0
230
1.0
 70
    24
 71
     3
 72
     8
 73
     4
 74
     0
 42
0.0000000001
 43
0.0000000001
 40
0.0
 40
0.0
 40
0.0
 40
0.0
 40
1.0
 40
1.0
 40
1.0
 40
1.0
 10
-21.8893
 20
1.1836
 30
0.0
 10
-21.8893
 20
1.1836
 30
0.0
 10
-21.8893
 20
0.3158
 30
0.0
 10
-21.8893
 20
0.3158
 30
0.0
  0
SPLINE
  5
54
330
1F
100
AcDbEntity
  8
DEFAULT_1
 62
   250
100
AcDbSpline
210
0.0
220
0.0
230
1.0
 70
    24
 71
     3
 72
     8
 73
     4
 74
     0
 42
0.0000000001
 43
0.0000000001
 40
0.0
 40
0.0
 40
0.0
 40
0.0
 40
1.0
 40
1.0
 40
1.0
 40
1.0
 10
-21.8676
 20
-20.7298
 30
0.0
 10
-21.8676
 20
-20.7298
 30
0.0
 10
-21.8676
 20
-2.3963
 30
0.0
 10
-21.8676
 20
-2.3963
 30
0.0
  0
SPLINE
  5
55
330
1F
100
AcDbEntity
  8
DEFAULT_1
 62
   250
100
AcDbSpline
210
0.0
220
0.0
230
1.0
 70
    24
 71
     3
 72
     8
 73
     4
 74
     0
 42
0.0000000001
 43
0.0000000001
 40
0.0
 40
0.0
 40
0.0
 40
0.0
 40
1.0
 40
1.0
 40
1.0
 40
1.0
 10
-21.7115
 20
1.8345
 30
0.0
 10
-21.7115
 20
1.8345
 30
0.0
 10
-21.7115
 20
3.3533
 30
0.0
 10
-21.7115
 20
3.3533
 30
0.0
  0
SPLINE
  5
56
330
1F
100
AcDbEntity
  8
DEFAULT_1
 62
   250
100
AcDbSpline
210
0.0
220
0.0
230
1.0
 70
    24
 71
     3
 72
     8
 73
     4
 74
     0
 42
0.0000000001
 43
0.0000000001
 40
0.0
 40
0.0
 40
0.0
 40
0.0
 40
1.0
 40
1.0
 40
1.0
 40
1.0
 10
-21.5638
 20
-1.9092
 30
0.0
 10
-21.5638
 20
-1.9092
 30
0.0
 10
-21.5638
 20
0.3158
 30
0.0
 10
-21.5638
 20
0.3158
 30
0.0
  0
SPLINE
  5
57
330
1F
100
AcDbEntity
  8
DEFAULT_1
 62
   250
100
AcDbSpline
210
0.0
220
0.0
230
1.0
 70
    24
 71
     3
 72
     8
 73
     4
 74
     0
 42
0.0000000001
 43
0.0000000001
 40
0.0
 40
0.0
 40
0.0
 40
0.0
 40
1.0
 40
1.0
 40
1.0
 40
1.0
 10
-21.0978
 20
1.8345
 30
0.0
 10
-21.0978
 20
1.8345
 30
0.0
 10
-21.0978
 20
3.3533
 30
0.0
 10
-21.0978
 20
3.3533
 30
0.0
  0
SPLINE
  5
58
330
1F
100
AcDbEntity
  8
DEFAULT_1
 62
   250
100
AcDbSpline
210
0.0
220
0.0
230
1.0
 70
    24
 71
     3
 72
     8
 73
     4
 74
     0
 42
0.0000000001
 43
0.0000000001
 40
0.0
 40
0.0
 40
0.0
 40
0.0
 40
1.0
 40
1.0
 40
1.0
 40
1.0
 10
-21.0757
 20
4.2211
 30
0.0
 10
-21.0757
 20
4.2211
 30
0.0
 10
-21.0757
 20
10.1788
 30
0.0
 10
-21.0757
 20
10.1788
 30
0.0
  0
SPLINE
  5
59
330
1F
100
AcDbEntity
  8
DEFAULT_1
 62
   250
100
AcDbSpline
210
0.0
220
0.0
230
1.0
 70
    24
 71
     3
 72
     8
 73
     4
 74
     0
 42
0.0000000001
 43
0.0000000001
 40
0.0
 40
0.0
 40
0.0
 40
0.0
 40
1.0
 40
1.0
 40
1.0
 40
1.0
 10
-20.8807
 20
-22.6174
 30
0.0
 10
-20.8807
 20
-22.6174
 30
0.0
 10
-20.8807
 20
-24.3531
 30
0.0
 10
-20.8807
 20
-24.3531
 30
0.0
  0
SPLINE
  5
5A
330
1F
100
AcDbEntity
  8
DEFAULT_1
 62
   250
100
AcDbSpline
210
0.0
220
0.0
230
1.0
 70
    24
 71
     3
 72
     8
 73
     4
 74
     0
 42
0.0000000001
 43
0.0000000001
 40
0.0
 40
0.0
 40
0.0
 40
0.0
 40
1.0
 40
1.0
 40
1.0
 40
1.0
 10
-20.2671
 20
-22.6174
 30
0.0
 10
-20.2671
 20
-22.6174
 30
0.0
 10
-20.2671
 20
-24.3531
 30
0.0
 10
-20.2671
 20
-24.3531
 30
0.0
  0
SPLINE
  5
5B
330
1F
100
AcDbEntity
  8
DEFAULT_1
 62
   250
100
AcDbSpline
210
0.0
220
0.0
230
1.0
 70
    24
 71
     3
 72
     8
 73
     4
 74
     0
 42
0.0000000001
 43
0.0000000001
 40
0.0
 40
0.0
 40
0.0
 40
0.0
 40
1.0
 40
1.0
 40
1.0
 40
1.0
 10
-18.7433
 20
19.1917
 30
0.0
 10
-18.7433
 20
19.1917
 30
0.0
 10
-18.7433
 20
17.6344
 30
0.0
 10
-18.7433
 20
17.6344
 30
0.0
  0
SPLINE
  5
5C
330
1F
100
AcDbEntity
  8
DEFAULT_1
 62
   250
100
AcDbSpline
210
0.0
220
0.0
230
1.0
 70
    24
 71
     3
 72
     8
 73
     4
 74
     0
 42
0.0000000001
 43
0.0000000001
 40
0.0
 40
0.0
 40
0.0
 40
0.0
 40
1.0
 40
1.0
 40
1.0
 40
1.0
 10
-22.1925
 20
-25.2123
 30
0.0
 10
-22.1925
 20
-25.2123
 30
0.0
 10
-9.0022
 20
-25.2123
 30
0.0
 10
-9.0022
 20
-25.2123
 30
0.0
  0
SPLINE
  5
5D
330
1F
100
AcDbEntity
  8
DEFAULT_1
 62
   250
100
AcDbSpline
210
0.0
220
0.0
230
1.0
 70
    24
 71
     3
 72
     8
 73
     4
 74
     0
 42
0.0000000001
 43
0.0000000001
 40
0.0
 40
0.0
 40
0.0
 40
0.0
 40
1.0
 40
1.0
 40
1.0
 40
1.0
 10
-18.0924
 20
1.8345
 30
0.0
 10
-18.0924
 20
1.8345
 30
0.0
 10
-18.0924
 20
3.3533
 30
0.0
 10
-18.0924
 20
3.3533
 30
0.0
  0
SPLINE
  5
5E
330
1F
100
AcDbEntity
  8
DEFAULT_1
 62
   250
100
AcDbSpline
210
0.0
220
0.0
230
1.0
 70
    24
 71
     3
 72
     8
 73
     4
 74
     0
 42
0.0000000001
 43
0.0000000001
 40
0.0
 40
0.0
 40
0.0
 40
0.0
 40
1.0
 40
1.0
 40
1.0
 40
1.0
 10
-18.0924
 20
20.319
 30
0.0
 10
-18.0924
 20
20.319
 30
0.0
 10
-18.0924
 20
23.748
 30
0.0
 10
-18.0924
 20
23.748
 30
0.0
  0
SPLINE
  5
5F
330
1F
100
AcDbEntity
  8
DEFAULT_1
 62
   250
100
AcDbSpline
210
0.0
220
0.0
230
1.0
 70
    24
 71
     3
 72
     8
 73
     4
 74
     0
 42
0.0000000001
 43
0.0000000001
 40
0.0
 40
0.0
 40
0.0
 40
0.0
 40
1.0
 40
1.0
 40
1.0
 40
1.0
 10
-17.8212
 20
25.1582
 30
0.0
 10
-17.8212
 20
25.1582
 30
0.0
 10
-17.8212
 20
23.748
 30
0.0
 10
-17.8212
 20
23.748
 30
0.0
  0
SPLINE
  5
60
330
1F
100
AcDbEntity
  8
DEFAULT_1
 62
   250
100
AcDbSpline
210
0.0
220
0.0
230
1.0
 70
    24
 71
     3
 72
     8
 73
     4
 74
     0
 42
0.0000000001
 43
0.0000000001
 40
0.0
 40
0.0
 40
0.0
 40
0.0
 40
1.0
 40
1.0
 40
1.0
 40
1.0
 10
-17.2245
 20
1.8345
 30
0.0
 10
-17.2245
 20
1.8345
 30
0.0
 10
-17.2245
 20
3.3533
 30
0.0
 10
-17.2245
 20
3.3533
 30
0.0
  0
SPLINE
  5
61
330
1F
100
AcDbEntity
  8
DEFAULT_1
 62
   250
100
AcDbSpline
210
0.0
220
0.0
230
1.0
 70
    24
 71
     3
 72
     8
 73
     4
 74
     0
 42
0.0000000001
 43
0.0000000001
 40
0.0
 40
0.0
 40
0.0
 40
0.0
 40
1.0
 40
1.0
 40
1.0
 40
1.0
 10
-16.0312
 20
-22.6174
 30
0.0
 10
-16.0312
 20
-22.6174
 30
0.0
 10
-16.0312
 20
-24.3531
 30
0.0
 10
-16.0312
 20
-24.3531
 30
0.0
  0
SPLINE
  5
62
330
1F
100
AcDbEntity
  8
DEFAULT_1
 62
   250
100
AcDbSpline
210
0.0
220
0.0
230
1.0
 70
    24
 71
     3
 72
     8
 73
     4
 74
     0
 42
0.0000000001
 43
0.0000000001
 40
0.0
 40
0.0
 40
0.0
 40
0.0
 40
1.0
 40
1.0
 40
1.0
 40
1.0
 10
-8.5593
 20
-22.6174
 30
0.0
 10
-8.5593
 20
-22.6174
 30
0.0
 10
-10.3139
 20
-22.6174
 30
0.0
 10
-10.3139
 20
-22.6174
 30
0.0
  0
SPLINE
  5
63
330
1F
100
AcDbEntity
  8
DEFAULT_1
 62
   250
100
AcDbSpline
210
0.0
220
0.0
230
1.0
 70
    24
 71
     3
 72
     8
 73
     4
 74
     0
 42
0.0000000001
 43
0.0000000001
 40
0.0
 40
0.0
 40
0.0
 40
0.0
 40
1.0
 40
1.0
 40
1.0
 40
1.0
 10
-10.9275
 20
-22.6174
 30
0.0
 10
-10.9275
 20
-22.6174
 30
0.0
 10
-15.1634
 20
-22.6174
 30
0.0
 10
-15.1634
 20
-22.6174
 30
0.0
  0
SPLINE
  5
64
330
1F
100
AcDbEntity
  8
DEFAULT_1
 62
   250
100
AcDbSpline
210
0.0
220
0.0
230
1.0
 70
    24
 71
     3
 72
     8
 73
     4
 74
     0
 42
0.0000000001
 43
0.0000000001
 40
0.0
 40
0.0
 40
0.0
 40
0.0
 40
1.0
 40
1.0
 40
1.0
 40
1.0
 10
-16.0312
 20
-22.6174
 30
0.0
 10
-16.0312
 20
-22.6174
 30
0.0
 10
-20.2671
 20
-22.6174
 30
0.0
 10
-20.2671
 20
-22.6174
 30
0.0
  0
SPLINE
  5
65
330
1F
100
AcDbEntity
  8
DEFAULT_1
 62
   250
100
AcDbSpline
210
0.0
220
0.0
230
1.0
 70
    24
 71
     3
 72
     8
 73
     4
 74
     0
 42
0.0000000001
 43
0.0000000001
 40
0.0
 40
0.0
 40
0.0
 40
0.0
 40
1.0
 40
1.0
 40
1.0
 40
1.0
 10
-20.8807
 20
-22.6174
 30
0.0
 10
-20.8807
 20
-22.6174
 30
0.0
 10
-22.6353
 20
-22.6174
 30
0.0
 10
-22.6353
 20
-22.6174
 30
0.0
  0
SPLINE
  5
66
330
1F
100
AcDbEntity
  8
DEFAULT_1
 62
   250
100
AcDbSpline
210
0.0
220
0.0
230
1.0
 70
    24
 71
     3
 72
     8
 73
     4
 74
     0
 42
0.0000000001
 43
0.0000000001
 40
0.0
 40
0.0
 40
0.0
 40
0.0
 40
1.0
 40
1.0
 40
1.0
 40
1.0
 10
-8.546
 20
-21.9665
 30
0.0
 10
-8.546
 20
-21.9665
 30
0.0
 10
-22.6487
 20
-21.9665
 30
0.0
 10
-22.6487
 20
-21.9665
 30
0.0
  0
SPLINE
  5
67
330
1F
100
AcDbEntity
  8
DEFAULT_1
 62
   250
100
AcDbSpline
210
0.0
220
0.0
230
1.0
 70
    24
 71
     3
 72
     8
 73
     4
 74
     0
 42
0.0000000001
 43
0.0000000001
 40
0.0
 40
0.0
 40
0.0
 40
0.0
 40
1.0
 40
1.0
 40
1.0
 40
1.0
 10
-22.2147
 20
-21.0552
 30
0.0
 10
-22.2147
 20
-21.0552
 30
0.0
 10
-8.9799
 20
-21.0552
 30
0.0
 10
-8.9799
 20
-21.0552
 30
0.0
  0
SPLINE
  5
68
330
1F
100
AcDbEntity
  8
DEFAULT_1
 62
   250
100
AcDbSpline
210
0.0
220
0.0
230
1.0
 70
    24
 71
     3
 72
     8
 73
     4
 74
     0
 42
0.0000000001
 43
0.0000000001
 40
0.0
 40
0.0
 40
0.0
 40
0.0
 40
1.0
 40
1.0
 40
1.0
 40
1.0
 10
-31.3272
 20
19.1917
 30
0.0
 10
-31.3272
 20
19.1917
 30
0.0
 10
-31.9781
 20
20.319
 30
0.0
 10
-31.9781
 20
20.319
 30
0.0
  0
SPLINE
  5
69
330
1F
100
AcDbEntity
  8
DEFAULT_1
 62
   250
100
AcDbSpline
210
0.0
220
0.0
230
1.0
 70
    24
 71
     3
 72
     8
 73
     4
 74
     0
 42
0.0000000001
 43
0.0000000001
 40
0.0
 40
0.0
 40
0.0
 40
0.0
 40
1.0
 40
1.0
 40
1.0
 40
1.0
 10
-15.1634
 20
-22.6174
 30
0.0
 10
-15.1634
 20
-22.6174
 30
0.0
 10
-15.1634
 20
-24.3531
 30
0.0
 10
-15.1634
 20
-24.3531
 30
0.0
  0
SPLINE
  5
6A
330
1F
100
AcDbEntity
  8
DEFAULT_1
 62
   250
100
AcDbSpline
210
0.0
220
0.0
230
1.0
 70
    24
 71
     3
 72
     8
 73
     4
 74
     0
 42
0.0000000001
 43
0.0000000001
 40
0.0
 40
0.0
 40
0.0
 40
0.0
 40
1.0
 40
1.0
 40
1.0
 40
1.0
 10
-14.2413
 20
4.2211
 30
0.0
 10
-14.2413
 20
4.2211
 30
0.0
 10
-14.2413
 20
10.1788
 30
0.0
 10
-14.2413
 20
10.1788
 30
0.0
  0
SPLINE
  5
6B
330
1F
100
AcDbEntity
  8
DEFAULT_1
 62
   250
100
AcDbSpline
210
0.0
220
0.0
230
1.0
 70
    24
 71
     3
 72
     8
 73
     4
 74
     0
 42
0.0000000001
 43
0.0000000001
 40
0.0
 40
0.0
 40
0.0
 40
0.0
 40
1.0
 40
1.0
 40
1.0
 40
1.0
 10
-14.2192
 20
1.8345
 30
0.0
 10
-14.2192
 20
1.8345
 30
0.0
 10
-14.2192
 20
3.3533
 30
0.0
 10
-14.2192
 20
3.3533
 30
0.0
  0
SPLINE
  5
6C
330
1F
100
AcDbEntity
  8
DEFAULT_1
 62
   250
100
AcDbSpline
210
0.0
220
0.0
230
1.0
 70
    24
 71
     3
 72
     8
 73
     4
 74
     0
 42
0.0000000001
 43
0.0000000001
 40
0.0
 40
0.0
 40
0.0
 40
0.0
 40
1.0
 40
1.0
 40
1.0
 40
1.0
 10
-13.7531
 20
-1.4691
 30
0.0
 10
-13.7531
 20
-1.4691
 30
0.0
 10
-13.7531
 20
0.3158
 30
0.0
 10
-13.7531
 20
0.3158
 30
0.0
  0
SPLINE
  5
6D
330
1F
100
AcDbEntity
  8
DEFAULT_1
 62
   250
100
AcDbSpline
210
0.0
220
0.0
230
1.0
 70
    24
 71
     3
 72
     8
 73
     4
 74
     0
 42
0.0000000001
 43
0.0000000001
 40
0.0
 40
0.0
 40
0.0
 40
0.0
 40
1.0
 40
1.0
 40
1.0
 40
1.0
 10
-13.6054
 20
1.8345
 30
0.0
 10
-13.6054
 20
1.8345
 30
0.0
 10
-13.6054
 20
3.3533
 30
0.0
 10
-13.6054
 20
3.3533
 30
0.0
  0
SPLINE
  5
6E
330
1F
100
AcDbEntity
  8
DEFAULT_1
 62
   250
100
AcDbSpline
210
0.0
220
0.0
230
1.0
 70
    24
 71
     3
 72
     8
 73
     4
 74
     0
 42
0.0000000001
 43
0.0000000001
 40
0.0
 40
0.0
 40
0.0
 40
0.0
 40
1.0
 40
1.0
 40
1.0
 40
1.0
 10
-13.4277
 20
1.1836
 30
0.0
 10
-13.4277
 20
1.1836
 30
0.0
 10
-13.4277
 20
0.3158
 30
0.0
 10
-13.4277
 20
0.3158
 30
0.0
  0
SPLINE
  5
6F
330
1F
100
AcDbEntity
  8
DEFAULT_1
 62
   250
100
AcDbSpline
210
0.0
220
0.0
230
1.0
 70
    24
 71
     3
 72
     8
 73
     4
 74
     0
 42
0.0000000001
 43
0.0000000001
 40
0.0
 40
0.0
 40
0.0
 40
0.0
 40
1.0
 40
1.0
 40
1.0
 40
1.0
 10
-13.1131
 20
0.3158
 30
0.0
 10
-13.1131
 20
0.3158
 30
0.0
 10
-13.1131
 20
1.1836
 30
0.0
 10
-13.1131
 20
1.1836
 30
0.0
  0
SPLINE
  5
70
330
1F
100
AcDbEntity
  8
DEFAULT_1
 62
   250
100
AcDbSpline
210
0.0
220
0.0
230
1.0
 70
    24
 71
     3
 72
     8
 73
     4
 74
     0
 42
0.0000000001
 43
0.0000000001
 40
0.0
 40
0.0
 40
0.0
 40
0.0
 40
1.0
 40
1.0
 40
1.0
 40
1.0
 10
-12.3428
 20
3.9188
 30
0.0
 10
-12.3428
 20
3.9188
 30
0.0
 10
-12.3428
 20
1.1836
 30
0.0
 10
-12.3428
 20
1.1836
 30
0.0
  0
SPLINE
  5
71
330
1F
100
AcDbEntity
  8
DEFAULT_1
 62
   250
100
AcDbSpline
210
0.0
220
0.0
230
1.0
 70
    24
 71
     3
 72
     8
 73
     4
 74
     0
 42
0.0000000001
 43
0.0000000001
 40
0.0
 40
0.0
 40
0.0
 40
0.0
 40
1.0
 40
1.0
 40
1.0
 40
1.0
 10
-10.9275
 20
-22.6174
 30
0.0
 10
-10.9275
 20
-22.6174
 30
0.0
 10
-10.9275
 20
-24.3531
 30
0.0
 10
-10.9275
 20
-24.3531
 30
0.0
  0
SPLINE
  5
72
330
1F
100
AcDbEntity
  8
DEFAULT_1
 62
   250
100
AcDbSpline
210
0.0
220
0.0
230
1.0
 70
    24
 71
     3
 72
     8
 73
     4
 74
     0
 42
0.0000000001
 43
0.0000000001
 40
0.0
 40
0.0
 40
0.0
 40
0.0
 40
1.0
 40
1.0
 40
1.0
 40
1.0
 10
-10.3139
 20
-22.6174
 30
0.0
 10
-10.3139
 20
-22.6174
 30
0.0
 10
-10.3139
 20
-24.3531
 30
0.0
 10
-10.3139
 20
-24.3531
 30
0.0
  0
SPLINE
  5
73
330
1F
100
AcDbEntity
  8
DEFAULT_1
 62
   250
100
AcDbSpline
210
0.0
220
0.0
230
1.0
 70
    24
 71
     3
 72
     8
 73
     4
 74
     0
 42
0.0000000001
 43
0.0000000001
 40
0.0
 40
0.0
 40
0.0
 40
0.0
 40
1.0
 40
1.0
 40
1.0
 40
1.0
 10
24.975
 20
-15.0887
 30
0.0
 10
24.975
 20
-15.0887
 30
0.0
 10
26.9277
 20
-15.0887
 30
0.0
 10
26.9277
 20
-15.0887
 30
0.0
  0
SPLINE
  5
74
330
1F
100
AcDbEntity
  8
DEFAULT_1
 62
   250
100
AcDbSpline
210
0.0
220
0.0
230
1.0
 70
    24
 71
     3
 72
     8
 73
     4
 74
     0
 42
0.0000000001
 43
0.0000000001
 40
0.0
 40
0.0
 40
0.0
 40
0.0
 40
1.0
 40
1.0
 40
1.0
 40
1.0
 10
-9.327
 20
-20.7298
 30
0.0
 10
-9.327
 20
-20.7298
 30
0.0
 10
-9.327
 20
-12.0729
 30
0.0
 10
-9.327
 20
-12.0729
 30
0.0
  0
SPLINE
  5
75
330
1F
100
AcDbEntity
  8
DEFAULT_1
 62
   250
100
AcDbSpline
210
0.0
220
0.0
230
1.0
 70
    24
 71
     3
 72
     8
 73
     4
 74
     0
 42
0.0000000001
 43
0.0000000001
 40
0.0
 40
0.0
 40
0.0
 40
0.0
 40
1.0
 40
1.0
 40
1.0
 40
1.0
 10
-9.327
 20
-2.4831
 30
0.0
 10
-9.327
 20
-2.4831
 30
0.0
 10
-9.327
 20
-2.3963
 30
0.0
 10
-9.327
 20
-2.3963
 30
0.0
  0
SPLINE
  5
76
330
1F
100
AcDbEntity
  8
DEFAULT_1
 62
   250
100
AcDbSpline
210
0.0
220
0.0
230
1.0
 70
    24
 71
     3
 72
     8
 73
     4
 74
     0
 42
0.0000000001
 43
0.0000000001
 40
0.0
 40
0.0
 40
0.0
 40
0.0
 40
1.0
 40
1.0
 40
1.0
 40
1.0
 10
-8.546
 20
-24.8821
 30
0.0
 10
-8.546
 20
-24.8821
 30
0.0
 10
-8.546
 20
-21.9665
 30
0.0
 10
-8.546
 20
-21.9665
 30
0.0
  0
SPLINE
  5
77
330
1F
100
AcDbEntity
  8
DEFAULT_1
 62
   250
100
AcDbSpline
210
0.0
220
0.0
230
1.0
 70
    24
 71
     3
 72
     8
 73
     4
 74
     0
 42
0.0000000001
 43
0.0000000001
 40
0.0
 40
0.0
 40
0.0
 40
0.0
 40
1.0
 40
1.0
 40
1.0
 40
1.0
 10
-8.5459
 20
-22.0255
 30
0.0
 10
-8.5459
 20
-22.0255
 30
0.0
 10
-8.5459
 20
-21.4892
 30
0.0
 10
-8.5459
 20
-21.4892
 30
0.0
  0
SPLINE
  5
78
330
1F
100
AcDbEntity
  8
DEFAULT_1
 62
   250
100
AcDbSpline
210
0.0
220
0.0
230
1.0
 70
    24
 71
     3
 72
     8
 73
     4
 74
     0
 42
0.0000000001
 43
0.0000000001
 40
0.0
 40
0.0
 40
0.0
 40
0.0
 40
1.0
 40
1.0
 40
1.0
 40
1.0
 10
-7.5696
 20
-1.3115
 30
0.0
 10
-7.5696
 20
-1.3115
 30
0.0
 10
-7.5696
 20
-13.2445
 30
0.0
 10
-7.5696
 20
-13.2445
 30
0.0
  0
SPLINE
  5
79
330
1F
100
AcDbEntity
  8
DEFAULT_1
 62
   250
100
AcDbSpline
210
0.0
220
0.0
230
1.0
 70
    24
 71
     3
 72
     8
 73
     4
 74
     0
 42
0.0000000001
 43
0.0000000001
 40
0.0
 40
0.0
 40
0.0
 40
0.0
 40
1.0
 40
1.0
 40
1.0
 40
1.0
 10
-6.9187
 20
-1.3273
 30
0.0
 10
-6.9187
 20
-1.3273
 30
0.0
 10
-6.9187
 20
-2.7634
 30
0.0
 10
-6.9187
 20
-2.7634
 30
0.0
  0
SPLINE
  5
7A
330
1F
100
AcDbEntity
  8
DEFAULT_1
 62
   250
100
AcDbSpline
210
0.0
220
0.0
230
1.0
 70
    24
 71
     3
 72
     8
 73
     4
 74
     0
 42
0.0000000001
 43
0.0000000001
 40
0.0
 40
0.0
 40
0.0
 40
0.0
 40
1.0
 40
1.0
 40
1.0
 40
1.0
 10
-6.9187
 20
-3.3771
 30
0.0
 10
-6.9187
 20
-3.3771
 30
0.0
 10
-6.9187
 20
-6.844
 30
0.0
 10
-6.9187
 20
-6.844
 30
0.0
  0
SPLINE
  5
7B
330
1F
100
AcDbEntity
  8
DEFAULT_1
 62
   250
100
AcDbSpline
210
0.0
220
0.0
230
1.0
 70
    24
 71
     3
 72
     8
 73
     4
 74
     0
 42
0.0000000001
 43
0.0000000001
 40
0.0
 40
0.0
 40
0.0
 40
0.0
 40
1.0
 40
1.0
 40
1.0
 40
1.0
 10
-6.9187
 20
-7.7119
 30
0.0
 10
-6.9187
 20
-7.7119
 30
0.0
 10
-6.9187
 20
-11.1789
 30
0.0
 10
-6.9187
 20
-11.1789
 30
0.0
  0
SPLINE
  5
7C
330
1F
100
AcDbEntity
  8
DEFAULT_1
 62
   250
100
AcDbSpline
210
0.0
220
0.0
230
1.0
 70
    24
 71
     3
 72
     8
 73
     4
 74
     0
 42
0.0000000001
 43
0.0000000001
 40
0.0
 40
0.0
 40
0.0
 40
0.0
 40
1.0
 40
1.0
 40
1.0
 40
1.0
 10
-6.9187
 20
-11.7926
 30
0.0
 10
-6.9187
 20
-11.7926
 30
0.0
 10
-6.9187
 20
-13.2287
 30
0.0
 10
-6.9187
 20
-13.2287
 30
0.0
  0
SPLINE
  5
7D
330
1F
100
AcDbEntity
  8
DEFAULT_1
 62
   250
100
AcDbSpline
210
0.0
220
0.0
230
1.0
 70
    24
 71
     3
 72
     8
 73
     4
 74
     0
 42
0.0000000001
 43
0.0000000001
 40
0.0
 40
0.0
 40
0.0
 40
0.0
 40
1.0
 40
1.0
 40
1.0
 40
1.0
 10
-4.7181
 20
-13.2445
 30
0.0
 10
-4.7181
 20
-13.2445
 30
0.0
 10
-7.5696
 20
-13.2445
 30
0.0
 10
-7.5696
 20
-13.2445
 30
0.0
  0
SPLINE
  5
7E
330
1F
100
AcDbEntity
  8
DEFAULT_1
 62
   250
100
AcDbSpline
210
0.0
220
0.0
230
1.0
 70
    24
 71
     3
 72
     8
 73
     4
 74
     0
 42
0.0000000001
 43
0.0000000001
 40
0.0
 40
0.0
 40
0.0
 40
0.0
 40
1.0
 40
1.0
 40
1.0
 40
1.0
 10
-4.5321
 20
-13.136
 30
0.0
 10
-4.5321
 20
-13.136
 30
0.0
 10
-4.966
 20
-13.136
 30
0.0
 10
-4.966
 20
-13.136
 30
0.0
  0
SPLINE
  5
7F
330
1F
100
AcDbEntity
  8
DEFAULT_1
 62
   250
100
AcDbSpline
210
0.0
220
0.0
230
1.0
 70
    24
 71
     3
 72
     8
 73
     4
 74
     0
 42
0.0000000001
 43
0.0000000001
 40
0.0
 40
0.0
 40
0.0
 40
0.0
 40
1.0
 40
1.0
 40
1.0
 40
1.0
 10
-9.327
 20
-12.0729
 30
0.0
 10
-9.327
 20
-12.0729
 30
0.0
 10
-7.5033
 20
-12.0729
 30
0.0
 10
-7.5033
 20
-12.0729
 30
0.0
  0
SPLINE
  5
80
330
1F
100
AcDbEntity
  8
DEFAULT_1
 62
   250
100
AcDbSpline
210
0.0
220
0.0
230
1.0
 70
    24
 71
     3
 72
     8
 73
     4
 74
     0
 42
0.0000000001
 43
0.0000000001
 40
0.0
 40
0.0
 40
0.0
 40
0.0
 40
1.0
 40
1.0
 40
1.0
 40
1.0
 10
-6.9187
 20
-11.7926
 30
0.0
 10
-6.9187
 20
-11.7926
 30
0.0
 10
-5.4
 20
-11.7926
 30
0.0
 10
-5.4
 20
-11.7926
 30
0.0
  0
SPLINE
  5
81
330
1F
100
AcDbEntity
  8
DEFAULT_1
 62
   250
100
AcDbSpline
210
0.0
220
0.0
230
1.0
 70
    24
 71
     3
 72
     8
 73
     4
 74
     0
 42
0.0000000001
 43
0.0000000001
 40
0.0
 40
0.0
 40
0.0
 40
0.0
 40
1.0
 40
1.0
 40
1.0
 40
1.0
 10
36.2572
 20
-11.6173
 30
0.0
 10
36.2572
 20
-11.6173
 30
0.0
 10
27.5786
 20
-11.6173
 30
0.0
 10
27.5786
 20
-11.6173
 30
0.0
  0
SPLINE
  5
82
330
1F
100
AcDbEntity
  8
DEFAULT_1
 62
   250
100
AcDbSpline
210
0.0
220
0.0
230
1.0
 70
    24
 71
     3
 72
     8
 73
     4
 74
     0
 42
0.0000000001
 43
0.0000000001
 40
0.0
 40
0.0
 40
0.0
 40
0.0
 40
1.0
 40
1.0
 40
1.0
 40
1.0
 10
21.9375
 20
-11.6173
 30
0.0
 10
21.9375
 20
-11.6173
 30
0.0
 10
-4.0982
 20
-11.6173
 30
0.0
 10
-4.0982
 20
-11.6173
 30
0.0
  0
SPLINE
  5
83
330
1F
100
AcDbEntity
  8
DEFAULT_1
 62
   250
100
AcDbSpline
210
0.0
220
0.0
230
1.0
 70
    24
 71
     3
 72
     8
 73
     4
 74
     0
 42
0.0000000001
 43
0.0000000001
 40
0.0
 40
0.0
 40
0.0
 40
0.0
 40
1.0
 40
1.0
 40
1.0
 40
1.0
 10
-4.0982
 20
-12.7021
 30
0.0
 10
-4.0982
 20
-12.7021
 30
0.0
 10
-4.0982
 20
-1.8539
 30
0.0
 10
-4.0982
 20
-1.8539
 30
0.0
  0
SPLINE
  5
84
330
1F
100
AcDbEntity
  8
DEFAULT_1
 62
   250
100
AcDbSpline
210
0.0
220
0.0
230
1.0
 70
    24
 71
     3
 72
     8
 73
     4
 74
     0
 42
0.0000000001
 43
0.0000000001
 40
0.0
 40
0.0
 40
0.0
 40
0.0
 40
1.0
 40
1.0
 40
1.0
 40
1.0
 10
-6.9187
 20
-11.1789
 30
0.0
 10
-6.9187
 20
-11.1789
 30
0.0
 10
-5.4
 20
-11.1789
 30
0.0
 10
-5.4
 20
-11.1789
 30
0.0
  0
SPLINE
  5
85
330
1F
100
AcDbEntity
  8
DEFAULT_1
 62
   250
100
AcDbSpline
210
0.0
220
0.0
230
1.0
 70
    24
 71
     3
 72
     8
 73
     4
 74
     0
 42
0.0000000001
 43
0.0000000001
 40
0.0
 40
0.0
 40
0.0
 40
0.0
 40
1.0
 40
1.0
 40
1.0
 40
1.0
 10
-6.9187
 20
-7.7119
 30
0.0
 10
-6.9187
 20
-7.7119
 30
0.0
 10
-5.4
 20
-7.7119
 30
0.0
 10
-5.4
 20
-7.7119
 30
0.0
  0
SPLINE
  5
86
330
1F
100
AcDbEntity
  8
DEFAULT_1
 62
   250
100
AcDbSpline
210
0.0
220
0.0
230
1.0
 70
    24
 71
     3
 72
     8
 73
     4
 74
     0
 42
0.0000000001
 43
0.0000000001
 40
0.0
 40
0.0
 40
0.0
 40
0.0
 40
1.0
 40
1.0
 40
1.0
 40
1.0
 10
-6.9187
 20
-6.844
 30
0.0
 10
-6.9187
 20
-6.844
 30
0.0
 10
-5.4
 20
-6.844
 30
0.0
 10
-5.4
 20
-6.844
 30
0.0
  0
SPLINE
  5
87
330
1F
100
AcDbEntity
  8
DEFAULT_1
 62
   250
100
AcDbSpline
210
0.0
220
0.0
230
1.0
 70
    24
 71
     3
 72
     8
 73
     4
 74
     0
 42
0.0000000001
 43
0.0000000001
 40
0.0
 40
0.0
 40
0.0
 40
0.0
 40
1.0
 40
1.0
 40
1.0
 40
1.0
 10
-6.9187
 20
-3.3771
 30
0.0
 10
-6.9187
 20
-3.3771
 30
0.0
 10
-5.4
 20
-3.3771
 30
0.0
 10
-5.4
 20
-3.3771
 30
0.0
  0
SPLINE
  5
88
330
1F
100
AcDbEntity
  8
DEFAULT_1
 62
   250
100
AcDbSpline
210
0.0
220
0.0
230
1.0
 70
    24
 71
     3
 72
     8
 73
     4
 74
     0
 42
0.0000000001
 43
0.0000000001
 40
0.0
 40
0.0
 40
0.0
 40
0.0
 40
1.0
 40
1.0
 40
1.0
 40
1.0
 10
36.2572
 20
-2.9387
 30
0.0
 10
36.2572
 20
-2.9387
 30
0.0
 10
27.5786
 20
-2.9387
 30
0.0
 10
27.5786
 20
-2.9387
 30
0.0
  0
SPLINE
  5
89
330
1F
100
AcDbEntity
  8
DEFAULT_1
 62
   250
100
AcDbSpline
210
0.0
220
0.0
230
1.0
 70
    24
 71
     3
 72
     8
 73
     4
 74
     0
 42
0.0000000001
 43
0.0000000001
 40
0.0
 40
0.0
 40
0.0
 40
0.0
 40
1.0
 40
1.0
 40
1.0
 40
1.0
 10
21.9375
 20
-2.9387
 30
0.0
 10
21.9375
 20
-2.9387
 30
0.0
 10
-4.0982
 20
-2.9387
 30
0.0
 10
-4.0982
 20
-2.9387
 30
0.0
  0
SPLINE
  5
8A
330
1F
100
AcDbEntity
  8
DEFAULT_1
 62
   250
100
AcDbSpline
210
0.0
220
0.0
230
1.0
 70
    24
 71
     3
 72
     8
 73
     4
 74
     0
 42
0.0000000001
 43
0.0000000001
 40
0.0
 40
0.0
 40
0.0
 40
0.0
 40
1.0
 40
1.0
 40
1.0
 40
1.0
 10
-6.9187
 20
-2.7634
 30
0.0
 10
-6.9187
 20
-2.7634
 30
0.0
 10
-5.4
 20
-2.7634
 30
0.0
 10
-5.4
 20
-2.7634
 30
0.0
  0
SPLINE
  5
8B
330
1F
100
AcDbEntity
  8
DEFAULT_1
 62
   250
100
AcDbSpline
210
0.0
220
0.0
230
1.0
 70
    24
 71
     3
 72
     8
 73
     4
 74
     0
 42
0.0000000001
 43
0.0000000001
 40
0.0
 40
0.0
 40
0.0
 40
0.0
 40
1.0
 40
1.0
 40
1.0
 40
1.0
 10
-21.2745
 20
10.5435
 30
0.0
 10
-21.2745
 20
10.5435
 30
0.0
 10
-30.8301
 20
16.7016
 30
0.0
 10
-30.8301
 20
16.7016
 30
0.0
  0
SPLINE
  5
8C
330
1F
100
AcDbEntity
  8
DEFAULT_1
 62
   250
100
AcDbSpline
210
0.0
220
0.0
230
1.0
 70
    24
 71
     3
 72
     8
 73
     4
 74
     0
 42
0.0000000001
 43
0.0000000001
 40
0.0
 40
0.0
 40
0.0
 40
0.0
 40
1.0
 40
1.0
 40
1.0
 40
1.0
 10
-20.9874
 20
10.9889
 30
0.0
 10
-20.9874
 20
10.9889
 30
0.0
 10
-24.0032
 20
12.9324
 30
0.0
 10
-24.0032
 20
12.9324
 30
0.0
  0
SPLINE
  5
8D
330
1F
100
AcDbEntity
  8
DEFAULT_1
 62
   250
100
AcDbSpline
210
0.0
220
0.0
230
1.0
 70
    24
 71
     3
 72
     8
 73
     4
 74
     0
 42
0.0000000001
 43
0.0000000001
 40
0.0
 40
0.0
 40
0.0
 40
0.0
 40
1.0
 40
1.0
 40
1.0
 40
1.0
 10
-20.4909
 20
11.7594
 30
0.0
 10
-20.4909
 20
11.7594
 30
0.0
 10
-25.1526
 20
14.7637
 30
0.0
 10
-25.1526
 20
14.7637
 30
0.0
  0
SPLINE
  5
8E
330
1F
100
AcDbEntity
  8
DEFAULT_1
 62
   250
100
AcDbSpline
210
0.0
220
0.0
230
1.0
 70
    24
 71
     3
 72
     8
 73
     4
 74
     0
 42
0.0000000001
 43
0.0000000001
 40
0.0
 40
0.0
 40
0.0
 40
0.0
 40
1.0
 40
1.0
 40
1.0
 40
1.0
 10
-9.327
 20
-2.4831
 30
0.0
 10
-9.327
 20
-2.4831
 30
0.0
 10
-7.5459
 20
-2.4831
 30
0.0
 10
-7.5459
 20
-2.4831
 30
0.0
  0
SPLINE
  5
8F
330
1F
100
AcDbEntity
  8
DEFAULT_1
 62
   250
100
AcDbSpline
210
0.0
220
0.0
230
1.0
 70
    24
 71
     3
 72
     8
 73
     4
 74
     0
 42
0.0000000001
 43
0.0000000001
 40
0.0
 40
0.0
 40
0.0
 40
0.0
 40
1.0
 40
1.0
 40
1.0
 40
1.0
 10
-4.5321
 20
-1.42
 30
0.0
 10
-4.5321
 20
-1.42
 30
0.0
 10
-4.966
 20
-1.42
 30
0.0
 10
-4.966
 20
-1.42
 30
0.0
  0
SPLINE
  5
90
330
1F
100
AcDbEntity
  8
DEFAULT_1
 62
   250
100
AcDbSpline
210
0.0
220
0.0
230
1.0
 70
    24
 71
     3
 72
     8
 73
     4
 74
     0
 42
0.0000000001
 43
0.0000000001
 40
0.0
 40
0.0
 40
0.0
 40
0.0
 40
1.0
 40
1.0
 40
1.0
 40
1.0
 10
-4.7607
 20
-1.3115
 30
0.0
 10
-4.7607
 20
-1.3115
 30
0.0
 10
-7.5696
 20
-1.3115
 30
0.0
 10
-7.5696
 20
-1.3115
 30
0.0
  0
SPLINE
  5
91
330
1F
100
AcDbEntity
  8
DEFAULT_1
 62
   250
100
AcDbSpline
210
0.0
220
0.0
230
1.0
 70
    24
 71
     3
 72
     8
 73
     4
 74
     0
 42
0.0000000001
 43
0.0000000001
 40
0.0
 40
0.0
 40
0.0
 40
0.0
 40
1.0
 40
1.0
 40
1.0
 40
1.0
 10
-22.2039
 20
0.3158
 30
0.0
 10
-22.2039
 20
0.3158
 30
0.0
 10
-13.1131
 20
0.3158
 30
0.0
 10
-13.1131
 20
0.3158
 30
0.0
  0
SPLINE
  5
92
330
1F
100
AcDbEntity
  8
DEFAULT_1
 62
   250
100
AcDbSpline
210
0.0
220
0.0
230
1.0
 70
    24
 71
     3
 72
     8
 73
     4
 74
     0
 42
0.0000000001
 43
0.0000000001
 40
0.0
 40
0.0
 40
0.0
 40
0.0
 40
1.0
 40
1.0
 40
1.0
 40
1.0
 10
24.975
 20
0.5327
 30
0.0
 10
24.975
 20
0.5327
 30
0.0
 10
26.9277
 20
0.5327
 30
0.0
 10
26.9277
 20
0.5327
 30
0.0
  0
SPLINE
  5
93
330
1F
100
AcDbEntity
  8
DEFAULT_1
 62
   250
100
AcDbSpline
210
0.0
220
0.0
230
1.0
 70
    24
 71
     3
 72
     8
 73
     4
 74
     0
 42
0.0000000001
 43
0.0000000001
 40
0.0
 40
0.0
 40
0.0
 40
0.0
 40
1.0
 40
1.0
 40
1.0
 40
1.0
 10
-22.9741
 20
1.1836
 30
0.0
 10
-22.9741
 20
1.1836
 30
0.0
 10
-12.3428
 20
1.1836
 30
0.0
 10
-12.3428
 20
1.1836
 30
0.0
  0
SPLINE
  5
94
330
1F
100
AcDbEntity
  8
DEFAULT_1
 62
   250
100
AcDbSpline
210
0.0
220
0.0
230
1.0
 70
    24
 71
     3
 72
     8
 73
     4
 74
     0
 42
0.0000000001
 43
0.0000000001
 40
0.0
 40
0.0
 40
0.0
 40
0.0
 40
1.0
 40
1.0
 40
1.0
 40
1.0
 10
-22.9564
 20
1.8345
 30
0.0
 10
-22.9564
 20
1.8345
 30
0.0
 10
-21.7115
 20
1.8345
 30
0.0
 10
-21.7115
 20
1.8345
 30
0.0
  0
SPLINE
  5
95
330
1F
100
AcDbEntity
  8
DEFAULT_1
 62
   250
100
AcDbSpline
210
0.0
220
0.0
230
1.0
 70
    24
 71
     3
 72
     8
 73
     4
 74
     0
 42
0.0000000001
 43
0.0000000001
 40
0.0
 40
0.0
 40
0.0
 40
0.0
 40
1.0
 40
1.0
 40
1.0
 40
1.0
 10
-21.0978
 20
1.8345
 30
0.0
 10
-21.0978
 20
1.8345
 30
0.0
 10
-18.0924
 20
1.8345
 30
0.0
 10
-18.0924
 20
1.8345
 30
0.0
  0
SPLINE
  5
96
330
1F
100
AcDbEntity
  8
DEFAULT_1
 62
   250
100
AcDbSpline
210
0.0
220
0.0
230
1.0
 70
    24
 71
     3
 72
     8
 73
     4
 74
     0
 42
0.0000000001
 43
0.0000000001
 40
0.0
 40
0.0
 40
0.0
 40
0.0
 40
1.0
 40
1.0
 40
1.0
 40
1.0
 10
-17.2245
 20
1.8345
 30
0.0
 10
-17.2245
 20
1.8345
 30
0.0
 10
-14.2192
 20
1.8345
 30
0.0
 10
-14.2192
 20
1.8345
 30
0.0
  0
SPLINE
  5
97
330
1F
100
AcDbEntity
  8
DEFAULT_1
 62
   250
100
AcDbSpline
210
0.0
220
0.0
230
1.0
 70
    24
 71
     3
 72
     8
 73
     4
 74
     0
 42
0.0000000001
 43
0.0000000001
 40
0.0
 40
0.0
 40
0.0
 40
0.0
 40
1.0
 40
1.0
 40
1.0
 40
1.0
 10
-13.6054
 20
1.8345
 30
0.0
 10
-13.6054
 20
1.8345
 30
0.0
 10
-12.3606
 20
1.8345
 30
0.0
 10
-12.3606
 20
1.8345
 30
0.0
  0
SPLINE
  5
98
330
1F
100
AcDbEntity
  8
DEFAULT_1
 62
   250
100
AcDbSpline
210
0.0
220
0.0
230
1.0
 70
    24
 71
     3
 72
     8
 73
     4
 74
     0
 42
0.0000000001
 43
0.0000000001
 40
0.0
 40
0.0
 40
0.0
 40
0.0
 40
1.0
 40
1.0
 40
1.0
 40
1.0
 10
-19.0556
 20
15.5233
 30
0.0
 10
-19.0556
 20
15.5233
 30
0.0
 10
-18.3559
 20
15.0724
 30
0.0
 10
-18.3559
 20
15.0724
 30
0.0
  0
SPLINE
  5
99
330
1F
100
AcDbEntity
  8
DEFAULT_1
 62
   250
100
AcDbSpline
210
0.0
220
0.0
230
1.0
 70
    24
 71
     3
 72
     8
 73
     4
 74
     0
 42
0.0000000001
 43
0.0000000001
 40
0.0
 40
0.0
 40
0.0
 40
0.0
 40
1.0
 40
1.0
 40
1.0
 40
1.0
 10
-18.559
 20
16.2937
 30
0.0
 10
-18.559
 20
16.2937
 30
0.0
 10
-17.8593
 20
15.8428
 30
0.0
 10
-17.8593
 20
15.8428
 30
0.0
  0
SPLINE
  5
9A
330
1F
100
AcDbEntity
  8
DEFAULT_1
 62
   250
100
AcDbSpline
210
0.0
220
0.0
230
1.0
 70
    24
 71
     3
 72
     8
 73
     4
 74
     0
 42
0.0000000001
 43
0.0000000001
 40
0.0
 40
0.0
 40
0.0
 40
0.0
 40
1.0
 40
1.0
 40
1.0
 40
1.0
 10
-17.5723
 20
16.2883
 30
0.0
 10
-17.5723
 20
16.2883
 30
0.0
 10
-18.2461
 20
16.7225
 30
0.0
 10
-18.2461
 20
16.7225
 30
0.0
  0
SPLINE
  5
9B
330
1F
100
AcDbEntity
  8
DEFAULT_1
 62
   250
100
AcDbSpline
210
0.0
220
0.0
230
1.0
 70
    24
 71
     3
 72
     8
 73
     4
 74
     0
 42
0.0000000001
 43
0.0000000001
 40
0.0
 40
0.0
 40
0.0
 40
0.0
 40
1.0
 40
1.0
 40
1.0
 40
1.0
 10
-12.8853
 20
4.2211
 30
0.0
 10
-12.8853
 20
4.2211
 30
0.0
 10
-22.4317
 20
4.2211
 30
0.0
 10
-22.4317
 20
4.2211
 30
0.0
  0
SPLINE
  5
9C
330
1F
100
AcDbEntity
  8
DEFAULT_1
 62
   250
100
AcDbSpline
210
0.0
220
0.0
230
1.0
 70
    24
 71
     3
 72
     8
 73
     4
 74
     0
 42
0.0000000001
 43
0.0000000001
 40
0.0
 40
0.0
 40
0.0
 40
0.0
 40
1.0
 40
1.0
 40
1.0
 40
1.0
 10
26.9277
 20
-15.0887
 30
0.0
 10
26.9277
 20
-15.0887
 30
0.0
 10
27.5786
 20
-15.7396
 30
0.0
 10
27.5786
 20
-15.7396
 30
0.0
  0
SPLINE
  5
9D
330
1F
100
AcDbEntity
  8
DEFAULT_1
 62
   250
100
AcDbSpline
210
0.0
220
0.0
230
1.0
 70
    24
 71
     3
 72
     8
 73
     4
 74
     0
 42
0.0000000001
 43
0.0000000001
 40
0.0
 40
0.0
 40
0.0
 40
0.0
 40
1.0
 40
1.0
 40
1.0
 40
1.0
 10
-16.8861
 20
9.0098
 30
0.0
 10
-16.8861
 20
9.0098
 30
0.0
 10
-18.4309
 20
9.0098
 30
0.0
 10
-18.4309
 20
9.0098
 30
0.0
  0
SPLINE
  5
9E
330
1F
100
AcDbEntity
  8
DEFAULT_1
 62
   250
100
AcDbSpline
210
0.0
220
0.0
230
1.0
 70
    24
 71
     3
 72
     8
 73
     4
 74
     0
 42
0.0000000001
 43
0.0000000001
 40
0.0
 40
0.0
 40
0.0
 40
0.0
 40
1.0
 40
1.0
 40
1.0
 40
1.0
 10
26.9277
 20
0.5327
 30
0.0
 10
26.9277
 20
0.5327
 30
0.0
 10
27.5786
 20
1.1836
 30
0.0
 10
27.5786
 20
1.1836
 30
0.0
  0
SPLINE
  5
9F
330
1F
100
AcDbEntity
  8
DEFAULT_1
 62
   250
100
AcDbSpline
210
0.0
220
0.0
230
1.0
 70
    24
 71
     3
 72
     8
 73
     4
 74
     0
 42
0.0000000001
 43
0.0000000001
 40
0.0
 40
0.0
 40
0.0
 40
0.0
 40
1.0
 40
1.0
 40
1.0
 40
1.0
 10
21.9375
 20
-2.5048
 30
0.0
 10
21.9375
 20
-2.5048
 30
0.0
 10
21.9375
 20
-12.0512
 30
0.0
 10
21.9375
 20
-12.0512
 30
0.0
  0
SPLINE
  5
A0
330
1F
100
AcDbEntity
  8
DEFAULT_1
 62
   250
100
AcDbSpline
210
0.0
220
0.0
230
1.0
 70
    24
 71
     3
 72
     8
 73
     4
 74
     0
 42
0.0000000001
 43
0.0000000001
 40
0.0
 40
0.0
 40
0.0
 40
0.0
 40
1.0
 40
1.0
 40
1.0
 40
1.0
 10
-18.7119
 20
17.6135
 30
0.0
 10
-18.7119
 20
17.6135
 30
0.0
 10
-31.3272
 20
17.6135
 30
0.0
 10
-31.3272
 20
17.6135
 30
0.0
  0
SPLINE
  5
A1
330
1F
100
AcDbEntity
  8
DEFAULT_1
 62
   250
100
AcDbSpline
210
0.0
220
0.0
230
1.0
 70
    24
 71
     3
 72
     8
 73
     4
 74
     0
 42
0.0000000001
 43
0.0000000001
 40
0.0
 40
0.0
 40
0.0
 40
0.0
 40
1.0
 40
1.0
 40
1.0
 40
1.0
 10
-31.3272
 20
19.1917
 30
0.0
 10
-31.3272
 20
19.1917
 30
0.0
 10
-18.7433
 20
19.1917
 30
0.0
 10
-18.7433
 20
19.1917
 30
0.0
  0
SPLINE
  5
A2
330
1F
100
AcDbEntity
  8
DEFAULT_1
 62
   250
100
AcDbSpline
210
0.0
220
0.0
230
1.0
 70
    24
 71
     3
 72
     8
 73
     4
 74
     0
 42
0.0000000001
 43
0.0000000001
 40
0.0
 40
0.0
 40
0.0
 40
0.0
 40
1.0
 40
1.0
 40
1.0
 40
1.0
 10
-18.0924
 20
20.319
 30
0.0
 10
-18.0924
 20
20.319
 30
0.0
 10
-31.9781
 20
20.319
 30
0.0
 10
-31.9781
 20
20.319
 30
0.0
  0
SPLINE
  5
A3
330
1F
100
AcDbEntity
  8
DEFAULT_1
 62
   250
100
AcDbSpline
210
0.0
220
0.0
230
1.0
 70
    24
 71
     3
 72
     8
 73
     4
 74
     0
 42
0.0000000001
 43
0.0000000001
 40
0.0
 40
0.0
 40
0.0
 40
0.0
 40
1.0
 40
1.0
 40
1.0
 40
1.0
 10
26.9277
 20
0.5327
 30
0.0
 10
26.9277
 20
0.5327
 30
0.0
 10
26.9277
 20
-15.0887
 30
0.0
 10
26.9277
 20
-15.0887
 30
0.0
  0
SPLINE
  5
A4
330
1F
100
AcDbEntity
  8
DEFAULT_1
 62
   250
100
AcDbSpline
210
0.0
220
0.0
230
1.0
 70
    24
 71
     3
 72
     8
 73
     4
 74
     0
 42
0.0000000001
 43
0.0000000001
 40
0.0
 40
0.0
 40
0.0
 40
0.0
 40
1.0
 40
1.0
 40
1.0
 40
1.0
 10
27.5786
 20
1.1836
 30
0.0
 10
27.5786
 20
1.1836
 30
0.0
 10
27.5786
 20
-15.7396
 30
0.0
 10
27.5786
 20
-15.7396
 30
0.0
  0
SPLINE
  5
A5
330
1F
100
AcDbEntity
  8
DEFAULT_1
 62
   250
100
AcDbSpline
210
0.0
220
0.0
230
1.0
 70
    24
 71
     3
 72
     8
 73
     4
 74
     0
 42
0.0000000001
 43
0.0000000001
 40
0.0
 40
0.0
 40
0.0
 40
0.0
 40
1.0
 40
1.0
 40
1.0
 40
1.0
 10
-32.2493
 20
23.748
 30
0.0
 10
-32.2493
 20
23.748
 30
0.0
 10
-17.8212
 20
23.748
 30
0.0
 10
-17.8212
 20
23.748
 30
0.0
  0
SPLINE
  5
A6
330
1F
100
AcDbEntity
  8
DEFAULT_1
 62
   250
100
AcDbSpline
210
0.0
220
0.0
230
1.0
 70
    24
 71
     3
 72
     8
 73
     4
 74
     0
 42
0.0000000001
 43
0.0000000001
 40
0.0
 40
0.0
 40
0.0
 40
0.0
 40
1.0
 40
1.0
 40
1.0
 40
1.0
 10
-32.2493
 20
25.1582
 30
0.0
 10
-32.2493
 20
25.1582
 30
0.0
 10
-17.8212
 20
25.1582
 30
0.0
 10
-17.8212
 20
25.1582
 30
0.0
  0
SPLINE
  5
A7
330
1F
100
AcDbEntity
  8
DEFAULT_1
 62
   250
100
AcDbSpline
210
0.0
220
0.0
230
1.0
 70
    24
 71
     3
 72
     8
 73
     4
 74
     0
 42
0.0000000001
 43
0.0000000001
 40
0.0
 40
0.0
 40
0.0
 40
0.0
 40
1.0
 40
1.0
 40
1.0
 40
1.0
 10
-18.3636
 20
25.7006
 30
0.0
 10
-18.3636
 20
25.7006
 30
0.0
 10
-31.7069
 20
25.7006
 30
0.0
 10
-31.7069
 20
25.7006
 30
0.0
  0
SPLINE
  5
A8
330
1F
100
AcDbEntity
  8
DEFAULT_1
 62
   250
100
AcDbSpline
210
0.0
220
0.0
230
1.0
 70
    24
 71
     3
 72
     8
 73
     4
 74
     0
 42
0.0000000001
 43
0.0000000001
 40
0.0
 40
0.0
 40
0.0
 40
0.0
 40
1.0
 40
1.0
 40
1.0
 40
1.0
 10
36.2572
 20
-11.6173
 30
0.0
 10
36.2572
 20
-11.6173
 30
0.0
 10
36.2572
 20
-2.9387
 30
0.0
 10
36.2572
 20
-2.9387
 30
0.0
  0
SPLINE
  5
A9
330
1F
100
AcDbEntity
  8
DEFAULT_1
 62
   250
100
AcDbSpline
210
0.0
220
0.0
230
1.0
 70
     8
 71
     3
 72
    12
 73
     8
 74
     0
 42
0.0000000001
 43
0.0000000001
 40
0.0
 40
0.0
 40
0.0
 40
0.0
 40
0.3333333333333333
 40
0.3333333333333333
 40
0.3333333333333333
 40
0.3333333333333333
 40
1.0
 40
1.0
 40
1.0
 40
1.0
 10
-17.2245
 20
3.3533
 30
0.0
 10
-17.2245
 20
3.5929
 30
0.0
 10
-17.4188
 20
3.7872
 30
0.0
 10
-17.6585
 20
3.7872
 30
0.0
 10
-17.6585
 20
3.7872
 30
0.0
 10
-17.8981
 20
3.7872
 30
0.0
 10
-18.0924
 20
3.5929
 30
0.0
 10
-18.0924
 20
3.3533
 30
0.0
  0
SPLINE
  5
AA
330
1F
100
AcDbEntity
  8
DEFAULT_1
 62
   250
100
AcDbSpline
210
0.0
220
0.0
230
1.0
 70
     8
 71
     3
 72
     8
 73
     4
 74
     0
 42
0.0000000001
 43
0.0000000001
 40
0.0
 40
0.0
 40
0.0
 40
0.0
 40
1.0
 40
1.0
 40
1.0
 40
1.0
 10
-12.4513
 20
3.7872
 30
0.0
 10
-12.4513
 20
4.0268
 30
0.0
 10
-12.6456
 20
4.2211
 30
0.0
 10
-12.8853
 20
4.2211
 30
0.0
  0
SPLINE
  5
AB
330
1F
100
AcDbEntity
  8
DEFAULT_1
 62
   250
100
AcDbSpline
210
0.0
220
0.0
230
1.0
 70
     8
 71
     3
 72
     8
 73
     4
 74
     0
 42
0.0000000001
 43
0.0000000001
 40
0.0
 40
0.0
 40
0.0
 40
0.0
 40
1.0
 40
1.0
 40
1.0
 40
1.0
 10
-22.4317
 20
4.2211
 30
0.0
 10
-22.6714
 20
4.2211
 30
0.0
 10
-22.8656
 20
4.0268
 30
0.0
 10
-22.8656
 20
3.7872
 30
0.0
  0
SPLINE
  5
AC
330
1F
100
AcDbEntity
  8
DEFAULT_1
 62
   250
100
AcDbSpline
210
0.0
220
0.0
230
1.0
 70
     8
 71
     3
 72
    12
 73
     8
 74
     0
 42
0.0000000001
 43
0.0000000001
 40
0.0
 40
0.0
 40
0.0
 40
0.0
 40
0.3333333333333333
 40
0.3333333333333333
 40
0.3333333333333333
 40
0.3333333333333333
 40
1.0
 40
1.0
 40
1.0
 40
1.0
 10
-5.4
 20
-7.7119
 30
0.0
 10
-5.1603
 20
-7.7119
 30
0.0
 10
-4.966
 20
-7.5176
 30
0.0
 10
-4.966
 20
-7.278
 30
0.0
 10
-4.966
 20
-7.278
 30
0.0
 10
-4.966
 20
-7.0383
 30
0.0
 10
-5.1603
 20
-6.844
 30
0.0
 10
-5.4
 20
-6.844
 30
0.0
  0
SPLINE
  5
AD
330
1F
100
AcDbEntity
  8
DEFAULT_1
 62
   250
100
AcDbSpline
210
0.0
220
0.0
230
1.0
 70
     8
 71
     3
 72
     8
 73
     4
 74
     0
 42
0.0000000001
 43
0.0000000001
 40
0.0
 40
0.0
 40
0.0
 40
0.0
 40
1.0
 40
1.0
 40
1.0
 40
1.0
 10
-4.5321
 20
-13.136
 30
0.0
 10
-4.2925
 20
-13.136
 30
0.0
 10
-4.0982
 20
-12.9417
 30
0.0
 10
-4.0982
 20
-12.7021
 30
0.0
  0
SPLINE
  5
AE
330
1F
100
AcDbEntity
  8
DEFAULT_1
 62
   250
100
AcDbSpline
210
0.0
220
0.0
230
1.0
 70
     8
 71
     3
 72
     8
 73
     4
 74
     0
 42
0.0000000001
 43
0.0000000001
 40
0.0
 40
0.0
 40
0.0
 40
0.0
 40
1.0
 40
1.0
 40
1.0
 40
1.0
 10
-4.0982
 20
-1.8539
 30
0.0
 10
-4.0982
 20
-1.6143
 30
0.0
 10
-4.2925
 20
-1.42
 30
0.0
 10
-4.5321
 20
-1.42
 30
0.0
  0
SPLINE
  5
AF
330
1F
100
AcDbEntity
  8
DEFAULT_1
 62
   250
100
AcDbSpline
210
0.0
220
0.0
230
1.0
 70
     8
 71
     3
 72
     8
 73
     4
 74
     0
 42
0.0000000001
 43
0.0000000001
 40
0.0
 40
0.0
 40
0.0
 40
0.0
 40
1.0
 40
1.0
 40
1.0
 40
1.0
 10
-17.8212
 20
25.1582
 30
0.0
 10
-17.8212
 20
25.4578
 30
0.0
 10
-18.064
 20
25.7006
 30
0.0
 10
-18.3636
 20
25.7006
 30
0.0
  0
SPLINE
  5
B0
330
1F
100
AcDbEntity
  8
DEFAULT_1
 62
   250
100
AcDbSpline
210
0.0
220
0.0
230
1.0
 70
     8
 71
     3
 72
     8
 73
     4
 74
     0
 42
0.0000000001
 43
0.0000000001
 40
0.0
 40
0.0
 40
0.0
 40
0.0
 40
1.0
 40
1.0
 40
1.0
 40
1.0
 10
-31.7069
 20
25.7006
 30
0.0
 10
-32.0065
 20
25.7006
 30
0.0
 10
-32.2493
 20
25.4578
 30
0.0
 10
-32.2493
 20
25.1582
 30
0.0
  0
SPLINE
  5
B1
330
1F
100
AcDbEntity
  8
DEFAULT_1
 62
   250
100
AcDbSpline
210
0.0
220
0.0
230
1.0
 70
     8
 71
     3
 72
     8
 73
     4
 74
     0
 42
0.0000000001
 43
0.0000000001
 40
0.0
 40
0.0
 40
0.0
 40
0.0
 40
1.0
 40
1.0
 40
1.0
 40
1.0
 10
24.975
 20
0.5327
 30
0.0
 10
23.2975
 20
0.5327
 30
0.0
 10
21.9375
 20
-0.8273
 30
0.0
 10
21.9375
 20
-2.5048
 30
0.0
  0
SPLINE
  5
B2
330
1F
100
AcDbEntity
  8
DEFAULT_1
 62
   250
100
AcDbSpline
210
0.0
220
0.0
230
1.0
 70
     8
 71
     3
 72
     8
 73
     4
 74
     0
 42
0.0000000001
 43
0.0000000001
 40
0.0
 40
0.0
 40
0.0
 40
0.0
 40
1.0
 40
1.0
 40
1.0
 40
1.0
 10
21.9375
 20
-12.0512
 30
0.0
 10
21.9375
 20
-13.7288
 30
0.0
 10
23.2975
 20
-15.0887
 30
0.0
 10
24.975
 20
-15.0887
 30
0.0
  0
SPLINE
  5
B3
330
1F
100
AcDbEntity
  8
DEFAULT_1
 62
   250
100
AcDbSpline
210
0.0
220
0.0
230
1.0
 70
     8
 71
     3
 72
    12
 73
     8
 74
     0
 42
0.0000000001
 43
0.0000000001
 40
0.0
 40
0.0
 40
0.0
 40
0.0
 40
0.3333333333333333
 40
0.3333333333333333
 40
0.3333333333333333
 40
0.3333333333333333
 40
1.0
 40
1.0
 40
1.0
 40
1.0
 10
-16.0312
 20
-24.3531
 30
0.0
 10
-16.0312
 20
-24.5927
 30
0.0
 10
-15.837
 20
-24.787
 30
0.0
 10
-15.5973
 20
-24.787
 30
0.0
 10
-15.5973
 20
-24.787
 30
0.0
 10
-15.3576
 20
-24.787
 30
0.0
 10
-15.1634
 20
-24.5927
 30
0.0
 10
-15.1634
 20
-24.3531
 30
0.0
  0
SPLINE
  5
B4
330
1F
100
AcDbEntity
  8
DEFAULT_1
 62
   250
100
AcDbSpline
210
0.0
220
0.0
230
1.0
 70
     8
 71
     3
 72
     8
 73
     4
 74
     0
 42
0.0000000001
 43
0.0000000001
 40
0.0
 40
0.0
 40
0.0
 40
0.0
 40
1.0
 40
1.0
 40
1.0
 40
1.0
 10
-22.1056
 20
-25.317
 30
0.0
 10
-22.1063
 20
-25.266
 30
0.0
 10
-22.1425
 20
-25.2225
 30
0.0
 10
-22.1925
 20
-25.2123
 30
0.0
  0
SPLINE
  5
B5
330
1F
100
AcDbEntity
  8
DEFAULT_1
 62
   250
100
AcDbSpline
210
0.0
220
0.0
230
1.0
 70
     8
 71
     3
 72
     8
 73
     4
 74
     0
 42
0.0000000001
 43
0.0000000001
 40
0.0
 40
0.0
 40
0.0
 40
0.0
 40
1.0
 40
1.0
 40
1.0
 40
1.0
 10
-9.0022
 20
-25.2123
 30
0.0
 10
-9.0521
 20
-25.2225
 30
0.0
 10
-9.0883
 20
-25.266
 30
0.0
 10
-9.0891
 20
-25.317
 30
0.0
  0
SPLINE
  5
B6
330
1F
100
AcDbEntity
  8
DEFAULT_1
 62
   250
100
AcDbSpline
210
0.0
220
0.0
230
1.0
 70
     8
 71
     3
 72
     8
 73
     4
 74
     0
 42
0.0000000001
 43
0.0000000001
 40
0.0
 40
0.0
 40
0.0
 40
0.0
 40
1.0
 40
1.0
 40
1.0
 40
1.0
 10
-22.5402
 20
-24.787
 30
0.0
 10
-22.5402
 20
-24.9934
 30
0.0
 10
-22.3948
 20
-25.1713
 30
0.0
 10
-22.1925
 20
-25.2123
 30
0.0
  0
SPLINE
  5
B7
330
1F
100
AcDbEntity
  8
DEFAULT_1
 62
   250
100
AcDbSpline
210
0.0
220
0.0
230
1.0
 70
     8
 71
     3
 72
     8
 73
     4
 74
     0
 42
0.0000000001
 43
0.0000000001
 40
0.0
 40
0.0
 40
0.0
 40
0.0
 40
1.0
 40
1.0
 40
1.0
 40
1.0
 10
-9.0022
 20
-25.2123
 30
0.0
 10
-8.7999
 20
-25.1713
 30
0.0
 10
-8.6544
 20
-24.9934
 30
0.0
 10
-8.6544
 20
-24.787
 30
0.0
  0
SPLINE
  5
B8
330
1F
100
AcDbEntity
  8
DEFAULT_1
 62
   250
100
AcDbSpline
210
0.0
220
0.0
230
1.0
 70
     8
 71
     3
 72
    12
 73
     8
 74
     0
 42
0.0000000001
 43
0.0000000001
 40
0.0
 40
0.0
 40
0.0
 40
0.0
 40
0.3333333333333333
 40
0.3333333333333333
 40
0.3333333333333333
 40
0.3333333333333333
 40
1.0
 40
1.0
 40
1.0
 40
1.0
 10
-22.1056
 20
-25.317
 30
0.0
 10
-22.053
 20
-28.874
 30
0.0
 10
-19.1546
 20
-31.7299
 30
0.0
 10
-15.5973
 20
-31.7299
 30
0.0
 10
-15.5973
 20
-31.7299
 30
0.0
 10
-12.04
 20
-31.7299
 30
0.0
 10
-9.1416
 20
-28.874
 30
0.0
 10
-9.0891
 20
-25.317
 30
0.0
  0
SPLINE
  5
B9
330
1F
100
AcDbEntity
  8
DEFAULT_1
 62
   250
100
AcDbSpline
210
0.0
220
0.0
230
1.0
 70
     8
 71
     3
 72
     8
 73
     4
 74
     0
 42
0.0000000001
 43
0.0000000001
 40
0.0
 40
0.0
 40
0.0
 40
0.0
 40
1.0
 40
1.0
 40
1.0
 40
1.0
 10
-18.7433
 20
17.6344
 30
0.0
 10
-18.7433
 20
17.2657
 30
0.0
 10
-18.5561
 20
16.9222
 30
0.0
 10
-18.2461
 20
16.7225
 30
0.0
  0
SPLINE
  5
BA
330
1F
100
AcDbEntity
  8
DEFAULT_1
 62
   250
100
AcDbSpline
210
0.0
220
0.0
230
1.0
 70
     8
 71
     3
 72
     8
 73
     4
 74
     0
 42
0.0000000001
 43
0.0000000001
 40
0.0
 40
0.0
 40
0.0
 40
0.0
 40
1.0
 40
1.0
 40
1.0
 40
1.0
 10
-31.3272
 20
17.6135
 30
0.0
 10
-31.3272
 20
17.2448
 30
0.0
 10
-31.14
 20
16.9013
 30
0.0
 10
-30.8301
 20
16.7016
 30
0.0
  0
SPLINE
  5
BB
330
1F
100
AcDbEntity
  8
DEFAULT_1
 62
   250
100
AcDbSpline
210
0.0
220
0.0
230
1.0
 70
     8
 71
     3
 72
     8
 73
     4
 74
     0
 42
0.0000000001
 43
0.0000000001
 40
0.0
 40
0.0
 40
0.0
 40
0.0
 40
1.0
 40
1.0
 40
1.0
 40
1.0
 10
-21.0757
 20
10.1788
 30
0.0
 10
-21.0757
 20
10.3262
 30
0.0
 10
-21.1506
 20
10.4636
 30
0.0
 10
-21.2745
 20
10.5435
 30
0.0
  0
SPLINE
  5
BC
330
1F
100
AcDbEntity
  8
DEFAULT_1
 62
   250
100
AcDbSpline
210
0.0
220
0.0
230
1.0
 70
     8
 71
     3
 72
     8
 73
     4
 74
     0
 42
0.0000000001
 43
0.0000000001
 40
0.0
 40
0.0
 40
0.0
 40
0.0
 40
1.0
 40
1.0
 40
1.0
 40
1.0
 10
-14.2413
 20
10.1788
 30
0.0
 10
-14.2413
 20
12.649
 30
0.0
 10
-15.4959
 20
14.9501
 30
0.0
 10
-17.5723
 20
16.2883
 30
0.0
  0
SPLINE
  5
BD
330
1F
100
AcDbEntity
  8
DEFAULT_1
 62
   250
100
AcDbSpline
210
0.0
220
0.0
230
1.0
 70
     8
 71
     3
 72
     8
 73
     4
 74
     0
 42
0.0000000001
 43
0.0000000001
 40
0.0
 40
0.0
 40
0.0
 40
0.0
 40
1.0
 40
1.0
 40
1.0
 40
1.0
 10
-20.5641
 20
10.3659
 30
0.0
 10
-20.6149
 20
10.6224
 30
0.0
 10
-20.7677
 20
10.8473
 30
0.0
 10
-20.9874
 20
10.9889
 30
0.0
  0
SPLINE
  5
BE
330
1F
100
AcDbEntity
  8
DEFAULT_1
 62
   250
100
AcDbSpline
210
0.0
220
0.0
230
1.0
 70
     8
 71
     3
 72
     8
 73
     4
 74
     0
 42
0.0000000001
 43
0.0000000001
 40
0.0
 40
0.0
 40
0.0
 40
0.0
 40
1.0
 40
1.0
 40
1.0
 40
1.0
 10
-15.6992
 20
10.5439
 30
0.0
 10
-15.8153
 20
12.3897
 30
0.0
 10
-16.8013
 20
14.0705
 30
0.0
 10
-18.3559
 20
15.0724
 30
0.0
  0
SPLINE
  5
BF
330
1F
100
AcDbEntity
  8
DEFAULT_1
 62
   250
100
AcDbSpline
210
0.0
220
0.0
230
1.0
 70
     8
 71
     3
 72
     8
 73
     4
 74
     0
 42
0.0000000001
 43
0.0000000001
 40
0.0
 40
0.0
 40
0.0
 40
0.0
 40
1.0
 40
1.0
 40
1.0
 40
1.0
 10
-19.665
 20
10.5439
 30
0.0
 10
-19.764
 20
11.0444
 30
0.0
 10
-20.0621
 20
11.483
 30
0.0
 10
-20.4909
 20
11.7594
 30
0.0
  0
SPLINE
  5
C0
330
1F
100
AcDbEntity
  8
DEFAULT_1
 62
   250
100
AcDbSpline
210
0.0
220
0.0
230
1.0
 70
     8
 71
     3
 72
     8
 73
     4
 74
     0
 42
0.0000000001
 43
0.0000000001
 40
0.0
 40
0.0
 40
0.0
 40
0.0
 40
1.0
 40
1.0
 40
1.0
 40
1.0
 10
-14.7845
 20
10.6014
 30
0.0
 10
-14.9187
 20
12.7378
 30
0.0
 10
-16.0601
 20
14.6833
 30
0.0
 10
-17.8593
 20
15.8428
 30
0.0
  0
SPLINE
  5
C1
330
1F
100
AcDbEntity
  8
DEFAULT_1
 62
   250
100
AcDbSpline
210
0.0
220
0.0
230
1.0
 70
     8
 71
     3
 72
     8
 73
     4
 74
     0
 42
0.0000000001
 43
0.0000000001
 40
0.0
 40
0.0
 40
0.0
 40
0.0
 40
1.0
 40
1.0
 40
1.0
 40
1.0
 10
-22.193
 20
-21.0552
 30
0.0
 10
-22.0133
 20
-21.0552
 30
0.0
 10
-21.8676
 20
-20.9096
 30
0.0
 10
-21.8676
 20
-20.7298
 30
0.0
  0
SPLINE
  5
C2
330
1F
100
AcDbEntity
  8
DEFAULT_1
 62
   250
100
AcDbSpline
210
0.0
220
0.0
230
1.0
 70
     8
 71
     3
 72
     8
 73
     4
 74
     0
 42
0.0000000001
 43
0.0000000001
 40
0.0
 40
0.0
 40
0.0
 40
0.0
 40
1.0
 40
1.0
 40
1.0
 40
1.0
 10
-9.327
 20
-20.7298
 30
0.0
 10
-9.327
 20
-20.9096
 30
0.0
 10
-9.1813
 20
-21.0552
 30
0.0
 10
-9.0016
 20
-21.0552
 30
0.0
  0
SPLINE
  5
C3
330
1F
100
AcDbEntity
  8
DEFAULT_1
 62
   250
100
AcDbSpline
210
0.0
220
0.0
230
1.0
 70
     8
 71
     3
 72
     8
 73
     4
 74
     0
 42
0.0000000001
 43
0.0000000001
 40
0.0
 40
0.0
 40
0.0
 40
0.0
 40
1.0
 40
1.0
 40
1.0
 40
1.0
 10
-22.2147
 20
-21.0552
 30
0.0
 10
-22.4544
 20
-21.0552
 30
0.0
 10
-22.6487
 20
-21.2495
 30
0.0
 10
-22.6487
 20
-21.4892
 30
0.0
  0
SPLINE
  5
C4
330
1F
100
AcDbEntity
  8
DEFAULT_1
 62
   250
100
AcDbSpline
210
0.0
220
0.0
230
1.0
 70
     8
 71
     3
 72
     8
 73
     4
 74
     0
 42
0.0000000001
 43
0.0000000001
 40
0.0
 40
0.0
 40
0.0
 40
0.0
 40
1.0
 40
1.0
 40
1.0
 40
1.0
 10
-8.546
 20
-21.4892
 30
0.0
 10
-8.546
 20
-21.2495
 30
0.0
 10
-8.7402
 20
-21.0552
 30
0.0
 10
-8.9799
 20
-21.0552
 30
0.0
  0
SPLINE
  5
C5
330
1F
100
AcDbEntity
  8
DEFAULT_1
 62
   250
100
AcDbSpline
210
0.0
220
0.0
230
1.0
 70
     8
 71
     3
 72
     8
 73
     4
 74
     0
 42
0.0000000001
 43
0.0000000001
 40
0.0
 40
0.0
 40
0.0
 40
0.0
 40
1.0
 40
1.0
 40
1.0
 40
1.0
 10
-9.7888
 20
-1.86
 30
0.0
 10
-11.1027
 20
-1.6623
 30
0.0
 10
-12.4259
 20
-1.5319
 30
0.0
 10
-13.7531
 20
-1.4691
 30
0.0
  0
SPLINE
  5
C6
330
1F
100
AcDbEntity
  8
DEFAULT_1
 62
   250
100
AcDbSpline
210
0.0
220
0.0
230
1.0
 70
     8
 71
     3
 72
     8
 73
     4
 74
     0
 42
0.0000000001
 43
0.0000000001
 40
0.0
 40
0.0
 40
0.0
 40
0.0
 40
1.0
 40
1.0
 40
1.0
 40
1.0
 10
-21.5638
 20
-1.9092
 30
0.0
 10
-21.7497
 20
-2.0003
 30
0.0
 10
-21.8676
 20
-2.1893
 30
0.0
 10
-21.8676
 20
-2.3963
 30
0.0
  0
SPLINE
  5
C7
330
1F
100
AcDbEntity
  8
DEFAULT_1
 62
   250
100
AcDbSpline
210
0.0
220
0.0
230
1.0
 70
     8
 71
     3
 72
     8
 73
     4
 74
     0
 42
0.0000000001
 43
0.0000000001
 40
0.0
 40
0.0
 40
0.0
 40
0.0
 40
1.0
 40
1.0
 40
1.0
 40
1.0
 10
-9.327
 20
-2.3963
 30
0.0
 10
-9.327
 20
-2.1279
 30
0.0
 10
-9.5233
 20
-1.8998
 30
0.0
 10
-9.7888
 20
-1.86
 30
0.0
  0
SPLINE
  5
C8
330
1F
100
AcDbEntity
  8
DEFAULT_1
 62
   250
100
AcDbSpline
210
0.0
220
0.0
230
1.0
 70
     8
 71
     3
 72
    32
 73
    28
 74
     0
 42
0.0000000001
 43
0.0000000001
 40
0.0
 40
0.0
 40
0.0
 40
0.0
 40
0.125
 40
0.125
 40
0.125
 40
0.125
 40
0.25
 40
0.25
 40
0.25
 40
0.25
 40
0.375
 40
0.375
 40
0.375
 40
0.375
 40
0.5
 40
0.5
 40
0.5
 40
0.5
 40
0.625
 40
0.625
 40
0.625
 40
0.625
 40
0.75
 40
0.75
 40
0.75
 40
0.75
 40
1.0
 40
1.0
 40
1.0
 40
1.0
 10
-21.4172
 20
3.7872
 30
0.0
 10
-21.4172
 20
3.7872
 30
0.0
 10
-21.454
 20
3.784
 30
0.0
 10
-21.454
 20
3.784
 30
0.0
 10
-21.454
 20
3.784
 30
0.0
 10
-21.454
 20
3.784
 30
0.0
 10
-21.5243
 20
3.759
 30
0.0
 10
-21.5243
 20
3.759
 30
0.0
 10
-21.5243
 20
3.759
 30
0.0
 10
-21.5243
 20
3.759
 30
0.0
 10
-21.5874
 20
3.7104
 30
0.0
 10
-21.5874
 20
3.7104
 30
0.0
 10
-21.5874
 20
3.7104
 30
0.0
 10
-21.5874
 20
3.7104
 30
0.0
 10
-21.6399
 20
3.641
 30
0.0
 10
-21.6399
 20
3.641
 30
0.0
 10
-21.6399
 20
3.641
 30
0.0
 10
-21.6399
 20
3.641
 30
0.0
 10
-21.6791
 20
3.5548
 30
0.0
 10
-21.6791
 20
3.5548
 30
0.0
 10
-21.6791
 20
3.5548
 30
0.0
 10
-21.6791
 20
3.5548
 30
0.0
 10
-21.7033
 20
3.457
 30
0.0
 10
-21.7033
 20
3.457
 30
0.0
 10
-21.7033
 20
3.457
 30
0.0
 10
-21.7033
 20
3.457
 30
0.0
 10
-21.7115
 20
3.3533
 30
0.0
 10
-21.7115
 20
3.3533
 30
0.0
  0
SPLINE
  5
C9
330
1F
100
AcDbEntity
  8
DEFAULT_1
 62
   250
100
AcDbSpline
210
0.0
220
0.0
230
1.0
 70
     8
 71
     3
 72
    32
 73
    28
 74
     0
 42
0.0000000001
 43
0.0000000001
 40
0.0
 40
0.0
 40
0.0
 40
0.0
 40
0.125
 40
0.125
 40
0.125
 40
0.125
 40
0.25
 40
0.25
 40
0.25
 40
0.25
 40
0.375
 40
0.375
 40
0.375
 40
0.375
 40
0.5
 40
0.5
 40
0.5
 40
0.5
 40
0.625
 40
0.625
 40
0.625
 40
0.625
 40
0.75
 40
0.75
 40
0.75
 40
0.75
 40
1.0
 40
1.0
 40
1.0
 40
1.0
 10
-13.8997
 20
3.7872
 30
0.0
 10
-13.8997
 20
3.7872
 30
0.0
 10
-13.863
 20
3.784
 30
0.0
 10
-13.863
 20
3.784
 30
0.0
 10
-13.863
 20
3.784
 30
0.0
 10
-13.863
 20
3.784
 30
0.0
 10
-13.7926
 20
3.759
 30
0.0
 10
-13.7926
 20
3.759
 30
0.0
 10
-13.7926
 20
3.759
 30
0.0
 10
-13.7926
 20
3.759
 30
0.0
 10
-13.7295
 20
3.7104
 30
0.0
 10
-13.7295
 20
3.7104
 30
0.0
 10
-13.7295
 20
3.7104
 30
0.0
 10
-13.7295
 20
3.7104
 30
0.0
 10
-13.6771
 20
3.641
 30
0.0
 10
-13.6771
 20
3.641
 30
0.0
 10
-13.6771
 20
3.641
 30
0.0
 10
-13.6771
 20
3.641
 30
0.0
 10
-13.6379
 20
3.5548
 30
0.0
 10
-13.6379
 20
3.5548
 30
0.0
 10
-13.6379
 20
3.5548
 30
0.0
 10
-13.6379
 20
3.5548
 30
0.0
 10
-13.6136
 20
3.457
 30
0.0
 10
-13.6136
 20
3.457
 30
0.0
 10
-13.6136
 20
3.457
 30
0.0
 10
-13.6136
 20
3.457
 30
0.0
 10
-13.6054
 20
3.3533
 30
0.0
 10
-13.6054
 20
3.3533
 30
0.0
  0
SPLINE
  5
CA
330
1F
100
AcDbEntity
  8
DEFAULT_1
 62
   250
100
AcDbSpline
210
0.0
220
0.0
230
1.0
 70
     8
 71
     3
 72
    32
 73
    28
 74
     0
 42
0.0000000001
 43
0.0000000001
 40
0.0
 40
0.0
 40
0.0
 40
0.0
 40
0.125
 40
0.125
 40
0.125
 40
0.125
 40
0.25
 40
0.25
 40
0.25
 40
0.25
 40
0.375
 40
0.375
 40
0.375
 40
0.375
 40
0.5
 40
0.5
 40
0.5
 40
0.5
 40
0.625
 40
0.625
 40
0.625
 40
0.625
 40
0.75
 40
0.75
 40
0.75
 40
0.75
 40
1.0
 40
1.0
 40
1.0
 40
1.0
 10
-21.0978
 20
3.3533
 30
0.0
 10
-21.0978
 20
3.3533
 30
0.0
 10
-21.1074
 20
3.457
 30
0.0
 10
-21.1074
 20
3.457
 30
0.0
 10
-21.1074
 20
3.457
 30
0.0
 10
-21.1074
 20
3.457
 30
0.0
 10
-21.1356
 20
3.5548
 30
0.0
 10
-21.1356
 20
3.5548
 30
0.0
 10
-21.1356
 20
3.5548
 30
0.0
 10
-21.1356
 20
3.5548
 30
0.0
 10
-21.1805
 20
3.641
 30
0.0
 10
-21.1805
 20
3.641
 30
0.0
 10
-21.1805
 20
3.641
 30
0.0
 10
-21.1805
 20
3.641
 30
0.0
 10
-21.2389
 20
3.7104
 30
0.0
 10
-21.2389
 20
3.7104
 30
0.0
 10
-21.2389
 20
3.7104
 30
0.0
 10
-21.2389
 20
3.7104
 30
0.0
 10
-21.3069
 20
3.759
 30
0.0
 10
-21.3069
 20
3.759
 30
0.0
 10
-21.3069
 20
3.759
 30
0.0
 10
-21.3069
 20
3.759
 30
0.0
 10
-21.3801
 20
3.784
 30
0.0
 10
-21.3801
 20
3.784
 30
0.0
 10
-21.3801
 20
3.784
 30
0.0
 10
-21.3801
 20
3.784
 30
0.0
 10
-21.4172
 20
3.7872
 30
0.0
 10
-21.4172
 20
3.7872
 30
0.0
  0
SPLINE
  5
CB
330
1F
100
AcDbEntity
  8
DEFAULT_1
 62
   250
100
AcDbSpline
210
0.0
220
0.0
230
1.0
 70
     8
 71
     3
 72
    32
 73
    28
 74
     0
 42
0.0000000001
 43
0.0000000001
 40
0.0
 40
0.0
 40
0.0
 40
0.0
 40
0.125
 40
0.125
 40
0.125
 40
0.125
 40
0.25
 40
0.25
 40
0.25
 40
0.25
 40
0.375
 40
0.375
 40
0.375
 40
0.375
 40
0.5
 40
0.5
 40
0.5
 40
0.5
 40
0.625
 40
0.625
 40
0.625
 40
0.625
 40
0.75
 40
0.75
 40
0.75
 40
0.75
 40
1.0
 40
1.0
 40
1.0
 40
1.0
 10
-14.2192
 20
3.3533
 30
0.0
 10
-14.2192
 20
3.3533
 30
0.0
 10
-14.2095
 20
3.457
 30
0.0
 10
-14.2095
 20
3.457
 30
0.0
 10
-14.2095
 20
3.457
 30
0.0
 10
-14.2095
 20
3.457
 30
0.0
 10
-14.1813
 20
3.5548
 30
0.0
 10
-14.1813
 20
3.5548
 30
0.0
 10
-14.1813
 20
3.5548
 30
0.0
 10
-14.1813
 20
3.5548
 30
0.0
 10
-14.1365
 20
3.641
 30
0.0
 10
-14.1365
 20
3.641
 30
0.0
 10
-14.1365
 20
3.641
 30
0.0
 10
-14.1365
 20
3.641
 30
0.0
 10
-14.078
 20
3.7104
 30
0.0
 10
-14.078
 20
3.7104
 30
0.0
 10
-14.078
 20
3.7104
 30
0.0
 10
-14.078
 20
3.7104
 30
0.0
 10
-14.01
 20
3.759
 30
0.0
 10
-14.01
 20
3.759
 30
0.0
 10
-14.01
 20
3.759
 30
0.0
 10
-14.01
 20
3.759
 30
0.0
 10
-13.9369
 20
3.784
 30
0.0
 10
-13.9369
 20
3.784
 30
0.0
 10
-13.9369
 20
3.784
 30
0.0
 10
-13.9369
 20
3.784
 30
0.0
 10
-13.8997
 20
3.7872
 30
0.0
 10
-13.8997
 20
3.7872
 30
0.0
  0
SPLINE
  5
CC
330
1F
100
AcDbEntity
  8
DEFAULT_1
 62
   250
100
AcDbSpline
210
0.0
220
0.0
230
1.0
 70
     8
 71
     3
 72
    28
 73
    24
 74
     0
 42
0.0000000001
 43
0.0000000001
 40
0.0
 40
0.0
 40
0.0
 40
0.0
 40
0.1428571428571428
 40
0.1428571428571428
 40
0.1428571428571428
 40
0.1428571428571428
 40
0.2857142857142857
 40
0.2857142857142857
 40
0.2857142857142857
 40
0.2857142857142857
 40
0.4285714285714285
 40
0.4285714285714285
 40
0.4285714285714285
 40
0.4285714285714285
 40
0.5714285714285714
 40
0.5714285714285714
 40
0.5714285714285714
 40
0.5714285714285714
 40
0.7142857142857143
 40
0.7142857142857143
 40
0.7142857142857143
 40
0.7142857142857143
 40
1.0
 40
1.0
 40
1.0
 40
1.0
 10
-4.966
 20
-3.059
 30
0.0
 10
-4.966
 20
-3.059
 30
0.0
 10
-4.9808
 20
-2.9805
 30
0.0
 10
-4.9808
 20
-2.9805
 30
0.0
 10
-4.9808
 20
-2.9805
 30
0.0
 10
-4.9808
 20
-2.9805
 30
0.0
 10
-5.0241
 20
-2.9085
 30
0.0
 10
-5.0241
 20
-2.9085
 30
0.0
 10
-5.0241
 20
-2.9085
 30
0.0
 10
-5.0241
 20
-2.9085
 30
0.0
 10
-5.0931
 20
-2.8477
 30
0.0
 10
-5.0931
 20
-2.8477
 30
0.0
 10
-5.0931
 20
-2.8477
 30
0.0
 10
-5.0931
 20
-2.8477
 30
0.0
 10
-5.1831
 20
-2.8017
 30
0.0
 10
-5.1831
 20
-2.8017
 30
0.0
 10
-5.1831
 20
-2.8017
 30
0.0
 10
-5.1831
 20
-2.8017
 30
0.0
 10
-5.2878
 20
-2.7731
 30
0.0
 10
-5.2878
 20
-2.7731
 30
0.0
 10
-5.2878
 20
-2.7731
 30
0.0
 10
-5.2878
 20
-2.7731
 30
0.0
 10
-5.4
 20
-2.7634
 30
0.0
 10
-5.4
 20
-2.7634
 30
0.0
  0
SPLINE
  5
CD
330
1F
100
AcDbEntity
  8
DEFAULT_1
 62
   250
100
AcDbSpline
210
0.0
220
0.0
230
1.0
 70
     8
 71
     3
 72
    28
 73
    24
 74
     0
 42
0.0000000001
 43
0.0000000001
 40
0.0
 40
0.0
 40
0.0
 40
0.0
 40
0.1428571428571428
 40
0.1428571428571428
 40
0.1428571428571428
 40
0.1428571428571428
 40
0.2857142857142857
 40
0.2857142857142857
 40
0.2857142857142857
 40
0.2857142857142857
 40
0.4285714285714285
 40
0.4285714285714285
 40
0.4285714285714285
 40
0.4285714285714285
 40
0.5714285714285714
 40
0.5714285714285714
 40
0.5714285714285714
 40
0.5714285714285714
 40
0.7142857142857143
 40
0.7142857142857143
 40
0.7142857142857143
 40
0.7142857142857143
 40
1.0
 40
1.0
 40
1.0
 40
1.0
 10
-4.966
 20
-11.497
 30
0.0
 10
-4.966
 20
-11.497
 30
0.0
 10
-4.9808
 20
-11.5756
 30
0.0
 10
-4.9808
 20
-11.5756
 30
0.0
 10
-4.9808
 20
-11.5756
 30
0.0
 10
-4.9808
 20
-11.5756
 30
0.0
 10
-5.0241
 20
-11.6475
 30
0.0
 10
-5.0241
 20
-11.6475
 30
0.0
 10
-5.0241
 20
-11.6475
 30
0.0
 10
-5.0241
 20
-11.6475
 30
0.0
 10
-5.0931
 20
-11.7083
 30
0.0
 10
-5.0931
 20
-11.7083
 30
0.0
 10
-5.0931
 20
-11.7083
 30
0.0
 10
-5.0931
 20
-11.7083
 30
0.0
 10
-5.1831
 20
-11.7543
 30
0.0
 10
-5.1831
 20
-11.7543
 30
0.0
 10
-5.1831
 20
-11.7543
 30
0.0
 10
-5.1831
 20
-11.7543
 30
0.0
 10
-5.2878
 20
-11.7829
 30
0.0
 10
-5.2878
 20
-11.7829
 30
0.0
 10
-5.2878
 20
-11.7829
 30
0.0
 10
-5.2878
 20
-11.7829
 30
0.0
 10
-5.4
 20
-11.7926
 30
0.0
 10
-5.4
 20
-11.7926
 30
0.0
  0
SPLINE
  5
CE
330
1F
100
AcDbEntity
  8
DEFAULT_1
 62
   250
100
AcDbSpline
210
0.0
220
0.0
230
1.0
 70
     8
 71
     3
 72
    28
 73
    24
 74
     0
 42
0.0000000001
 43
0.0000000001
 40
0.0
 40
0.0
 40
0.0
 40
0.0
 40
0.1428571428571428
 40
0.1428571428571428
 40
0.1428571428571428
 40
0.1428571428571428
 40
0.2857142857142857
 40
0.2857142857142857
 40
0.2857142857142857
 40
0.2857142857142857
 40
0.4285714285714285
 40
0.4285714285714285
 40
0.4285714285714285
 40
0.4285714285714285
 40
0.5714285714285714
 40
0.5714285714285714
 40
0.5714285714285714
 40
0.5714285714285714
 40
0.7142857142857143
 40
0.7142857142857143
 40
0.7142857142857143
 40
0.7142857142857143
 40
1.0
 40
1.0
 40
1.0
 40
1.0
 10
-5.4
 20
-11.1789
 30
0.0
 10
-5.4
 20
-11.1789
 30
0.0
 10
-5.2878
 20
-11.1901
 30
0.0
 10
-5.2878
 20
-11.1901
 30
0.0
 10
-5.2878
 20
-11.1901
 30
0.0
 10
-5.2878
 20
-11.1901
 30
0.0
 10
-5.1831
 20
-11.2228
 30
0.0
 10
-5.1831
 20
-11.2228
 30
0.0
 10
-5.1831
 20
-11.2228
 30
0.0
 10
-5.1831
 20
-11.2228
 30
0.0
 10
-5.0931
 20
-11.2744
 30
0.0
 10
-5.0931
 20
-11.2744
 30
0.0
 10
-5.0931
 20
-11.2744
 30
0.0
 10
-5.0931
 20
-11.2744
 30
0.0
 10
-5.0241
 20
-11.3408
 30
0.0
 10
-5.0241
 20
-11.3408
 30
0.0
 10
-5.0241
 20
-11.3408
 30
0.0
 10
-5.0241
 20
-11.3408
 30
0.0
 10
-4.9808
 20
-11.4169
 30
0.0
 10
-4.9808
 20
-11.4169
 30
0.0
 10
-4.9808
 20
-11.4169
 30
0.0
 10
-4.9808
 20
-11.4169
 30
0.0
 10
-4.966
 20
-11.497
 30
0.0
 10
-4.966
 20
-11.497
 30
0.0
  0
SPLINE
  5
CF
330
1F
100
AcDbEntity
  8
DEFAULT_1
 62
   250
100
AcDbSpline
210
0.0
220
0.0
230
1.0
 70
     8
 71
     3
 72
    28
 73
    24
 74
     0
 42
0.0000000001
 43
0.0000000001
 40
0.0
 40
0.0
 40
0.0
 40
0.0
 40
0.1428571428571428
 40
0.1428571428571428
 40
0.1428571428571428
 40
0.1428571428571428
 40
0.2857142857142857
 40
0.2857142857142857
 40
0.2857142857142857
 40
0.2857142857142857
 40
0.4285714285714285
 40
0.4285714285714285
 40
0.4285714285714285
 40
0.4285714285714285
 40
0.5714285714285714
 40
0.5714285714285714
 40
0.5714285714285714
 40
0.5714285714285714
 40
0.7142857142857143
 40
0.7142857142857143
 40
0.7142857142857143
 40
0.7142857142857143
 40
1.0
 40
1.0
 40
1.0
 40
1.0
 10
-5.4
 20
-3.3771
 30
0.0
 10
-5.4
 20
-3.3771
 30
0.0
 10
-5.2878
 20
-3.3659
 30
0.0
 10
-5.2878
 20
-3.3659
 30
0.0
 10
-5.2878
 20
-3.3659
 30
0.0
 10
-5.2878
 20
-3.3659
 30
0.0
 10
-5.1831
 20
-3.3332
 30
0.0
 10
-5.1831
 20
-3.3332
 30
0.0
 10
-5.1831
 20
-3.3332
 30
0.0
 10
-5.1831
 20
-3.3332
 30
0.0
 10
-5.0931
 20
-3.2816
 30
0.0
 10
-5.0931
 20
-3.2816
 30
0.0
 10
-5.0931
 20
-3.2816
 30
0.0
 10
-5.0931
 20
-3.2816
 30
0.0
 10
-5.0241
 20
-3.2152
 30
0.0
 10
-5.0241
 20
-3.2152
 30
0.0
 10
-5.0241
 20
-3.2152
 30
0.0
 10
-5.0241
 20
-3.2152
 30
0.0
 10
-4.9808
 20
-3.1391
 30
0.0
 10
-4.9808
 20
-3.1391
 30
0.0
 10
-4.9808
 20
-3.1391
 30
0.0
 10
-4.9808
 20
-3.1391
 30
0.0
 10
-4.966
 20
-3.059
 30
0.0
 10
-4.966
 20
-3.059
 30
0.0
  0
SPLINE
  5
D0
330
1F
100
AcDbEntity
  8
DEFAULT_1
 62
   250
100
AcDbSpline
210
0.0
220
0.0
230
1.0
 70
     8
 71
     3
 72
    28
 73
    24
 74
     0
 42
0.0000000001
 43
0.0000000001
 40
0.0
 40
0.0
 40
0.0
 40
0.0
 40
0.1428571428571428
 40
0.1428571428571428
 40
0.1428571428571428
 40
0.1428571428571428
 40
0.2857142857142857
 40
0.2857142857142857
 40
0.2857142857142857
 40
0.2857142857142857
 40
0.4285714285714285
 40
0.4285714285714285
 40
0.4285714285714285
 40
0.4285714285714285
 40
0.5714285714285714
 40
0.5714285714285714
 40
0.5714285714285714
 40
0.5714285714285714
 40
0.7142857142857143
 40
0.7142857142857143
 40
0.7142857142857143
 40
0.7142857142857143
 40
1.0
 40
1.0
 40
1.0
 40
1.0
 10
-10.6112
 20
-24.787
 30
0.0
 10
-10.6112
 20
-24.787
 30
0.0
 10
-10.5678
 20
-24.7826
 30
0.0
 10
-10.5678
 20
-24.7826
 30
0.0
 10
-10.5678
 20
-24.7826
 30
0.0
 10
-10.5678
 20
-24.7826
 30
0.0
 10
-10.4855
 20
-24.7478
 30
0.0
 10
-10.4855
 20
-24.7478
 30
0.0
 10
-10.4855
 20
-24.7478
 30
0.0
 10
-10.4855
 20
-24.7478
 30
0.0
 10
-10.4144
 20
-24.6811
 30
0.0
 10
-10.4144
 20
-24.6811
 30
0.0
 10
-10.4144
 20
-24.6811
 30
0.0
 10
-10.4144
 20
-24.6811
 30
0.0
 10
-10.3598
 20
-24.5876
 30
0.0
 10
-10.3598
 20
-24.5876
 30
0.0
 10
-10.3598
 20
-24.5876
 30
0.0
 10
-10.3598
 20
-24.5876
 30
0.0
 10
-10.3255
 20
-24.4753
 30
0.0
 10
-10.3255
 20
-24.4753
 30
0.0
 10
-10.3255
 20
-24.4753
 30
0.0
 10
-10.3255
 20
-24.4753
 30
0.0
 10
-10.3139
 20
-24.3531
 30
0.0
 10
-10.3139
 20
-24.3531
 30
0.0
  0
SPLINE
  5
D1
330
1F
100
AcDbEntity
  8
DEFAULT_1
 62
   250
100
AcDbSpline
210
0.0
220
0.0
230
1.0
 70
     8
 71
     3
 72
    28
 73
    24
 74
     0
 42
0.0000000001
 43
0.0000000001
 40
0.0
 40
0.0
 40
0.0
 40
0.0
 40
0.1428571428571428
 40
0.1428571428571428
 40
0.1428571428571428
 40
0.1428571428571428
 40
0.2857142857142857
 40
0.2857142857142857
 40
0.2857142857142857
 40
0.2857142857142857
 40
0.4285714285714285
 40
0.4285714285714285
 40
0.4285714285714285
 40
0.4285714285714285
 40
0.5714285714285714
 40
0.5714285714285714
 40
0.5714285714285714
 40
0.5714285714285714
 40
0.7142857142857143
 40
0.7142857142857143
 40
0.7142857142857143
 40
0.7142857142857143
 40
1.0
 40
1.0
 40
1.0
 40
1.0
 10
-20.5834
 20
-24.787
 30
0.0
 10
-20.5834
 20
-24.787
 30
0.0
 10
-20.6266
 20
-24.7827
 30
0.0
 10
-20.6266
 20
-24.7827
 30
0.0
 10
-20.6266
 20
-24.7827
 30
0.0
 10
-20.6266
 20
-24.7827
 30
0.0
 10
-20.709
 20
-24.7479
 30
0.0
 10
-20.709
 20
-24.7479
 30
0.0
 10
-20.709
 20
-24.7479
 30
0.0
 10
-20.709
 20
-24.7479
 30
0.0
 10
-20.7802
 20
-24.6811
 30
0.0
 10
-20.7802
 20
-24.6811
 30
0.0
 10
-20.7802
 20
-24.6811
 30
0.0
 10
-20.7802
 20
-24.6811
 30
0.0
 10
-20.8348
 20
-24.5877
 30
0.0
 10
-20.8348
 20
-24.5877
 30
0.0
 10
-20.8348
 20
-24.5877
 30
0.0
 10
-20.8348
 20
-24.5877
 30
0.0
 10
-20.8691
 20
-24.4753
 30
0.0
 10
-20.8691
 20
-24.4753
 30
0.0
 10
-20.8691
 20
-24.4753
 30
0.0
 10
-20.8691
 20
-24.4753
 30
0.0
 10
-20.8807
 20
-24.3531
 30
0.0
 10
-20.8807
 20
-24.3531
 30
0.0
  0
SPLINE
  5
D2
330
1F
100
AcDbEntity
  8
DEFAULT_1
 62
   250
100
AcDbSpline
210
0.0
220
0.0
230
1.0
 70
     8
 71
     3
 72
    28
 73
    24
 74
     0
 42
0.0000000001
 43
0.0000000001
 40
0.0
 40
0.0
 40
0.0
 40
0.0
 40
0.1428571428571428
 40
0.1428571428571428
 40
0.1428571428571428
 40
0.1428571428571428
 40
0.2857142857142857
 40
0.2857142857142857
 40
0.2857142857142857
 40
0.2857142857142857
 40
0.4285714285714285
 40
0.4285714285714285
 40
0.4285714285714285
 40
0.4285714285714285
 40
0.5714285714285714
 40
0.5714285714285714
 40
0.5714285714285714
 40
0.5714285714285714
 40
0.7142857142857143
 40
0.7142857142857143
 40
0.7142857142857143
 40
0.7142857142857143
 40
1.0
 40
1.0
 40
1.0
 40
1.0
 10
-20.2671
 20
-24.3531
 30
0.0
 10
-20.2671
 20
-24.3531
 30
0.0
 10
-20.2802
 20
-24.4752
 30
0.0
 10
-20.2802
 20
-24.4752
 30
0.0
 10
-20.2802
 20
-24.4752
 30
0.0
 10
-20.2802
 20
-24.4752
 30
0.0
 10
-20.3185
 20
-24.5876
 30
0.0
 10
-20.3185
 20
-24.5876
 30
0.0
 10
-20.3185
 20
-24.5876
 30
0.0
 10
-20.3185
 20
-24.5876
 30
0.0
 10
-20.3783
 20
-24.681
 30
0.0
 10
-20.3783
 20
-24.681
 30
0.0
 10
-20.3783
 20
-24.681
 30
0.0
 10
-20.3783
 20
-24.681
 30
0.0
 10
-20.4542
 20
-24.7478
 30
0.0
 10
-20.4542
 20
-24.7478
 30
0.0
 10
-20.4542
 20
-24.7478
 30
0.0
 10
-20.4542
 20
-24.7478
 30
0.0
 10
-20.5394
 20
-24.7826
 30
0.0
 10
-20.5394
 20
-24.7826
 30
0.0
 10
-20.5394
 20
-24.7826
 30
0.0
 10
-20.5394
 20
-24.7826
 30
0.0
 10
-20.5834
 20
-24.787
 30
0.0
 10
-20.5834
 20
-24.787
 30
0.0
  0
SPLINE
  5
D3
330
1F
100
AcDbEntity
  8
DEFAULT_1
 62
   250
100
AcDbSpline
210
0.0
220
0.0
230
1.0
 70
     8
 71
     3
 72
    28
 73
    24
 74
     0
 42
0.0000000001
 43
0.0000000001
 40
0.0
 40
0.0
 40
0.0
 40
0.0
 40
0.1428571428571428
 40
0.1428571428571428
 40
0.1428571428571428
 40
0.1428571428571428
 40
0.2857142857142857
 40
0.2857142857142857
 40
0.2857142857142857
 40
0.2857142857142857
 40
0.4285714285714285
 40
0.4285714285714285
 40
0.4285714285714285
 40
0.4285714285714285
 40
0.5714285714285714
 40
0.5714285714285714
 40
0.5714285714285714
 40
0.5714285714285714
 40
0.7142857142857143
 40
0.7142857142857143
 40
0.7142857142857143
 40
0.7142857142857143
 40
1.0
 40
1.0
 40
1.0
 40
1.0
 10
-10.9275
 20
-24.3531
 30
0.0
 10
-10.9275
 20
-24.3531
 30
0.0
 10
-10.9144
 20
-24.4753
 30
0.0
 10
-10.9144
 20
-24.4753
 30
0.0
 10
-10.9144
 20
-24.4753
 30
0.0
 10
-10.9144
 20
-24.4753
 30
0.0
 10
-10.8761
 20
-24.5876
 30
0.0
 10
-10.8761
 20
-24.5876
 30
0.0
 10
-10.8761
 20
-24.5876
 30
0.0
 10
-10.8761
 20
-24.5876
 30
0.0
 10
-10.8162
 20
-24.6811
 30
0.0
 10
-10.8162
 20
-24.6811
 30
0.0
 10
-10.8162
 20
-24.6811
 30
0.0
 10
-10.8162
 20
-24.6811
 30
0.0
 10
-10.7403
 20
-24.7478
 30
0.0
 10
-10.7403
 20
-24.7478
 30
0.0
 10
-10.7403
 20
-24.7478
 30
0.0
 10
-10.7403
 20
-24.7478
 30
0.0
 10
-10.6551
 20
-24.7826
 30
0.0
 10
-10.6551
 20
-24.7826
 30
0.0
 10
-10.6551
 20
-24.7826
 30
0.0
 10
-10.6551
 20
-24.7826
 30
0.0
 10
-10.6112
 20
-24.787
 30
0.0
 10
-10.6112
 20
-24.787
 30
0.0
  0
SPLINE
  5
D4
330
1F
100
AcDbEntity
  8
DEFAULT_1
 62
   250
100
AcDbSpline
210
0.0
220
0.0
230
1.0
 70
     8
 71
     3
 72
    32
 73
    28
 74
     0
 42
0.0000000001
 43
0.0000000001
 40
0.0
 40
0.0
 40
0.0
 40
0.0
 40
0.125
 40
0.125
 40
0.125
 40
0.125
 40
0.25
 40
0.25
 40
0.25
 40
0.25
 40
0.375
 40
0.375
 40
0.375
 40
0.375
 40
0.5
 40
0.5
 40
0.5
 40
0.5
 40
0.625
 40
0.625
 40
0.625
 40
0.625
 40
0.75
 40
0.75
 40
0.75
 40
0.75
 40
1.0
 40
1.0
 40
1.0
 40
1.0
 10
-18.7901
 20
8.2427
 30
0.0
 10
-18.7901
 20
8.2427
 30
0.0
 10
-19.2357
 20
8.3824
 30
0.0
 10
-19.2357
 20
8.3824
 30
0.0
 10
-19.2357
 20
8.3824
 30
0.0
 10
-19.2357
 20
8.3824
 30
0.0
 10
-19.6222
 20
8.5776
 30
0.0
 10
-19.6222
 20
8.5776
 30
0.0
 10
-19.6222
 20
8.5776
 30
0.0
 10
-19.6222
 20
8.5776
 30
0.0
 10
-19.9381
 20
8.8267
 30
0.0
 10
-19.9381
 20
8.8267
 30
0.0
 10
-19.9381
 20
8.8267
 30
0.0
 10
-19.9381
 20
8.8267
 30
0.0
 10
-20.1797
 20
9.1226
 30
0.0
 10
-20.1797
 20
9.1226
 30
0.0
 10
-20.1797
 20
9.1226
 30
0.0
 10
-20.1797
 20
9.1226
 30
0.0
 10
-20.3526
 20
9.456
 30
0.0
 10
-20.3526
 20
9.456
 30
0.0
 10
-20.3526
 20
9.456
 30
0.0
 10
-20.3526
 20
9.456
 30
0.0
 10
-20.4651
 20
9.8138
 30
0.0
 10
-20.4651
 20
9.8138
 30
0.0
 10
-20.4651
 20
9.8138
 30
0.0
 10
-20.4651
 20
9.8138
 30
0.0
 10
-20.5264
 20
10.1787
 30
0.0
 10
-20.5264
 20
10.1787
 30
0.0
  0
SPLINE
  5
D5
330
1F
100
AcDbEntity
  8
DEFAULT_1
 62
   250
100
AcDbSpline
210
0.0
220
0.0
230
1.0
 70
     8
 71
     3
 72
    16
 73
    12
 74
     0
 42
0.0000000001
 43
0.0000000001
 40
0.0
 40
0.0
 40
0.0
 40
0.0
 40
0.25
 40
0.25
 40
0.25
 40
0.25
 40
0.5
 40
0.5
 40
0.5
 40
0.5
 40
1.0
 40
1.0
 40
1.0
 40
1.0
 10
-17.6585
 20
8.111
 30
0.0
 10
-17.6585
 20
8.111
 30
0.0
 10
-18.0336
 20
8.1251
 30
0.0
 10
-18.0336
 20
8.1251
 30
0.0
 10
-18.0336
 20
8.1251
 30
0.0
 10
-18.0336
 20
8.1251
 30
0.0
 10
-18.4129
 20
8.1686
 30
0.0
 10
-18.4129
 20
8.1686
 30
0.0
 10
-18.4129
 20
8.1686
 30
0.0
 10
-18.4129
 20
8.1686
 30
0.0
 10
-18.7901
 20
8.2427
 30
0.0
 10
-18.7901
 20
8.2427
 30
0.0
  0
SPLINE
  5
D6
330
1F
100
AcDbEntity
  8
DEFAULT_1
 62
   250
100
AcDbSpline
210
0.0
220
0.0
230
1.0
 70
     8
 71
     3
 72
    16
 73
    12
 74
     0
 42
0.0000000001
 43
0.0000000001
 40
0.0
 40
0.0
 40
0.0
 40
0.0
 40
0.25
 40
0.25
 40
0.25
 40
0.25
 40
0.5
 40
0.5
 40
0.5
 40
0.5
 40
1.0
 40
1.0
 40
1.0
 40
1.0
 10
-16.5268
 20
8.2427
 30
0.0
 10
-16.5268
 20
8.2427
 30
0.0
 10
-16.904
 20
8.1686
 30
0.0
 10
-16.904
 20
8.1686
 30
0.0
 10
-16.904
 20
8.1686
 30
0.0
 10
-16.904
 20
8.1686
 30
0.0
 10
-17.2832
 20
8.1251
 30
0.0
 10
-17.2832
 20
8.1251
 30
0.0
 10
-17.2832
 20
8.1251
 30
0.0
 10
-17.2832
 20
8.1251
 30
0.0
 10
-17.6585
 20
8.111
 30
0.0
 10
-17.6585
 20
8.111
 30
0.0
  0
SPLINE
  5
D7
330
1F
100
AcDbEntity
  8
DEFAULT_1
 62
   250
100
AcDbSpline
210
0.0
220
0.0
230
1.0
 70
     8
 71
     3
 72
    12
 73
     8
 74
     0
 42
0.0000000001
 43
0.0000000001
 40
0.0
 40
0.0
 40
0.0
 40
0.0
 40
0.3333333333333333
 40
0.3333333333333333
 40
0.3333333333333333
 40
0.3333333333333333
 40
1.0
 40
1.0
 40
1.0
 40
1.0
 10
-20.1854
 20
16.5341
 30
0.0
 10
-20.1854
 20
16.5341
 30
0.0
 10
-19.6291
 20
15.9572
 30
0.0
 10
-19.6291
 20
15.9572
 30
0.0
 10
-19.6291
 20
15.9572
 30
0.0
 10
-19.6291
 20
15.9572
 30
0.0
 10
-19.0556
 20
15.5233
 30
0.0
 10
-19.0556
 20
15.5233
 30
0.0
  0
SPLINE
  5
D8
330
1F
100
AcDbEntity
  8
DEFAULT_1
 62
   250
100
AcDbSpline
210
0.0
220
0.0
230
1.0
 70
     8
 71
     3
 72
    36
 73
    32
 74
     0
 42
0.0000000001
 43
0.0000000001
 40
0.0
 40
0.0
 40
0.0
 40
0.0
 40
0.1111111111111111
 40
0.1111111111111111
 40
0.1111111111111111
 40
0.1111111111111111
 40
0.2222222222222222
 40
0.2222222222222222
 40
0.2222222222222222
 40
0.2222222222222222
 40
0.3333333333333333
 40
0.3333333333333333
 40
0.3333333333333333
 40
0.3333333333333333
 40
0.4444444444444444
 40
0.4444444444444444
 40
0.4444444444444444
 40
0.4444444444444444
 40
0.5555555555555556
 40
0.5555555555555556
 40
0.5555555555555556
 40
0.5555555555555556
 40
0.6666666666666666
 40
0.6666666666666666
 40
0.6666666666666666
 40
0.6666666666666666
 40
0.7777777777777778
 40
0.7777777777777778
 40
0.7777777777777778
 40
0.7777777777777778
 40
1.0
 40
1.0
 40
1.0
 40
1.0
 10
-25.1186
 20
14.9838
 30
0.0
 10
-25.1186
 20
14.9838
 30
0.0
 10
-24.5118
 20
15.0063
 30
0.0
 10
-24.5118
 20
15.0063
 30
0.0
 10
-24.5118
 20
15.0063
 30
0.0
 10
-24.5118
 20
15.0063
 30
0.0
 10
-23.8889
 20
15.1007
 30
0.0
 10
-23.8889
 20
15.1007
 30
0.0
 10
-23.8889
 20
15.1007
 30
0.0
 10
-23.8889
 20
15.1007
 30
0.0
 10
-23.2289
 20
15.2678
 30
0.0
 10
-23.2289
 20
15.2678
 30
0.0
 10
-23.2289
 20
15.2678
 30
0.0
 10
-23.2289
 20
15.2678
 30
0.0
 10
-22.5053
 20
15.5123
 30
0.0
 10
-22.5053
 20
15.5123
 30
0.0
 10
-22.5053
 20
15.5123
 30
0.0
 10
-22.5053
 20
15.5123
 30
0.0
 10
-21.6999
 20
15.8388
 30
0.0
 10
-21.6999
 20
15.8388
 30
0.0
 10
-21.6999
 20
15.8388
 30
0.0
 10
-21.6999
 20
15.8388
 30
0.0
 10
-20.8038
 20
16.2489
 30
0.0
 10
-20.8038
 20
16.2489
 30
0.0
 10
-20.8038
 20
16.2489
 30
0.0
 10
-20.8038
 20
16.2489
 30
0.0
 10
-19.8084
 20
16.7444
 30
0.0
 10
-19.8084
 20
16.7444
 30
0.0
 10
-19.8084
 20
16.7444
 30
0.0
 10
-19.8084
 20
16.7444
 30
0.0
 10
-18.7077
 20
17.3262
 30
0.0
 10
-18.7077
 20
17.3262
 30
0.0
  0
SPLINE
  5
D9
330
1F
100
AcDbEntity
  8
DEFAULT_1
 62
   250
100
AcDbSpline
210
0.0
220
0.0
230
1.0
 70
     8
 71
     3
 72
    16
 73
    12
 74
     0
 42
0.0000000001
 43
0.0000000001
 40
0.0
 40
0.0
 40
0.0
 40
0.0
 40
0.25
 40
0.25
 40
0.25
 40
0.25
 40
0.5
 40
0.5
 40
0.5
 40
0.5
 40
1.0
 40
1.0
 40
1.0
 40
1.0
 10
-20.5264
 20
10.1787
 30
0.0
 10
-20.5264
 20
10.1787
 30
0.0
 10
-20.5393
 20
10.2419
 30
0.0
 10
-20.5393
 20
10.2419
 30
0.0
 10
-20.5393
 20
10.2419
 30
0.0
 10
-20.5393
 20
10.2419
 30
0.0
 10
-20.5518
 20
10.3042
 30
0.0
 10
-20.5518
 20
10.3042
 30
0.0
 10
-20.5518
 20
10.3042
 30
0.0
 10
-20.5518
 20
10.3042
 30
0.0
 10
-20.5641
 20
10.3659
 30
0.0
 10
-20.5641
 20
10.3659
 30
0.0
  0
SPLINE
  5
DA
330
1F
100
AcDbEntity
  8
DEFAULT_1
 62
   250
100
AcDbSpline
210
0.0
220
0.0
230
1.0
 70
     8
 71
     3
 72
    16
 73
    12
 74
     0
 42
0.0000000001
 43
0.0000000001
 40
0.0
 40
0.0
 40
0.0
 40
0.0
 40
0.25
 40
0.25
 40
0.25
 40
0.25
 40
0.5
 40
0.5
 40
0.5
 40
0.5
 40
1.0
 40
1.0
 40
1.0
 40
1.0
 10
-19.616
 20
10.3005
 30
0.0
 10
-19.616
 20
10.3005
 30
0.0
 10
-19.6274
 20
10.3821
 30
0.0
 10
-19.6274
 20
10.3821
 30
0.0
 10
-19.6274
 20
10.3821
 30
0.0
 10
-19.6274
 20
10.3821
 30
0.0
 10
-19.6437
 20
10.4634
 30
0.0
 10
-19.6437
 20
10.4634
 30
0.0
 10
-19.6437
 20
10.4634
 30
0.0
 10
-19.6437
 20
10.4634
 30
0.0
 10
-19.665
 20
10.5439
 30
0.0
 10
-19.665
 20
10.5439
 30
0.0
  0
SPLINE
  5
DB
330
1F
100
AcDbEntity
  8
DEFAULT_1
 62
   250
100
AcDbSpline
210
0.0
220
0.0
230
1.0
 70
     8
 71
     3
 72
    16
 73
    12
 74
     0
 42
0.0000000001
 43
0.0000000001
 40
0.0
 40
0.0
 40
0.0
 40
0.0
 40
0.25
 40
0.25
 40
0.25
 40
0.25
 40
0.5
 40
0.5
 40
0.5
 40
0.5
 40
1.0
 40
1.0
 40
1.0
 40
1.0
 10
-15.6992
 20
10.5439
 30
0.0
 10
-15.6992
 20
10.5439
 30
0.0
 10
-15.6943
 20
10.4625
 30
0.0
 10
-15.6943
 20
10.4625
 30
0.0
 10
-15.6943
 20
10.4625
 30
0.0
 10
-15.6943
 20
10.4625
 30
0.0
 10
-15.6949
 20
10.3813
 30
0.0
 10
-15.6949
 20
10.3813
 30
0.0
 10
-15.6949
 20
10.3813
 30
0.0
 10
-15.6949
 20
10.3813
 30
0.0
 10
-15.701
 20
10.3005
 30
0.0
 10
-15.701
 20
10.3005
 30
0.0
  0
SPLINE
  5
DC
330
1F
100
AcDbEntity
  8
DEFAULT_1
 62
   250
100
AcDbSpline
210
0.0
220
0.0
230
1.0
 70
     8
 71
     3
 72
    32
 73
    28
 74
     0
 42
0.0000000001
 43
0.0000000001
 40
0.0
 40
0.0
 40
0.0
 40
0.0
 40
0.125
 40
0.125
 40
0.125
 40
0.125
 40
0.25
 40
0.25
 40
0.25
 40
0.25
 40
0.375
 40
0.375
 40
0.375
 40
0.375
 40
0.5
 40
0.5
 40
0.5
 40
0.5
 40
0.625
 40
0.625
 40
0.625
 40
0.625
 40
0.75
 40
0.75
 40
0.75
 40
0.75
 40
1.0
 40
1.0
 40
1.0
 40
1.0
 10
-15.701
 20
10.3005
 30
0.0
 10
-15.701
 20
10.3005
 30
0.0
 10
-15.7428
 20
10.0573
 30
0.0
 10
-15.7428
 20
10.0573
 30
0.0
 10
-15.7428
 20
10.0573
 30
0.0
 10
-15.7428
 20
10.0573
 30
0.0
 10
-15.8196
 20
9.8187
 30
0.0
 10
-15.8196
 20
9.8187
 30
0.0
 10
-15.8196
 20
9.8187
 30
0.0
 10
-15.8196
 20
9.8187
 30
0.0
 10
-15.9376
 20
9.5964
 30
0.0
 10
-15.9376
 20
9.5964
 30
0.0
 10
-15.9376
 20
9.5964
 30
0.0
 10
-15.9376
 20
9.5964
 30
0.0
 10
-16.1024
 20
9.3991
 30
0.0
 10
-16.1024
 20
9.3991
 30
0.0
 10
-16.1024
 20
9.3991
 30
0.0
 10
-16.1024
 20
9.3991
 30
0.0
 10
-16.3181
 20
9.233
 30
0.0
 10
-16.3181
 20
9.233
 30
0.0
 10
-16.3181
 20
9.233
 30
0.0
 10
-16.3181
 20
9.233
 30
0.0
 10
-16.5819
 20
9.1029
 30
0.0
 10
-16.5819
 20
9.1029
 30
0.0
 10
-16.5819
 20
9.1029
 30
0.0
 10
-16.5819
 20
9.1029
 30
0.0
 10
-16.8861
 20
9.0098
 30
0.0
 10
-16.8861
 20
9.0098
 30
0.0
  0
SPLINE
  5
DD
330
1F
100
AcDbEntity
  8
DEFAULT_1
 62
   250
100
AcDbSpline
210
0.0
220
0.0
230
1.0
 70
     8
 71
     3
 72
    32
 73
    28
 74
     0
 42
0.0000000001
 43
0.0000000001
 40
0.0
 40
0.0
 40
0.0
 40
0.0
 40
0.125
 40
0.125
 40
0.125
 40
0.125
 40
0.25
 40
0.25
 40
0.25
 40
0.25
 40
0.375
 40
0.375
 40
0.375
 40
0.375
 40
0.5
 40
0.5
 40
0.5
 40
0.5
 40
0.625
 40
0.625
 40
0.625
 40
0.625
 40
0.75
 40
0.75
 40
0.75
 40
0.75
 40
1.0
 40
1.0
 40
1.0
 40
1.0
 10
-18.4309
 20
9.0098
 30
0.0
 10
-18.4309
 20
9.0098
 30
0.0
 10
-18.735
 20
9.1029
 30
0.0
 10
-18.735
 20
9.1029
 30
0.0
 10
-18.735
 20
9.1029
 30
0.0
 10
-18.735
 20
9.1029
 30
0.0
 10
-18.9987
 20
9.233
 30
0.0
 10
-18.9987
 20
9.233
 30
0.0
 10
-18.9987
 20
9.233
 30
0.0
 10
-18.9987
 20
9.233
 30
0.0
 10
-19.2144
 20
9.399
 30
0.0
 10
-19.2144
 20
9.399
 30
0.0
 10
-19.2144
 20
9.399
 30
0.0
 10
-19.2144
 20
9.399
 30
0.0
 10
-19.3793
 20
9.5963
 30
0.0
 10
-19.3793
 20
9.5963
 30
0.0
 10
-19.3793
 20
9.5963
 30
0.0
 10
-19.3793
 20
9.5963
 30
0.0
 10
-19.4973
 20
9.8186
 30
0.0
 10
-19.4973
 20
9.8186
 30
0.0
 10
-19.4973
 20
9.8186
 30
0.0
 10
-19.4973
 20
9.8186
 30
0.0
 10
-19.5741
 20
10.0571
 30
0.0
 10
-19.5741
 20
10.0571
 30
0.0
 10
-19.5741
 20
10.0571
 30
0.0
 10
-19.5741
 20
10.0571
 30
0.0
 10
-19.616
 20
10.3005
 30
0.0
 10
-19.616
 20
10.3005
 30
0.0
  0
SPLINE
  5
DE
330
1F
100
AcDbEntity
  8
DEFAULT_1
 62
   250
100
AcDbSpline
210
0.0
220
0.0
230
1.0
 70
     8
 71
     3
 72
    32
 73
    28
 74
     0
 42
0.0000000001
 43
0.0000000001
 40
0.0
 40
0.0
 40
0.0
 40
0.0
 40
0.125
 40
0.125
 40
0.125
 40
0.125
 40
0.25
 40
0.25
 40
0.25
 40
0.25
 40
0.375
 40
0.375
 40
0.375
 40
0.375
 40
0.5
 40
0.5
 40
0.5
 40
0.5
 40
0.625
 40
0.625
 40
0.625
 40
0.625
 40
0.75
 40
0.75
 40
0.75
 40
0.75
 40
1.0
 40
1.0
 40
1.0
 40
1.0
 10
-14.7905
 20
10.1789
 30
0.0
 10
-14.7905
 20
10.1789
 30
0.0
 10
-14.8517
 20
9.8141
 30
0.0
 10
-14.8517
 20
9.8141
 30
0.0
 10
-14.8517
 20
9.8141
 30
0.0
 10
-14.8517
 20
9.8141
 30
0.0
 10
-14.9642
 20
9.4562
 30
0.0
 10
-14.9642
 20
9.4562
 30
0.0
 10
-14.9642
 20
9.4562
 30
0.0
 10
-14.9642
 20
9.4562
 30
0.0
 10
-15.1371
 20
9.1227
 30
0.0
 10
-15.1371
 20
9.1227
 30
0.0
 10
-15.1371
 20
9.1227
 30
0.0
 10
-15.1371
 20
9.1227
 30
0.0
 10
-15.3787
 20
8.8268
 30
0.0
 10
-15.3787
 20
8.8268
 30
0.0
 10
-15.3787
 20
8.8268
 30
0.0
 10
-15.3787
 20
8.8268
 30
0.0
 10
-15.6946
 20
8.5776
 30
0.0
 10
-15.6946
 20
8.5776
 30
0.0
 10
-15.6946
 20
8.5776
 30
0.0
 10
-15.6946
 20
8.5776
 30
0.0
 10
-16.0812
 20
8.3824
 30
0.0
 10
-16.0812
 20
8.3824
 30
0.0
 10
-16.0812
 20
8.3824
 30
0.0
 10
-16.0812
 20
8.3824
 30
0.0
 10
-16.5268
 20
8.2427
 30
0.0
 10
-16.5268
 20
8.2427
 30
0.0
  0
SPLINE
  5
DF
330
1F
100
AcDbEntity
  8
DEFAULT_1
 62
   250
100
AcDbSpline
210
0.0
220
0.0
230
1.0
 70
     8
 71
     3
 72
    16
 73
    12
 74
     0
 42
0.0000000001
 43
0.0000000001
 40
0.0
 40
0.0
 40
0.0
 40
0.0
 40
0.25
 40
0.25
 40
0.25
 40
0.25
 40
0.5
 40
0.5
 40
0.5
 40
0.5
 40
1.0
 40
1.0
 40
1.0
 40
1.0
 10
-14.7845
 20
10.6014
 30
0.0
 10
-14.7845
 20
10.6014
 30
0.0
 10
-14.7792
 20
10.46
 30
0.0
 10
-14.7792
 20
10.46
 30
0.0
 10
-14.7792
 20
10.46
 30
0.0
 10
-14.7792
 20
10.46
 30
0.0
 10
-14.7812
 20
10.319
 30
0.0
 10
-14.7812
 20
10.319
 30
0.0
 10
-14.7812
 20
10.319
 30
0.0
 10
-14.7812
 20
10.319
 30
0.0
 10
-14.7905
 20
10.1789
 30
0.0
 10
-14.7905
 20
10.1789
 30
0.0
  0
SPLINE
  5
E0
330
1F
100
AcDbEntity
  8
DEFAULT_1
 62
   250
100
AcDbSpline
210
0.0
220
0.0
230
1.0
 70
     8
 71
     3
 72
    16
 73
    12
 74
     0
 42
0.0000000001
 43
0.0000000001
 40
0.0
 40
0.0
 40
0.0
 40
0.0
 40
0.25
 40
0.25
 40
0.25
 40
0.25
 40
0.5
 40
0.5
 40
0.5
 40
0.5
 40
1.0
 40
1.0
 40
1.0
 40
1.0
 10
-25.3228
 20
14.4803
 30
0.0
 10
-25.3228
 20
14.4803
 30
0.0
 10
-25.2551
 20
14.664
 30
0.0
 10
-25.2551
 20
14.664
 30
0.0
 10
-25.2551
 20
14.664
 30
0.0
 10
-25.2551
 20
14.664
 30
0.0
 10
-25.186
 20
14.8353
 30
0.0
 10
-25.186
 20
14.8353
 30
0.0
 10
-25.186
 20
14.8353
 30
0.0
 10
-25.186
 20
14.8353
 30
0.0
 10
-25.1186
 20
14.9838
 30
0.0
 10
-25.1186
 20
14.9838
 30
0.0
  0
SPLINE
  5
E1
330
1F
100
AcDbEntity
  8
DEFAULT_1
 62
   250
100
AcDbSpline
210
0.0
220
0.0
230
1.0
 70
     8
 71
     3
 72
    28
 73
    24
 74
     0
 42
0.0000000001
 43
0.0000000001
 40
0.0
 40
0.0
 40
0.0
 40
0.0
 40
0.1428571428571428
 40
0.1428571428571428
 40
0.1428571428571428
 40
0.1428571428571428
 40
0.2857142857142857
 40
0.2857142857142857
 40
0.2857142857142857
 40
0.2857142857142857
 40
0.4285714285714285
 40
0.4285714285714285
 40
0.4285714285714285
 40
0.4285714285714285
 40
0.5714285714285714
 40
0.5714285714285714
 40
0.5714285714285714
 40
0.5714285714285714
 40
0.7142857142857143
 40
0.7142857142857143
 40
0.7142857142857143
 40
0.7142857142857143
 40
1.0
 40
1.0
 40
1.0
 40
1.0
 10
-18.8493
 20
17.1423
 30
0.0
 10
-18.8493
 20
17.1423
 30
0.0
 10
-18.8525
 20
16.9448
 30
0.0
 10
-18.8525
 20
16.9448
 30
0.0
 10
-18.8525
 20
16.9448
 30
0.0
 10
-18.8525
 20
16.9448
 30
0.0
 10
-18.8286
 20
16.7582
 30
0.0
 10
-18.8286
 20
16.7582
 30
0.0
 10
-18.8286
 20
16.7582
 30
0.0
 10
-18.8286
 20
16.7582
 30
0.0
 10
-18.7814
 20
16.5959
 30
0.0
 10
-18.7814
 20
16.5959
 30
0.0
 10
-18.7814
 20
16.5959
 30
0.0
 10
-18.7814
 20
16.5959
 30
0.0
 10
-18.7165
 20
16.4644
 30
0.0
 10
-18.7165
 20
16.4644
 30
0.0
 10
-18.7165
 20
16.4644
 30
0.0
 10
-18.7165
 20
16.4644
 30
0.0
 10
-18.6384
 20
16.3642
 30
0.0
 10
-18.6384
 20
16.3642
 30
0.0
 10
-18.6384
 20
16.3642
 30
0.0
 10
-18.6384
 20
16.3642
 30
0.0
 10
-18.5521
 20
16.2937
 30
0.0
 10
-18.5521
 20
16.2937
 30
0.0
  0
SPLINE
  5
E2
330
1F
100
AcDbEntity
  8
DEFAULT_1
 62
   250
100
AcDbSpline
210
0.0
220
0.0
230
1.0
 70
     8
 71
     3
 72
    44
 73
    40
 74
     0
 42
0.0000000001
 43
0.0000000001
 40
0.0
 40
0.0
 40
0.0
 40
0.0
 40
0.0909090909090909
 40
0.0909090909090909
 40
0.0909090909090909
 40
0.0909090909090909
 40
0.1818181818181818
 40
0.1818181818181818
 40
0.1818181818181818
 40
0.1818181818181818
 40
0.2727272727272727
 40
0.2727272727272727
 40
0.2727272727272727
 40
0.2727272727272727
 40
0.3636363636363636
 40
0.3636363636363636
 40
0.3636363636363636
 40
0.3636363636363636
 40
0.4545454545454545
 40
0.4545454545454545
 40
0.4545454545454545
 40
0.4545454545454545
 40
0.5454545454545454
 40
0.5454545454545454
 40
0.5454545454545454
 40
0.5454545454545454
 40
0.6363636363636364
 40
0.6363636363636364
 40
0.6363636363636364
 40
0.6363636363636364
 40
0.7272727272727273
 40
0.7272727272727273
 40
0.7272727272727273
 40
0.7272727272727273
 40
0.8181818181818182
 40
0.8181818181818182
 40
0.8181818181818182
 40
0.8181818181818182
 40
1.0
 40
1.0
 40
1.0
 40
1.0
 10
-24.0032
 20
12.9324
 30
0.0
 10
-24.0032
 20
12.9324
 30
0.0
 10
-24.2666
 20
13.1126
 30
0.0
 10
-24.2666
 20
13.1126
 30
0.0
 10
-24.2666
 20
13.1126
 30
0.0
 10
-24.2666
 20
13.1126
 30
0.0
 10
-24.494
 20
13.2869
 30
0.0
 10
-24.494
 20
13.2869
 30
0.0
 10
-24.494
 20
13.2869
 30
0.0
 10
-24.494
 20
13.2869
 30
0.0
 10
-24.6891
 20
13.4545
 30
0.0
 10
-24.6891
 20
13.4545
 30
0.0
 10
-24.6891
 20
13.4545
 30
0.0
 10
-24.6891
 20
13.4545
 30
0.0
 10
-24.8556
 20
13.6159
 30
0.0
 10
-24.8556
 20
13.6159
 30
0.0
 10
-24.8556
 20
13.6159
 30
0.0
 10
-24.8556
 20
13.6159
 30
0.0
 10
-24.9958
 20
13.7716
 30
0.0
 10
-24.9958
 20
13.7716
 30
0.0
 10
-24.9958
 20
13.7716
 30
0.0
 10
-24.9958
 20
13.7716
 30
0.0
 10
-25.1112
 20
13.9223
 30
0.0
 10
-25.1112
 20
13.9223
 30
0.0
 10
-25.1112
 20
13.9223
 30
0.0
 10
-25.1112
 20
13.9223
 30
0.0
 10
-25.2024
 20
14.0689
 30
0.0
 10
-25.2024
 20
14.0689
 30
0.0
 10
-25.2024
 20
14.0689
 30
0.0
 10
-25.2024
 20
14.0689
 30
0.0
 10
-25.2689
 20
14.2117
 30
0.0
 10
-25.2689
 20
14.2117
 30
0.0
 10
-25.2689
 20
14.2117
 30
0.0
 10
-25.2689
 20
14.2117
 30
0.0
 10
-25.3093
 20
14.3495
 30
0.0
 10
-25.3093
 20
14.3495
 30
0.0
 10
-25.3093
 20
14.3495
 30
0.0
 10
-25.3093
 20
14.3495
 30
0.0
 10
-25.3228
 20
14.4803
 30
0.0
 10
-25.3228
 20
14.4803
 30
0.0
  0
SPLINE
  5
E3
330
1F
100
AcDbEntity
  8
DEFAULT_1
 62
   250
100
AcDbSpline
210
0.0
220
0.0
230
1.0
 70
     8
 71
     3
 72
    84
 73
    80
 74
     0
 42
0.0000000001
 43
0.0000000001
 40
0.0
 40
0.0
 40
0.0
 40
0.0
 40
0.0476190476190476
 40
0.0476190476190476
 40
0.0476190476190476
 40
0.0476190476190476
 40
0.0952380952380952
 40
0.0952380952380952
 40
0.0952380952380952
 40
0.0952380952380952
 40
0.1428571428571428
 40
0.1428571428571428
 40
0.1428571428571428
 40
0.1428571428571428
 40
0.1904761904761905
 40
0.1904761904761905
 40
0.1904761904761905
 40
0.1904761904761905
 40
0.2380952380952381
 40
0.2380952380952381
 40
0.2380952380952381
 40
0.2380952380952381
 40
0.2857142857142857
 40
0.2857142857142857
 40
0.2857142857142857
 40
0.2857142857142857
 40
0.3333333333333333
 40
0.3333333333333333
 40
0.3333333333333333
 40
0.3333333333333333
 40
0.3809523809523809
 40
0.3809523809523809
 40
0.3809523809523809
 40
0.3809523809523809
 40
0.4285714285714285
 40
0.4285714285714285
 40
0.4285714285714285
 40
0.4285714285714285
 40
0.4761904761904762
 40
0.4761904761904762
 40
0.4761904761904762
 40
0.4761904761904762
 40
0.5238095238095238
 40
0.5238095238095238
 40
0.5238095238095238
 40
0.5238095238095238
 40
0.5714285714285714
 40
0.5714285714285714
 40
0.5714285714285714
 40
0.5714285714285714
 40
0.6190476190476191
 40
0.6190476190476191
 40
0.6190476190476191
 40
0.6190476190476191
 40
0.6666666666666666
 40
0.6666666666666666
 40
0.6666666666666666
 40
0.6666666666666666
 40
0.7142857142857143
 40
0.7142857142857143
 40
0.7142857142857143
 40
0.7142857142857143
 40
0.7619047619047619
 40
0.7619047619047619
 40
0.7619047619047619
 40
0.7619047619047619
 40
0.8095238095238095
 40
0.8095238095238095
 40
0.8095238095238095
 40
0.8095238095238095
 40
0.8571428571428571
 40
0.8571428571428571
 40
0.8571428571428571
 40
0.8571428571428571
 40
0.9047619047619048
 40
0.9047619047619048
 40
0.9047619047619048
 40
0.9047619047619048
 40
1.0
 40
1.0
 40
1.0
 40
1.0
 10
-9.327
 20
-2.4831
 30
0.0
 10
-9.327
 20
-2.4831
 30
0.0
 10
-9.3554
 20
-2.5203
 30
0.0
 10
-9.3554
 20
-2.5203
 30
0.0
 10
-9.3554
 20
-2.5203
 30
0.0
 10
-9.3554
 20
-2.5203
 30
0.0
 10
-9.4664
 20
-2.6669
 30
0.0
 10
-9.4664
 20
-2.6669
 30
0.0
 10
-9.4664
 20
-2.6669
 30
0.0
 10
-9.4664
 20
-2.6669
 30
0.0
 10
-9.6801
 20
-2.955
 30
0.0
 10
-9.6801
 20
-2.955
 30
0.0
 10
-9.6801
 20
-2.955
 30
0.0
 10
-9.6801
 20
-2.955
 30
0.0
 10
-9.9809
 20
-3.3768
 30
0.0
 10
-9.9809
 20
-3.3768
 30
0.0
 10
-9.9809
 20
-3.3768
 30
0.0
 10
-9.9809
 20
-3.3768
 30
0.0
 10
-10.3318
 20
-3.9015
 30
0.0
 10
-10.3318
 20
-3.9015
 30
0.0
 10
-10.3318
 20
-3.9015
 30
0.0
 10
-10.3318
 20
-3.9015
 30
0.0
 10
-10.6939
 20
-4.4998
 30
0.0
 10
-10.6939
 20
-4.4998
 30
0.0
 10
-10.6939
 20
-4.4998
 30
0.0
 10
-10.6939
 20
-4.4998
 30
0.0
 10
-11.0292
 20
-5.1466
 30
0.0
 10
-11.0292
 20
-5.1466
 30
0.0
 10
-11.0292
 20
-5.1466
 30
0.0
 10
-11.0292
 20
-5.1466
 30
0.0
 10
-11.3026
 20
-5.8221
 30
0.0
 10
-11.3026
 20
-5.8221
 30
0.0
 10
-11.3026
 20
-5.8221
 30
0.0
 10
-11.3026
 20
-5.8221
 30
0.0
 10
-11.4883
 20
-6.5306
 30
0.0
 10
-11.4883
 20
-6.5306
 30
0.0
 10
-11.4883
 20
-6.5306
 30
0.0
 10
-11.4883
 20
-6.5306
 30
0.0
 10
-11.5569
 20
-7.2758
 30
0.0
 10
-11.5569
 20
-7.2758
 30
0.0
 10
-11.5569
 20
-7.2758
 30
0.0
 10
-11.5569
 20
-7.2758
 30
0.0
 10
-11.4889
 20
-8.0221
 30
0.0
 10
-11.4889
 20
-8.0221
 30
0.0
 10
-11.4889
 20
-8.0221
 30
0.0
 10
-11.4889
 20
-8.0221
 30
0.0
 10
-11.3028
 20
-8.7331
 30
0.0
 10
-11.3028
 20
-8.7331
 30
0.0
 10
-11.3028
 20
-8.7331
 30
0.0
 10
-11.3028
 20
-8.7331
 30
0.0
 10
-11.0287
 20
-9.4103
 30
0.0
 10
-11.0287
 20
-9.4103
 30
0.0
 10
-11.0287
 20
-9.4103
 30
0.0
 10
-11.0287
 20
-9.4103
 30
0.0
 10
-10.6926
 20
-10.0585
 30
0.0
 10
-10.6926
 20
-10.0585
 30
0.0
 10
-10.6926
 20
-10.0585
 30
0.0
 10
-10.6926
 20
-10.0585
 30
0.0
 10
-10.3304
 20
-10.6567
 30
0.0
 10
-10.3304
 20
-10.6567
 30
0.0
 10
-10.3304
 20
-10.6567
 30
0.0
 10
-10.3304
 20
-10.6567
 30
0.0
 10
-9.9801
 20
-11.1802
 30
0.0
 10
-9.9801
 20
-11.1802
 30
0.0
 10
-9.9801
 20
-11.1802
 30
0.0
 10
-9.9801
 20
-11.1802
 30
0.0
 10
-9.6805
 20
-11.6005
 30
0.0
 10
-9.6805
 20
-11.6005
 30
0.0
 10
-9.6805
 20
-11.6005
 30
0.0
 10
-9.6805
 20
-11.6005
 30
0.0
 10
-9.4671
 20
-11.8882
 30
0.0
 10
-9.4671
 20
-11.8882
 30
0.0
 10
-9.4671
 20
-11.8882
 30
0.0
 10
-9.4671
 20
-11.8882
 30
0.0
 10
-9.3558
 20
-12.0353
 30
0.0
 10
-9.3558
 20
-12.0353
 30
0.0
 10
-9.3558
 20
-12.0353
 30
0.0
 10
-9.3558
 20
-12.0353
 30
0.0
 10
-9.327
 20
-12.0729
 30
0.0
 10
-9.327
 20
-12.0729
 30
0.0
  0
SPLINE
  5
E4
330
1F
100
AcDbEntity
  8
DEFAULT_1
 62
   250
100
AcDbSpline
210
0.0
220
0.0
230
1.0
 70
     8
 71
     3
 72
    68
 73
    64
 74
     0
 42
0.0000000001
 43
0.0000000001
 40
0.0
 40
0.0
 40
0.0
 40
0.0
 40
0.0588235294117647
 40
0.0588235294117647
 40
0.0588235294117647
 40
0.0588235294117647
 40
0.1176470588235294
 40
0.1176470588235294
 40
0.1176470588235294
 40
0.1176470588235294
 40
0.1764705882352941
 40
0.1764705882352941
 40
0.1764705882352941
 40
0.1764705882352941
 40
0.2352941176470588
 40
0.2352941176470588
 40
0.2352941176470588
 40
0.2352941176470588
 40
0.2941176470588235
 40
0.2941176470588235
 40
0.2941176470588235
 40
0.2941176470588235
 40
0.3529411764705883
 40
0.3529411764705883
 40
0.3529411764705883
 40
0.3529411764705883
 40
0.4117647058823529
 40
0.4117647058823529
 40
0.4117647058823529
 40
0.4117647058823529
 40
0.4705882352941176
 40
0.4705882352941176
 40
0.4705882352941176
 40
0.4705882352941176
 40
0.5294117647058824
 40
0.5294117647058824
 40
0.5294117647058824
 40
0.5294117647058824
 40
0.5882352941176471
 40
0.5882352941176471
 40
0.5882352941176471
 40
0.5882352941176471
 40
0.6470588235294118
 40
0.6470588235294118
 40
0.6470588235294118
 40
0.6470588235294118
 40
0.7058823529411765
 40
0.7058823529411765
 40
0.7058823529411765
 40
0.7058823529411765
 40
0.7647058823529411
 40
0.7647058823529411
 40
0.7647058823529411
 40
0.7647058823529411
 40
0.8235294117647058
 40
0.8235294117647058
 40
0.8235294117647058
 40
0.8235294117647058
 40
0.8823529411764706
 40
0.8823529411764706
 40
0.8823529411764706
 40
0.8823529411764706
 40
1.0
 40
1.0
 40
1.0
 40
1.0
 10
-21.5297
 20
-1.8821
 30
0.0
 10
-21.5297
 20
-1.8821
 30
0.0
 10
-21.1632
 20
-1.8625
 30
0.0
 10
-21.1632
 20
-1.8625
 30
0.0
 10
-21.1632
 20
-1.8625
 30
0.0
 10
-21.1632
 20
-1.8625
 30
0.0
 10
-20.7066
 20
-1.8382
 30
0.0
 10
-20.7066
 20
-1.8382
 30
0.0
 10
-20.7066
 20
-1.8382
 30
0.0
 10
-20.7066
 20
-1.8382
 30
0.0
 10
-20.1721
 20
-1.8097
 30
0.0
 10
-20.1721
 20
-1.8097
 30
0.0
 10
-20.1721
 20
-1.8097
 30
0.0
 10
-20.1721
 20
-1.8097
 30
0.0
 10
-19.5749
 20
-1.7779
 30
0.0
 10
-19.5749
 20
-1.7779
 30
0.0
 10
-19.5749
 20
-1.7779
 30
0.0
 10
-19.5749
 20
-1.7779
 30
0.0
 10
-18.9302
 20
-1.7436
 30
0.0
 10
-18.9302
 20
-1.7436
 30
0.0
 10
-18.9302
 20
-1.7436
 30
0.0
 10
-18.9302
 20
-1.7436
 30
0.0
 10
-18.2525
 20
-1.7076
 30
0.0
 10
-18.2525
 20
-1.7076
 30
0.0
 10
-18.2525
 20
-1.7076
 30
0.0
 10
-18.2525
 20
-1.7076
 30
0.0
 10
-17.5617
 20
-1.6709
 30
0.0
 10
-17.5617
 20
-1.6709
 30
0.0
 10
-17.5617
 20
-1.6709
 30
0.0
 10
-17.5617
 20
-1.6709
 30
0.0
 10
-16.8857
 20
-1.635
 30
0.0
 10
-16.8857
 20
-1.635
 30
0.0
 10
-16.8857
 20
-1.635
 30
0.0
 10
-16.8857
 20
-1.635
 30
0.0
 10
-16.2396
 20
-1.6007
 30
0.0
 10
-16.2396
 20
-1.6007
 30
0.0
 10
-16.2396
 20
-1.6007
 30
0.0
 10
-16.2396
 20
-1.6007
 30
0.0
 10
-15.6318
 20
-1.5685
 30
0.0
 10
-15.6318
 20
-1.5685
 30
0.0
 10
-15.6318
 20
-1.5685
 30
0.0
 10
-15.6318
 20
-1.5685
 30
0.0
 10
-15.0866
 20
-1.5396
 30
0.0
 10
-15.0866
 20
-1.5396
 30
0.0
 10
-15.0866
 20
-1.5396
 30
0.0
 10
-15.0866
 20
-1.5396
 30
0.0
 10
-14.6241
 20
-1.5152
 30
0.0
 10
-14.6241
 20
-1.5152
 30
0.0
 10
-14.6241
 20
-1.5152
 30
0.0
 10
-14.6241
 20
-1.5152
 30
0.0
 10
-14.2513
 20
-1.4954
 30
0.0
 10
-14.2513
 20
-1.4954
 30
0.0
 10
-14.2513
 20
-1.4954
 30
0.0
 10
-14.2513
 20
-1.4954
 30
0.0
 10
-13.9769
 20
-1.481
 30
0.0
 10
-13.9769
 20
-1.481
 30
0.0
 10
-13.9769
 20
-1.481
 30
0.0
 10
-13.9769
 20
-1.481
 30
0.0
 10
-13.8094
 20
-1.4721
 30
0.0
 10
-13.8094
 20
-1.4721
 30
0.0
 10
-13.8094
 20
-1.4721
 30
0.0
 10
-13.8094
 20
-1.4721
 30
0.0
 10
-13.7531
 20
-1.4691
 30
0.0
 10
-13.7531
 20
-1.4691
 30
0.0
  0
SPLINE
  5
E5
330
1F
100
AcDbEntity
  8
DEFAULT_1
  6
NEW_LINE1
 62
   250
100
AcDbSpline
210
0.0
220
0.0
230
1.0
 70
    24
 71
     3
 72
     8
 73
     4
 74
     0
 42
0.0000000001
 43
0.0000000001
 40
0.0
 40
0.0
 40
0.0
 40
0.0
 40
1.0
 40
1.0
 40
1.0
 40
1.0
 10
-25.0353
 20
16.1776
 30
0.0
 10
-25.0353
 20
16.1776
 30
0.0
 10
-25.0353
 20
26.3944
 30
0.0
 10
-25.0353
 20
26.3944
 30
0.0
  0
SPLINE
  5
E7
330
1F
100
AcDbEntity
  8
DEFAULT_1
  6
NEW_LINE2
 62
   250
100
AcDbSpline
210
0.0
220
0.0
230
1.0
 70
    24
 71
     3
 72
     8
 73
     4
 74
     0
 42
0.0000000001
 43
0.0000000001
 40
0.0
 40
0.0
 40
0.0
 40
0.0
 40
1.0
 40
1.0
 40
1.0
 40
1.0
 10
-17.6585
 20
11.3885
 30
0.0
 10
-17.6585
 20
11.3885
 30
0.0
 10
-17.6585
 20
-8.6346
 30
0.0
 10
-17.6585
 20
-8.6346
 30
0.0
  0
SPLINE
  5
E9
330
1F
100
AcDbEntity
  8
DEFAULT_1
  6
NEW_LINE3
 62
   250
100
AcDbSpline
210
0.0
220
0.0
230
1.0
 70
    24
 71
     3
 72
     8
 73
     4
 74
     0
 42
0.0000000001
 43
0.0000000001
 40
0.0
 40
0.0
 40
0.0
 40
0.0
 40
1.0
 40
1.0
 40
1.0
 40
1.0
 10
-15.5973
 20
-5.933
 30
0.0
 10
-15.5973
 20
-5.933
 30
0.0
 10
-15.5973
 20
-32.1638
 30
0.0
 10
-15.5973
 20
-32.1638
 30
0.0
  0
SPLINE
  5
EB
330
1F
100
AcDbEntity
  8
DEFAULT_1
  6
NEW_LINE4
 62
   250
100
AcDbSpline
210
0.0
220
0.0
230
1.0
 70
    24
 71
     3
 72
     8
 73
     4
 74
     0
 42
0.0000000001
 43
0.0000000001
 40
0.0
 40
0.0
 40
0.0
 40
0.0
 40
1.0
 40
1.0
 40
1.0
 40
1.0
 10
-19.7036
 20
-7.278
 30
0.0
 10
-19.7036
 20
-7.278
 30
0.0
 10
38.0223
 20
-7.278
 30
0.0
 10
38.0223
 20
-7.278
 30
0.0
  0
SPLINE
  5
ED
330
1F
100
AcDbEntity
  8
DEFAULT_1
 62
   250
100
AcDbSpline
210
0.0
220
0.0
230
1.0
 70
    11
 71
     3
 72
    84
 73
    80
 74
     0
 42
0.0000000001
 43
0.0000000001
 40
0.0
 40
0.0
 40
0.0
 40
0.0
 40
0.0476190476190476
 40
0.0476190476190476
 40
0.0476190476190476
 40
0.0476190476190476
 40
0.0952380952380952
 40
0.0952380952380952
 40
0.0952380952380952
 40
0.0952380952380952
 40
0.1428571428571428
 40
0.1428571428571428
 40
0.1428571428571428
 40
0.1428571428571428
 40
0.1904761904761905
 40
0.1904761904761905
 40
0.1904761904761905
 40
0.1904761904761905
 40
0.2380952380952381
 40
0.2380952380952381
 40
0.2380952380952381
 40
0.2380952380952381
 40
0.2857142857142857
 40
0.2857142857142857
 40
0.2857142857142857
 40
0.2857142857142857
 40
0.3333333333333333
 40
0.3333333333333333
 40
0.3333333333333333
 40
0.3333333333333333
 40
0.3809523809523809
 40
0.3809523809523809
 40
0.3809523809523809
 40
0.3809523809523809
 40
0.4285714285714285
 40
0.4285714285714285
 40
0.4285714285714285
 40
0.4285714285714285
 40
0.4761904761904762
 40
0.4761904761904762
 40
0.4761904761904762
 40
0.4761904761904762
 40
0.5238095238095238
 40
0.5238095238095238
 40
0.5238095238095238
 40
0.5238095238095238
 40
0.5714285714285714
 40
0.5714285714285714
 40
0.5714285714285714
 40
0.5714285714285714
 40
0.6190476190476191
 40
0.6190476190476191
 40
0.6190476190476191
 40
0.6190476190476191
 40
0.6666666666666666
 40
0.6666666666666666
 40
0.6666666666666666
 40
0.6666666666666666
 40
0.7142857142857143
 40
0.7142857142857143
 40
0.7142857142857143
 40
0.7142857142857143
 40
0.7619047619047619
 40
0.7619047619047619
 40
0.7619047619047619
 40
0.7619047619047619
 40
0.8095238095238095
 40
0.8095238095238095
 40
0.8095238095238095
 40
0.8095238095238095
 40
0.8571428571428571
 40
0.8571428571428571
 40
0.8571428571428571
 40
0.8571428571428571
 40
0.9047619047619048
 40
0.9047619047619048
 40
0.9047619047619048
 40
0.9047619047619048
 40
1.0
 40
1.0
 40
1.0
 40
1.0
 10
8.169
 20
-19.0824
 30
0.0
 10
8.169
 20
-19.0824
 30
0.0
 10
7.9098
 20
-18.8509
 30
0.0
 10
7.9098
 20
-18.8509
 30
0.0
 10
7.9098
 20
-18.8509
 30
0.0
 10
7.9098
 20
-18.8509
 30
0.0
 10
8.0255
 20
-18.7146
 30
0.0
 10
8.0255
 20
-18.7146
 30
0.0
 10
8.0255
 20
-18.7146
 30
0.0
 10
8.0255
 20
-18.7146
 30
0.0
 10
8.2984
 20
-18.9568
 30
0.0
 10
8.2984
 20
-18.9568
 30
0.0
 10
8.2984
 20
-18.9568
 30
0.0
 10
8.4159
 20
-18.8778
 30
0.0
 10
8.5189
 20
-18.8246
 30
0.0
 10
8.607
 20
-18.7969
 30
0.0
 10
8.607
 20
-18.7969
 30
0.0
 10
8.7227
 20
-18.7601
 30
0.0
 10
8.8524
 20
-18.7418
 30
0.0
 10
8.9954
 20
-18.7418
 30
0.0
 10
8.9954
 20
-18.7418
 30
0.0
 10
9.2024
 20
-18.7418
 30
0.0
 10
9.3868
 20
-18.7837
 30
0.0
 10
9.5481
 20
-18.8675
 30
0.0
 10
9.5481
 20
-18.8675
 30
0.0
 10
9.71
 20
-18.9512
 30
0.0
 10
9.8323
 20
-19.0682
 30
0.0
 10
9.915
 20
-19.2193
 30
0.0
 10
9.915
 20
-19.2193
 30
0.0
 10
9.9973
 20
-19.3707
 30
0.0
 10
10.0388
 20
-19.5311
 30
0.0
 10
10.0388
 20
-19.7009
 30
0.0
 10
10.0388
 20
-19.7009
 30
0.0
 10
10.0388
 20
-19.8279
 30
0.0
 10
10.0208
 20
-19.9427
 30
0.0
 10
9.9851
 20
-20.0457
 30
0.0
 10
9.9851
 20
-20.0457
 30
0.0
 10
9.9573
 20
-20.1247
 30
0.0
 10
9.9046
 20
-20.217
 30
0.0
 10
9.8266
 20
-20.3228
 30
0.0
 10
9.8266
 20
-20.3228
 30
0.0
 10
9.8266
 20
-20.3228
 30
0.0
 10
10.0857
 20
-20.5542
 30
0.0
 10
10.0857
 20
-20.5542
 30
0.0
 10
10.0857
 20
-20.5542
 30
0.0
 10
10.0857
 20
-20.5542
 30
0.0
 10
9.97
 20
-20.6906
 30
0.0
 10
9.97
 20
-20.6906
 30
0.0
 10
9.97
 20
-20.6906
 30
0.0
 10
9.97
 20
-20.6906
 30
0.0
 10
9.6987
 20
-20.4479
 30
0.0
 10
9.6987
 20
-20.4479
 30
0.0
 10
9.6987
 20
-20.4479
 30
0.0
 10
9.5618
 20
-20.5381
 30
0.0
 10
9.4446
 20
-20.5984
 30
0.0
 10
9.3477
 20
-20.6286
 30
0.0
 10
9.3477
 20
-20.6286
 30
0.0
 10
9.2508
 20
-20.6586
 30
0.0
 10
9.1343
 20
-20.6741
 30
0.0
 10
8.9983
 20
-20.6741
 30
0.0
 10
8.9983
 20
-20.6741
 30
0.0
 10
8.7908
 20
-20.6741
 30
0.0
 10
8.606
 20
-20.6328
 30
0.0
 10
8.4437
 20
-20.55
 30
0.0
 10
8.4437
 20
-20.55
 30
0.0
 10
8.2814
 20
-20.4672
 30
0.0
 10
8.1586
 20
-20.3515
 30
0.0
 10
8.075
 20
-20.2019
 30
0.0
 10
8.075
 20
-20.2019
 30
0.0
 10
7.9916
 20
-20.0528
 30
0.0
 10
7.9498
 20
-19.8867
 30
0.0
 10
7.9498
 20
-19.7037
 30
0.0
 10
7.9498
 20
-19.7037
 30
0.0
 10
7.9498
 20
-19.5805
 30
0.0
 10
7.9657
 20
-19.4729
 30
0.0
 10
7.9987
 20
-19.3806
 30
0.0
 10
7.9987
 20
-19.3806
 30
0.0
 10
8.0311
 20
-19.2884
 30
0.0
 10
8.0882
 20
-19.1887
 30
0.0
 10
8.169
 20
-19.0824
 30
0.0
  0
SPLINE
  5
EE
330
1F
100
AcDbEntity
  8
DEFAULT_1
 62
   250
100
AcDbSpline
210
0.0
220
0.0
230
1.0
 70
    11
 71
     3
 72
    32
 73
    28
 74
     0
 42
0.0000000001
 43
0.0000000001
 40
0.0
 40
0.0
 40
0.0
 40
0.0
 40
0.125
 40
0.125
 40
0.125
 40
0.125
 40
0.25
 40
0.25
 40
0.25
 40
0.25
 40
0.375
 40
0.375
 40
0.375
 40
0.375
 40
0.5
 40
0.5
 40
0.5
 40
0.5
 40
0.625
 40
0.625
 40
0.625
 40
0.625
 40
0.75
 40
0.75
 40
0.75
 40
0.75
 40
1.0
 40
1.0
 40
1.0
 40
1.0
 10
8.3548
 20
-19.2474
 30
0.0
 10
8.287
 20
-19.334
 30
0.0
 10
8.2405
 20
-19.4097
 30
0.0
 10
8.2156
 20
-19.4742
 30
0.0
 10
8.2156
 20
-19.4742
 30
0.0
 10
8.1911
 20
-19.5391
 30
0.0
 10
8.1784
 20
-19.6153
 30
0.0
 10
8.1784
 20
-19.7024
 30
0.0
 10
8.1784
 20
-19.7024
 30
0.0
 10
8.1784
 20
-19.9036
 30
0.0
 10
8.2466
 20
-20.0698
 30
0.0
 10
8.3831
 20
-20.2014
 30
0.0
 10
8.3831
 20
-20.2014
 30
0.0
 10
8.5194
 20
-20.3327
 30
0.0
 10
8.723
 20
-20.3985
 30
0.0
 10
8.9945
 20
-20.3985
 30
0.0
 10
8.9945
 20
-20.3985
 30
0.0
 10
9.1008
 20
-20.3985
 30
0.0
 10
9.1954
 20
-20.3882
 30
0.0
 10
9.2781
 20
-20.3679
 30
0.0
 10
9.2781
 20
-20.3679
 30
0.0
 10
9.3397
 20
-20.3533
 30
0.0
 10
9.4155
 20
-20.3228
 30
0.0
 10
9.5054
 20
-20.2757
 30
0.0
 10
9.5054
 20
-20.2757
 30
0.0
 10
9.5054
 20
-20.2757
 30
0.0
 10
8.3548
 20
-19.2474
 30
0.0
 10
8.3548
 20
-19.2474
 30
0.0
  0
SPLINE
  5
EF
330
1F
100
AcDbEntity
  8
DEFAULT_1
 62
   250
100
AcDbSpline
210
0.0
220
0.0
230
1.0
 70
    11
 71
     3
 72
    28
 73
    24
 74
     0
 42
0.0000000001
 43
0.0000000001
 40
0.0
 40
0.0
 40
0.0
 40
0.0
 40
0.1428571428571428
 40
0.1428571428571428
 40
0.1428571428571428
 40
0.1428571428571428
 40
0.2857142857142857
 40
0.2857142857142857
 40
0.2857142857142857
 40
0.2857142857142857
 40
0.4285714285714285
 40
0.4285714285714285
 40
0.4285714285714285
 40
0.4285714285714285
 40
0.5714285714285714
 40
0.5714285714285714
 40
0.5714285714285714
 40
0.5714285714285714
 40
0.7142857142857143
 40
0.7142857142857143
 40
0.7142857142857143
 40
0.7142857142857143
 40
1.0
 40
1.0
 40
1.0
 40
1.0
 10
8.4969
 20
-19.1346
 30
0.0
 10
8.4969
 20
-19.1346
 30
0.0
 10
9.6431
 20
-20.1586
 30
0.0
 10
9.6431
 20
-20.1586
 30
0.0
 10
9.6431
 20
-20.1586
 30
0.0
 10
9.701
 20
-20.0881
 30
0.0
 10
9.7415
 20
-20.0227
 30
0.0
 10
9.7645
 20
-19.9629
 30
0.0
 10
9.7645
 20
-19.9629
 30
0.0
 10
9.7951
 20
-19.8848
 30
0.0
 10
9.8101
 20
-19.8001
 30
0.0
 10
9.8101
 20
-19.7094
 30
0.0
 10
9.8101
 20
-19.7094
 30
0.0
 10
9.8101
 20
-19.509
 30
0.0
 10
9.7396
 20
-19.344
 30
0.0
 10
9.598
 20
-19.2132
 30
0.0
 10
9.598
 20
-19.2132
 30
0.0
 10
9.4564
 20
-19.0828
 30
0.0
 10
9.2579
 20
-19.0174
 30
0.0
 10
9.0025
 20
-19.0174
 30
0.0
 10
9.0025
 20
-19.0174
 30
0.0
 10
8.8116
 20
-19.0174
 30
0.0
 10
8.6427
 20
-19.0565
 30
0.0
 10
8.4969
 20
-19.1346
 30
0.0
  0
SPLINE
  5
F0
330
1F
100
AcDbEntity
  8
DEFAULT_1
 62
   250
100
AcDbSpline
210
0.0
220
0.0
230
1.0
 70
    11
 71
     3
 72
    48
 73
    44
 74
     0
 42
0.0000000001
 43
0.0000000001
 40
0.0
 40
0.0
 40
0.0
 40
0.0
 40
0.0833333333333333
 40
0.0833333333333333
 40
0.0833333333333333
 40
0.0833333333333333
 40
0.1666666666666667
 40
0.1666666666666667
 40
0.1666666666666667
 40
0.1666666666666667
 40
0.25
 40
0.25
 40
0.25
 40
0.25
 40
0.3333333333333333
 40
0.3333333333333333
 40
0.3333333333333333
 40
0.3333333333333333
 40
0.4166666666666667
 40
0.4166666666666667
 40
0.4166666666666667
 40
0.4166666666666667
 40
0.5
 40
0.5
 40
0.5
 40
0.5
 40
0.5833333333333334
 40
0.5833333333333334
 40
0.5833333333333334
 40
0.5833333333333334
 40
0.6666666666666666
 40
0.6666666666666666
 40
0.6666666666666666
 40
0.6666666666666666
 40
0.75
 40
0.75
 40
0.75
 40
0.75
 40
0.8333333333333334
 40
0.8333333333333334
 40
0.8333333333333334
 40
0.8333333333333334
 40
1.0
 40
1.0
 40
1.0
 40
1.0
 10
10.0044
 20
-17.6976
 30
0.0
 10
10.0044
 20
-17.6976
 30
0.0
 10
9.5208
 20
-17.6976
 30
0.0
 10
9.5208
 20
-17.6976
 30
0.0
 10
9.5208
 20
-17.6976
 30
0.0
 10
9.5208
 20
-17.6976
 30
0.0
 10
9.5208
 20
-18.5739
 30
0.0
 10
9.5208
 20
-18.5739
 30
0.0
 10
9.5208
 20
-18.5739
 30
0.0
 10
9.5208
 20
-18.5739
 30
0.0
 10
9.2932
 20
-18.5739
 30
0.0
 10
9.2932
 20
-18.5739
 30
0.0
 10
9.2932
 20
-18.5739
 30
0.0
 10
9.2932
 20
-18.5739
 30
0.0
 10
7.9842
 20
-17.652
 30
0.0
 10
7.9842
 20
-17.652
 30
0.0
 10
7.9842
 20
-17.652
 30
0.0
 10
7.9842
 20
-17.652
 30
0.0
 10
7.9842
 20
-17.4493
 30
0.0
 10
7.9842
 20
-17.4493
 30
0.0
 10
7.9842
 20
-17.4493
 30
0.0
 10
7.9842
 20
-17.4493
 30
0.0
 10
9.2932
 20
-17.4493
 30
0.0
 10
9.2932
 20
-17.4493
 30
0.0
 10
9.2932
 20
-17.4493
 30
0.0
 10
9.2932
 20
-17.4493
 30
0.0
 10
9.2932
 20
-17.1764
 30
0.0
 10
9.2932
 20
-17.1764
 30
0.0
 10
9.2932
 20
-17.1764
 30
0.0
 10
9.2932
 20
-17.1764
 30
0.0
 10
9.5208
 20
-17.1764
 30
0.0
 10
9.5208
 20
-17.1764
 30
0.0
 10
9.5208
 20
-17.1764
 30
0.0
 10
9.5208
 20
-17.1764
 30
0.0
 10
9.5208
 20
-17.4493
 30
0.0
 10
9.5208
 20
-17.4493
 30
0.0
 10
9.5208
 20
-17.4493
 30
0.0
 10
9.5208
 20
-17.4493
 30
0.0
 10
10.0044
 20
-17.4493
 30
0.0
 10
10.0044
 20
-17.4493
 30
0.0
 10
10.0044
 20
-17.4493
 30
0.0
 10
10.0044
 20
-17.4493
 30
0.0
 10
10.0044
 20
-17.6976
 30
0.0
 10
10.0044
 20
-17.6976
 30
0.0
  0
SPLINE
  5
F1
330
1F
100
AcDbEntity
  8
DEFAULT_1
 62
   250
100
AcDbSpline
210
0.0
220
0.0
230
1.0
 70
    11
 71
     3
 72
    16
 73
    12
 74
     0
 42
0.0000000001
 43
0.0000000001
 40
0.0
 40
0.0
 40
0.0
 40
0.0
 40
0.25
 40
0.25
 40
0.25
 40
0.25
 40
0.5
 40
0.5
 40
0.5
 40
0.5
 40
1.0
 40
1.0
 40
1.0
 40
1.0
 10
9.2932
 20
-17.6976
 30
0.0
 10
9.2932
 20
-17.6976
 30
0.0
 10
8.3826
 20
-17.6976
 30
0.0
 10
8.3826
 20
-17.6976
 30
0.0
 10
8.3826
 20
-17.6976
 30
0.0
 10
8.3826
 20
-17.6976
 30
0.0
 10
9.2932
 20
-18.3299
 30
0.0
 10
9.2932
 20
-18.3299
 30
0.0
 10
9.2932
 20
-18.3299
 30
0.0
 10
9.2932
 20
-18.3299
 30
0.0
 10
9.2932
 20
-17.6976
 30
0.0
 10
9.2932
 20
-17.6976
 30
0.0
  0
SPLINE
  5
F2
330
1F
100
AcDbEntity
  8
DEFAULT_1
 62
   250
100
AcDbSpline
210
0.0
220
0.0
230
1.0
 70
    11
 71
     3
 72
    52
 73
    48
 74
     0
 42
0.0000000001
 43
0.0000000001
 40
0.0
 40
0.0
 40
0.0
 40
0.0
 40
0.0769230769230769
 40
0.0769230769230769
 40
0.0769230769230769
 40
0.0769230769230769
 40
0.1538461538461539
 40
0.1538461538461539
 40
0.1538461538461539
 40
0.1538461538461539
 40
0.2307692307692308
 40
0.2307692307692308
 40
0.2307692307692308
 40
0.2307692307692308
 40
0.3076923076923077
 40
0.3076923076923077
 40
0.3076923076923077
 40
0.3076923076923077
 40
0.3846153846153846
 40
0.3846153846153846
 40
0.3846153846153846
 40
0.3846153846153846
 40
0.4615384615384616
 40
0.4615384615384616
 40
0.4615384615384616
 40
0.4615384615384616
 40
0.5384615384615384
 40
0.5384615384615384
 40
0.5384615384615384
 40
0.5384615384615384
 40
0.6153846153846154
 40
0.6153846153846154
 40
0.6153846153846154
 40
0.6153846153846154
 40
0.6923076923076923
 40
0.6923076923076923
 40
0.6923076923076923
 40
0.6923076923076923
 40
0.7692307692307693
 40
0.7692307692307693
 40
0.7692307692307693
 40
0.7692307692307693
 40
0.8461538461538461
 40
0.8461538461538461
 40
0.8461538461538461
 40
0.8461538461538461
 40
1.0
 40
1.0
 40
1.0
 40
1.0
 10
9.0081
 20
-16.923
 30
0.0
 10
8.7692
 20
-16.923
 30
0.0
 10
8.5768
 20
-16.8984
 30
0.0
 10
8.4315
 20
-16.8491
 30
0.0
 10
8.4315
 20
-16.8491
 30
0.0
 10
8.2857
 20
-16.8002
 30
0.0
 10
8.1732
 20
-16.7268
 30
0.0
 10
8.0943
 20
-16.6298
 30
0.0
 10
8.0943
 20
-16.6298
 30
0.0
 10
8.0152
 20
-16.5329
 30
0.0
 10
7.9757
 20
-16.4111
 30
0.0
 10
7.9757
 20
-16.2644
 30
0.0
 10
7.9757
 20
-16.2644
 30
0.0
 10
7.9757
 20
-16.1557
 30
0.0
 10
7.9977
 20
-16.0607
 30
0.0
 10
8.0416
 20
-15.9789
 30
0.0
 10
8.0416
 20
-15.9789
 30
0.0
 10
8.0848
 20
-15.897
 30
0.0
 10
8.1478
 20
-15.8298
 30
0.0
 10
8.2301
 20
-15.7761
 30
0.0
 10
8.2301
 20
-15.7761
 30
0.0
 10
8.3124
 20
-15.7229
 30
0.0
 10
8.4127
 20
-15.6811
 30
0.0
 10
8.5308
 20
-15.6511
 30
0.0
 10
8.5308
 20
-15.6511
 30
0.0
 10
8.6488
 20
-15.6204
 30
0.0
 10
8.8077
 20
-15.6054
 30
0.0
 10
9.0081
 20
-15.6054
 30
0.0
 10
9.0081
 20
-15.6054
 30
0.0
 10
9.2452
 20
-15.6054
 30
0.0
 10
9.4361
 20
-15.6299
 30
0.0
 10
9.582
 20
-15.6783
 30
0.0
 10
9.582
 20
-15.6783
 30
0.0
 10
9.7278
 20
-15.7272
 30
0.0
 10
9.8403
 20
-15.8001
 30
0.0
 10
9.9197
 20
-15.897
 30
0.0
 10
9.9197
 20
-15.897
 30
0.0
 10
9.9992
 20
-15.9939
 30
0.0
 10
10.0388
 20
-16.1162
 30
0.0
 10
10.0388
 20
-16.2644
 30
0.0
 10
10.0388
 20
-16.2644
 30
0.0
 10
10.0388
 20
-16.4591
 30
0.0
 10
9.9692
 20
-16.612
 30
0.0
 10
9.8294
 20
-16.723
 30
0.0
 10
9.8294
 20
-16.723
 30
0.0
 10
9.6616
 20
-16.8561
 30
0.0
 10
9.3873
 20
-16.923
 30
0.0
 10
9.0081
 20
-16.923
 30
0.0
  0
SPLINE
  5
F3
330
1F
100
AcDbEntity
  8
DEFAULT_1
 62
   250
100
AcDbSpline
210
0.0
220
0.0
230
1.0
 70
    11
 71
     3
 72
    36
 73
    32
 74
     0
 42
0.0000000001
 43
0.0000000001
 40
0.0
 40
0.0
 40
0.0
 40
0.0
 40
0.1111111111111111
 40
0.1111111111111111
 40
0.1111111111111111
 40
0.1111111111111111
 40
0.2222222222222222
 40
0.2222222222222222
 40
0.2222222222222222
 40
0.2222222222222222
 40
0.3333333333333333
 40
0.3333333333333333
 40
0.3333333333333333
 40
0.3333333333333333
 40
0.4444444444444444
 40
0.4444444444444444
 40
0.4444444444444444
 40
0.4444444444444444
 40
0.5555555555555556
 40
0.5555555555555556
 40
0.5555555555555556
 40
0.5555555555555556
 40
0.6666666666666666
 40
0.6666666666666666
 40
0.6666666666666666
 40
0.6666666666666666
 40
0.7777777777777778
 40
0.7777777777777778
 40
0.7777777777777778
 40
0.7777777777777778
 40
1.0
 40
1.0
 40
1.0
 40
1.0
 10
9.0081
 20
-16.6679
 30
0.0
 10
9.3397
 20
-16.6679
 30
0.0
 10
9.5604
 20
-16.6289
 30
0.0
 10
9.6704
 20
-16.5513
 30
0.0
 10
9.6704
 20
-16.5513
 30
0.0
 10
9.78
 20
-16.4736
 30
0.0
 10
9.835
 20
-16.3782
 30
0.0
 10
9.835
 20
-16.2644
 30
0.0
 10
9.835
 20
-16.2644
 30
0.0
 10
9.835
 20
-16.1501
 30
0.0
 10
9.7796
 20
-16.0546
 30
0.0
 10
9.6695
 20
-15.977
 30
0.0
 10
9.6695
 20
-15.977
 30
0.0
 10
9.5594
 20
-15.8994
 30
0.0
 10
9.3389
 20
-15.8603
 30
0.0
 10
9.0081
 20
-15.8603
 30
0.0
 10
9.0081
 20
-15.8603
 30
0.0
 10
8.6756
 20
-15.8603
 30
0.0
 10
8.4545
 20
-15.8994
 30
0.0
 10
8.3454
 20
-15.977
 30
0.0
 10
8.3454
 20
-15.977
 30
0.0
 10
8.2357
 20
-16.0546
 30
0.0
 10
8.1812
 20
-16.151
 30
0.0
 10
8.1812
 20
-16.2668
 30
0.0
 10
8.1812
 20
-16.2668
 30
0.0
 10
8.1812
 20
-16.381
 30
0.0
 10
8.2296
 20
-16.4718
 30
0.0
 10
8.3261
 20
-16.54
 30
0.0
 10
8.3261
 20
-16.54
 30
0.0
 10
8.4488
 20
-16.6252
 30
0.0
 10
8.6766
 20
-16.6679
 30
0.0
 10
9.0081
 20
-16.6679
 30
0.0
  0
SPLINE
  5
F4
330
1F
100
AcDbEntity
  8
DEFAULT_1
 62
   250
100
AcDbSpline
210
0.0
220
0.0
230
1.0
 70
    11
 71
     3
 72
    20
 73
    16
 74
     0
 42
0.0000000001
 43
0.0000000001
 40
0.0
 40
0.0
 40
0.0
 40
0.0
 40
0.2
 40
0.2
 40
0.2
 40
0.2
 40
0.4
 40
0.4
 40
0.4
 40
0.4
 40
0.6
 40
0.6
 40
0.6
 40
0.6
 40
1.0
 40
1.0
 40
1.0
 40
1.0
 10
10.0609
 20
-15.3153
 30
0.0
 10
10.0609
 20
-15.3153
 30
0.0
 10
10.5625
 20
-11.7614
 30
0.0
 10
10.5625
 20
-11.7614
 30
0.0
 10
10.5625
 20
-11.7614
 30
0.0
 10
10.5625
 20
-11.7614
 30
0.0
 10
10.6739
 20
-11.7614
 30
0.0
 10
10.6739
 20
-11.7614
 30
0.0
 10
10.6739
 20
-11.7614
 30
0.0
 10
10.6739
 20
-11.7614
 30
0.0
 10
11.2088
 20
-15.3153
 30
0.0
 10
11.2088
 20
-15.3153
 30
0.0
 10
11.2088
 20
-15.3153
 30
0.0
 10
11.2088
 20
-15.3153
 30
0.0
 10
10.0609
 20
-15.3153
 30
0.0
 10
10.0609
 20
-15.3153
 30
0.0
  0
SPLINE
  5
F5
330
1F
100
AcDbEntity
  8
DEFAULT_1
 62
   250
100
AcDbSpline
210
0.0
220
0.0
230
1.0
 70
    11
 71
     3
 72
    20
 73
    16
 74
     0
 42
0.0000000001
 43
0.0000000001
 40
0.0
 40
0.0
 40
0.0
 40
0.0
 40
0.2
 40
0.2
 40
0.2
 40
0.2
 40
0.4
 40
0.4
 40
0.4
 40
0.4
 40
0.6
 40
0.6
 40
0.6
 40
0.6
 40
1.0
 40
1.0
 40
1.0
 40
1.0
 10
11.2138
 20
0.7262
 30
0.0
 10
11.2138
 20
0.7262
 30
0.0
 10
10.7123
 20
-2.8277
 30
0.0
 10
10.7123
 20
-2.8277
 30
0.0
 10
10.7123
 20
-2.8277
 30
0.0
 10
10.7123
 20
-2.8277
 30
0.0
 10
10.6009
 20
-2.8277
 30
0.0
 10
10.6009
 20
-2.8277
 30
0.0
 10
10.6009
 20
-2.8277
 30
0.0
 10
10.6009
 20
-2.8277
 30
0.0
 10
10.066
 20
0.7262
 30
0.0
 10
10.066
 20
0.7262
 30
0.0
 10
10.066
 20
0.7262
 30
0.0
 10
10.066
 20
0.7262
 30
0.0
 10
11.2138
 20
0.7262
 30
0.0
 10
11.2138
 20
0.7262
 30
0.0
  0
SPLINE
  5
F6
330
1F
100
AcDbEntity
  8
DEFAULT_1
 62
   250
100
AcDbSpline
210
0.0
220
0.0
230
1.0
 70
    11
 71
     3
 72
   116
 73
   112
 74
     0
 42
0.0000000001
 43
0.0000000001
 40
0.0
 40
0.0
 40
0.0
 40
0.0
 40
0.0344827586206897
 40
0.0344827586206897
 40
0.0344827586206897
 40
0.0344827586206897
 40
0.0689655172413793
 40
0.0689655172413793
 40
0.0689655172413793
 40
0.0689655172413793
 40
0.103448275862069
 40
0.103448275862069
 40
0.103448275862069
 40
0.103448275862069
 40
0.1379310344827586
 40
0.1379310344827586
 40
0.1379310344827586
 40
0.1379310344827586
 40
0.1724137931034483
 40
0.1724137931034483
 40
0.1724137931034483
 40
0.1724137931034483
 40
0.2068965517241379
 40
0.2068965517241379
 40
0.2068965517241379
 40
0.2068965517241379
 40
0.2413793103448276
 40
0.2413793103448276
 40
0.2413793103448276
 40
0.2413793103448276
 40
0.2758620689655172
 40
0.2758620689655172
 40
0.2758620689655172
 40
0.2758620689655172
 40
0.3103448275862069
 40
0.3103448275862069
 40
0.3103448275862069
 40
0.3103448275862069
 40
0.3448275862068966
 40
0.3448275862068966
 40
0.3448275862068966
 40
0.3448275862068966
 40
0.3793103448275862
 40
0.3793103448275862
 40
0.3793103448275862
 40
0.3793103448275862
 40
0.4137931034482759
 40
0.4137931034482759
 40
0.4137931034482759
 40
0.4137931034482759
 40
0.4482758620689655
 40
0.4482758620689655
 40
0.4482758620689655
 40
0.4482758620689655
 40
0.4827586206896552
 40
0.4827586206896552
 40
0.4827586206896552
 40
0.4827586206896552
 40
0.5172413793103449
 40
0.5172413793103449
 40
0.5172413793103449
 40
0.5172413793103449
 40
0.5517241379310345
 40
0.5517241379310345
 40
0.5517241379310345
 40
0.5517241379310345
 40
0.5862068965517241
 40
0.5862068965517241
 40
0.5862068965517241
 40
0.5862068965517241
 40
0.6206896551724138
 40
0.6206896551724138
 40
0.6206896551724138
 40
0.6206896551724138
 40
0.6551724137931034
 40
0.6551724137931034
 40
0.6551724137931034
 40
0.6551724137931034
 40
0.6896551724137931
 40
0.6896551724137931
 40
0.6896551724137931
 40
0.6896551724137931
 40
0.7241379310344828
 40
0.7241379310344828
 40
0.7241379310344828
 40
0.7241379310344828
 40
0.7586206896551724
 40
0.7586206896551724
 40
0.7586206896551724
 40
0.7586206896551724
 40
0.7931034482758621
 40
0.7931034482758621
 40
0.7931034482758621
 40
0.7931034482758621
 40
0.8275862068965517
 40
0.8275862068965517
 40
0.8275862068965517
 40
0.8275862068965517
 40
0.8620689655172413
 40
0.8620689655172413
 40
0.8620689655172413
 40
0.8620689655172413
 40
0.896551724137931
 40
0.896551724137931
 40
0.896551724137931
 40
0.896551724137931
 40
0.9310344827586207
 40
0.9310344827586207
 40
0.9310344827586207
 40
0.9310344827586207
 40
1.0
 40
1.0
 40
1.0
 40
1.0
 10
1.5279
 20
23.199
 30
0.0
 10
1.5279
 20
23.199
 30
0.0
 10
1.5279
 20
24.6623
 30
0.0
 10
1.5279
 20
24.6623
 30
0.0
 10
1.5279
 20
24.6623
 30
0.0
 10
1.5279
 20
24.6623
 30
0.0
 10
1.7494
 20
24.6623
 30
0.0
 10
1.7494
 20
24.6623
 30
0.0
 10
1.7494
 20
24.6623
 30
0.0
 10
1.7494
 20
24.6623
 30
0.0
 10
1.7494
 20
24.4572
 30
0.0
 10
1.7494
 20
24.4572
 30
0.0
 10
1.7494
 20
24.4572
 30
0.0
 10
1.7955
 20
24.5287
 30
0.0
 10
1.8567
 20
24.5866
 30
0.0
 10
1.9329
 20
24.6299
 30
0.0
 10
1.9329
 20
24.6299
 30
0.0
 10
2.0091
 20
24.6736
 30
0.0
 10
2.0961
 20
24.6957
 30
0.0
 10
2.1934
 20
24.6957
 30
0.0
 10
2.1934
 20
24.6957
 30
0.0
 10
2.3016
 20
24.6957
 30
0.0
 10
2.3905
 20
24.6731
 30
0.0
 10
2.4597
 20
24.628
 30
0.0
 10
2.4597
 20
24.628
 30
0.0
 10
2.5293
 20
24.5828
 30
0.0
 10
2.5782
 20
24.5203
 30
0.0
 10
2.6064
 20
24.4394
 30
0.0
 10
2.6064
 20
24.4394
 30
0.0
 10
2.7226
 20
24.6101
 30
0.0
 10
2.8731
 20
24.6957
 30
0.0
 10
3.0584
 20
24.6957
 30
0.0
 10
3.0584
 20
24.6957
 30
0.0
 10
3.2038
 20
24.6957
 30
0.0
 10
3.3153
 20
24.6553
 30
0.0
 10
3.3933
 20
24.5748
 30
0.0
 10
3.3933
 20
24.5748
 30
0.0
 10
3.4714
 20
24.4944
 30
0.0
 10
3.5105
 20
24.3707
 30
0.0
 10
3.5105
 20
24.2037
 30
0.0
 10
3.5105
 20
24.2037
 30
0.0
 10
3.5105
 20
24.2037
 30
0.0
 10
3.5105
 20
23.199
 30
0.0
 10
3.5105
 20
23.199
 30
0.0
 10
3.5105
 20
23.199
 30
0.0
 10
3.5105
 20
23.199
 30
0.0
 10
3.264
 20
23.199
 30
0.0
 10
3.264
 20
23.199
 30
0.0
 10
3.264
 20
23.199
 30
0.0
 10
3.264
 20
23.199
 30
0.0
 10
3.264
 20
24.1209
 30
0.0
 10
3.264
 20
24.1209
 30
0.0
 10
3.264
 20
24.1209
 30
0.0
 10
3.264
 20
24.2202
 30
0.0
 10
3.256
 20
24.2917
 30
0.0
 10
3.24
 20
24.3354
 30
0.0
 10
3.24
 20
24.3354
 30
0.0
 10
3.2235
 20
24.3787
 30
0.0
 10
3.1944
 20
24.414
 30
0.0
 10
3.1525
 20
24.4408
 30
0.0
 10
3.1525
 20
24.4408
 30
0.0
 10
3.1102
 20
24.4671
 30
0.0
 10
3.0603
 20
24.4807
 30
0.0
 10
3.0034
 20
24.4807
 30
0.0
 10
3.0034
 20
24.4807
 30
0.0
 10
2.9004
 20
24.4807
 30
0.0
 10
2.8153
 20
24.4464
 30
0.0
 10
2.7471
 20
24.3777
 30
0.0
 10
2.7471
 20
24.3777
 30
0.0
 10
2.6793
 20
24.3095
 30
0.0
 10
2.645
 20
24.1999
 30
0.0
 10
2.645
 20
24.0494
 30
0.0
 10
2.645
 20
24.0494
 30
0.0
 10
2.645
 20
24.0494
 30
0.0
 10
2.645
 20
23.199
 30
0.0
 10
2.645
 20
23.199
 30
0.0
 10
2.645
 20
23.199
 30
0.0
 10
2.645
 20
23.199
 30
0.0
 10
2.3971
 20
23.199
 30
0.0
 10
2.3971
 20
23.199
 30
0.0
 10
2.3971
 20
23.199
 30
0.0
 10
2.3971
 20
23.199
 30
0.0
 10
2.3971
 20
24.1496
 30
0.0
 10
2.3971
 20
24.1496
 30
0.0
 10
2.3971
 20
24.1496
 30
0.0
 10
2.3971
 20
24.2601
 30
0.0
 10
2.3769
 20
24.3429
 30
0.0
 10
2.3364
 20
24.398
 30
0.0
 10
2.3364
 20
24.398
 30
0.0
 10
2.296
 20
24.453
 30
0.0
 10
2.2301
 20
24.4807
 30
0.0
 10
2.1379
 20
24.4807
 30
0.0
 10
2.1379
 20
24.4807
 30
0.0
 10
2.0683
 20
24.4807
 30
0.0
 10
2.0039
 20
24.4624
 30
0.0
 10
1.9446
 20
24.4252
 30
0.0
 10
1.9446
 20
24.4252
 30
0.0
 10
1.8853
 20
24.3886
 30
0.0
 10
1.8421
 20
24.3349
 30
0.0
 10
1.8157
 20
24.2644
 30
0.0
 10
1.8157
 20
24.2644
 30
0.0
 10
1.7889
 20
24.1934
 30
0.0
 10
1.7757
 20
24.0913
 30
0.0
 10
1.7757
 20
23.9582
 30
0.0
 10
1.7757
 20
23.9582
 30
0.0
 10
1.7757
 20
23.9582
 30
0.0
 10
1.7757
 20
23.199
 30
0.0
 10
1.7757
 20
23.199
 30
0.0
 10
1.7757
 20
23.199
 30
0.0
 10
1.7757
 20
23.199
 30
0.0
 10
1.5279
 20
23.199
 30
0.0
 10
1.5279
 20
23.199
 30
0.0
  0
SPLINE
  5
F7
330
1F
100
AcDbEntity
  8
DEFAULT_1
 62
   250
100
AcDbSpline
210
0.0
220
0.0
230
1.0
 70
    11
 71
     3
 72
   112
 73
   108
 74
     0
 42
0.0000000001
 43
0.0000000001
 40
0.0
 40
0.0
 40
0.0
 40
0.0
 40
0.0357142857142857
 40
0.0357142857142857
 40
0.0357142857142857
 40
0.0357142857142857
 40
0.0714285714285714
 40
0.0714285714285714
 40
0.0714285714285714
 40
0.0714285714285714
 40
0.1071428571428571
 40
0.1071428571428571
 40
0.1071428571428571
 40
0.1071428571428571
 40
0.1428571428571428
 40
0.1428571428571428
 40
0.1428571428571428
 40
0.1428571428571428
 40
0.1785714285714286
 40
0.1785714285714286
 40
0.1785714285714286
 40
0.1785714285714286
 40
0.2142857142857143
 40
0.2142857142857143
 40
0.2142857142857143
 40
0.2142857142857143
 40
0.25
 40
0.25
 40
0.25
 40
0.25
 40
0.2857142857142857
 40
0.2857142857142857
 40
0.2857142857142857
 40
0.2857142857142857
 40
0.3214285714285715
 40
0.3214285714285715
 40
0.3214285714285715
 40
0.3214285714285715
 40
0.3571428571428572
 40
0.3571428571428572
 40
0.3571428571428572
 40
0.3571428571428572
 40
0.3928571428571428
 40
0.3928571428571428
 40
0.3928571428571428
 40
0.3928571428571428
 40
0.4285714285714285
 40
0.4285714285714285
 40
0.4285714285714285
 40
0.4285714285714285
 40
0.4642857142857143
 40
0.4642857142857143
 40
0.4642857142857143
 40
0.4642857142857143
 40
0.5
 40
0.5
 40
0.5
 40
0.5
 40
0.5357142857142857
 40
0.5357142857142857
 40
0.5357142857142857
 40
0.5357142857142857
 40
0.5714285714285714
 40
0.5714285714285714
 40
0.5714285714285714
 40
0.5714285714285714
 40
0.6071428571428571
 40
0.6071428571428571
 40
0.6071428571428571
 40
0.6071428571428571
 40
0.6428571428571429
 40
0.6428571428571429
 40
0.6428571428571429
 40
0.6428571428571429
 40
0.6785714285714286
 40
0.6785714285714286
 40
0.6785714285714286
 40
0.6785714285714286
 40
0.7142857142857143
 40
0.7142857142857143
 40
0.7142857142857143
 40
0.7142857142857143
 40
0.75
 40
0.75
 40
0.75
 40
0.75
 40
0.7857142857142857
 40
0.7857142857142857
 40
0.7857142857142857
 40
0.7857142857142857
 40
0.8214285714285714
 40
0.8214285714285714
 40
0.8214285714285714
 40
0.8214285714285714
 40
0.8571428571428571
 40
0.8571428571428571
 40
0.8571428571428571
 40
0.8571428571428571
 40
0.8928571428571429
 40
0.8928571428571429
 40
0.8928571428571429
 40
0.8928571428571429
 40
0.9285714285714286
 40
0.9285714285714286
 40
0.9285714285714286
 40
0.9285714285714286
 40
1.0
 40
1.0
 40
1.0
 40
1.0
 10
4.8336
 20
23.3796
 30
0.0
 10
4.7414
 20
23.3015
 30
0.0
 10
4.653
 20
23.2465
 30
0.0
 10
4.5683
 20
23.2141
 30
0.0
 10
4.5683
 20
23.2141
 30
0.0
 10
4.4832
 20
23.1821
 30
0.0
 10
4.3919
 20
23.1661
 30
0.0
 10
4.2946
 20
23.1661
 30
0.0
 10
4.2946
 20
23.1661
 30
0.0
 10
4.1337
 20
23.1661
 30
0.0
 10
4.0105
 20
23.2051
 30
0.0
 10
3.9239
 20
23.2837
 30
0.0
 10
3.9239
 20
23.2837
 30
0.0
 10
3.8378
 20
23.3622
 30
0.0
 10
3.7946
 20
23.4629
 30
0.0
 10
3.7946
 20
23.5847
 30
0.0
 10
3.7946
 20
23.5847
 30
0.0
 10
3.7946
 20
23.6567
 30
0.0
 10
3.8106
 20
23.722
 30
0.0
 10
3.8435
 20
23.7813
 30
0.0
 10
3.8435
 20
23.7813
 30
0.0
 10
3.8759
 20
23.8406
 30
0.0
 10
3.9187
 20
23.8881
 30
0.0
 10
3.9714
 20
23.9238
 30
0.0
 10
3.9714
 20
23.9238
 30
0.0
 10
4.0246
 20
23.9596
 30
0.0
 10
4.0838
 20
23.9869
 30
0.0
 10
4.1502
 20
24.0052
 30
0.0
 10
4.1502
 20
24.0052
 30
0.0
 10
4.1986
 20
24.0179
 30
0.0
 10
4.272
 20
24.0306
 30
0.0
 10
4.3703
 20
24.0424
 30
0.0
 10
4.3703
 20
24.0424
 30
0.0
 10
4.5707
 20
24.0664
 30
0.0
 10
4.7184
 20
24.0946
 30
0.0
 10
4.8129
 20
24.128
 30
0.0
 10
4.8129
 20
24.128
 30
0.0
 10
4.8139
 20
24.1618
 30
0.0
 10
4.8143
 20
24.1835
 30
0.0
 10
4.8143
 20
24.1924
 30
0.0
 10
4.8143
 20
24.1924
 30
0.0
 10
4.8143
 20
24.2935
 30
0.0
 10
4.7908
 20
24.365
 30
0.0
 10
4.7438
 20
24.406
 30
0.0
 10
4.7438
 20
24.406
 30
0.0
 10
4.6807
 20
24.4624
 30
0.0
 10
4.5862
 20
24.4902
 30
0.0
 10
4.4615
 20
24.4902
 30
0.0
 10
4.4615
 20
24.4902
 30
0.0
 10
4.3449
 20
24.4902
 30
0.0
 10
4.2588
 20
24.4699
 30
0.0
 10
4.2028
 20
24.429
 30
0.0
 10
4.2028
 20
24.429
 30
0.0
 10
4.1473
 20
24.3881
 30
0.0
 10
4.1064
 20
24.3157
 30
0.0
 10
4.0796
 20
24.2117
 30
0.0
 10
4.0796
 20
24.2117
 30
0.0
 10
4.0796
 20
24.2117
 30
0.0
 10
3.8374
 20
24.2451
 30
0.0
 10
3.8374
 20
24.2451
 30
0.0
 10
3.8374
 20
24.2451
 30
0.0
 10
3.8595
 20
24.3486
 30
0.0
 10
3.8957
 20
24.4328
 30
0.0
 10
3.946
 20
24.4963
 30
0.0
 10
3.946
 20
24.4963
 30
0.0
 10
3.9964
 20
24.5602
 30
0.0
 10
4.0697
 20
24.6096
 30
0.0
 10
4.1652
 20
24.644
 30
0.0
 10
4.1652
 20
24.644
 30
0.0
 10
4.2607
 20
24.6783
 30
0.0
 10
4.3712
 20
24.6957
 30
0.0
 10
4.4973
 20
24.6957
 30
0.0
 10
4.4973
 20
24.6957
 30
0.0
 10
4.6224
 20
24.6957
 30
0.0
 10
4.7235
 20
24.6807
 30
0.0
 10
4.8016
 20
24.6515
 30
0.0
 10
4.8016
 20
24.6515
 30
0.0
 10
4.8797
 20
24.6219
 30
0.0
 10
4.9371
 20
24.5852
 30
0.0
 10
4.9742
 20
24.5405
 30
0.0
 10
4.9742
 20
24.5405
 30
0.0
 10
5.0109
 20
24.4958
 30
0.0
 10
5.0363
 20
24.4398
 30
0.0
 10
5.0514
 20
24.3716
 30
0.0
 10
5.0514
 20
24.3716
 30
0.0
 10
5.0594
 20
24.3293
 30
0.0
 10
5.0636
 20
24.2531
 30
0.0
 10
5.0636
 20
24.143
 30
0.0
 10
5.0636
 20
24.143
 30
0.0
 10
5.0636
 20
24.143
 30
0.0
 10
5.0636
 20
23.8124
 30
0.0
 10
5.0636
 20
23.8124
 30
0.0
 10
5.0636
 20
23.8124
 30
0.0
 10
5.0636
 20
23.5814
 30
0.0
 10
5.0688
 20
23.4356
 30
0.0
 10
5.0796
 20
23.3749
 30
0.0
 10
5.0796
 20
23.3749
 30
0.0
 10
5.09
 20
23.3138
 30
0.0
 10
5.1111
 20
23.255
 30
0.0
 10
5.1422
 20
23.199
 30
0.0
 10
5.1422
 20
23.199
 30
0.0
 10
5.1422
 20
23.199
 30
0.0
 10
4.883
 20
23.199
 30
0.0
 10
4.883
 20
23.199
 30
0.0
 10
4.883
 20
23.199
 30
0.0
 10
4.8576
 20
23.2503
 30
0.0
 10
4.8407
 20
23.3105
 30
0.0
 10
4.8336
 20
23.3796
 30
0.0
  0
SPLINE
  5
F8
330
1F
100
AcDbEntity
  8
DEFAULT_1
 62
   250
100
AcDbSpline
210
0.0
220
0.0
230
1.0
 70
    11
 71
     3
 72
    44
 73
    40
 74
     0
 42
0.0000000001
 43
0.0000000001
 40
0.0
 40
0.0
 40
0.0
 40
0.0
 40
0.0909090909090909
 40
0.0909090909090909
 40
0.0909090909090909
 40
0.0909090909090909
 40
0.1818181818181818
 40
0.1818181818181818
 40
0.1818181818181818
 40
0.1818181818181818
 40
0.2727272727272727
 40
0.2727272727272727
 40
0.2727272727272727
 40
0.2727272727272727
 40
0.3636363636363636
 40
0.3636363636363636
 40
0.3636363636363636
 40
0.3636363636363636
 40
0.4545454545454545
 40
0.4545454545454545
 40
0.4545454545454545
 40
0.4545454545454545
 40
0.5454545454545454
 40
0.5454545454545454
 40
0.5454545454545454
 40
0.5454545454545454
 40
0.6363636363636364
 40
0.6363636363636364
 40
0.6363636363636364
 40
0.6363636363636364
 40
0.7272727272727273
 40
0.7272727272727273
 40
0.7272727272727273
 40
0.7272727272727273
 40
0.8181818181818182
 40
0.8181818181818182
 40
0.8181818181818182
 40
0.8181818181818182
 40
1.0
 40
1.0
 40
1.0
 40
1.0
 10
4.8129
 20
23.9337
 30
0.0
 10
4.7226
 20
23.8966
 30
0.0
 10
4.5876
 20
23.8655
 30
0.0
 10
4.4079
 20
23.8396
 30
0.0
 10
4.4079
 20
23.8396
 30
0.0
 10
4.3059
 20
23.8251
 30
0.0
 10
4.2334
 20
23.8086
 30
0.0
 10
4.1916
 20
23.7903
 30
0.0
 10
4.1916
 20
23.7903
 30
0.0
 10
4.1492
 20
23.7719
 30
0.0
 10
4.1163
 20
23.7451
 30
0.0
 10
4.0937
 20
23.7093
 30
0.0
 10
4.0937
 20
23.7093
 30
0.0
 10
4.0707
 20
23.6741
 30
0.0
 10
4.0589
 20
23.635
 30
0.0
 10
4.0589
 20
23.5918
 30
0.0
 10
4.0589
 20
23.5918
 30
0.0
 10
4.0589
 20
23.5254
 30
0.0
 10
4.0843
 20
23.4704
 30
0.0
 10
4.1342
 20
23.4262
 30
0.0
 10
4.1342
 20
23.4262
 30
0.0
 10
4.184
 20
23.3824
 30
0.0
 10
4.2574
 20
23.3603
 30
0.0
 10
4.3538
 20
23.3603
 30
0.0
 10
4.3538
 20
23.3603
 30
0.0
 10
4.4493
 20
23.3603
 30
0.0
 10
4.5345
 20
23.381
 30
0.0
 10
4.6088
 20
23.4229
 30
0.0
 10
4.6088
 20
23.4229
 30
0.0
 10
4.6831
 20
23.4648
 30
0.0
 10
4.7381
 20
23.5221
 30
0.0
 10
4.7729
 20
23.5946
 30
0.0
 10
4.7729
 20
23.5946
 30
0.0
 10
4.7997
 20
23.6506
 30
0.0
 10
4.8129
 20
23.7333
 30
0.0
 10
4.8129
 20
23.8425
 30
0.0
 10
4.8129
 20
23.8425
 30
0.0
 10
4.8129
 20
23.8425
 30
0.0
 10
4.8129
 20
23.9337
 30
0.0
 10
4.8129
 20
23.9337
 30
0.0
  0
SPLINE
  5
F9
330
1F
100
AcDbEntity
  8
DEFAULT_1
 62
   250
100
AcDbSpline
210
0.0
220
0.0
230
1.0
 70
    11
 71
     3
 72
    64
 73
    60
 74
     0
 42
0.0000000001
 43
0.0000000001
 40
0.0
 40
0.0
 40
0.0
 40
0.0
 40
0.0625
 40
0.0625
 40
0.0625
 40
0.0625
 40
0.125
 40
0.125
 40
0.125
 40
0.125
 40
0.1875
 40
0.1875
 40
0.1875
 40
0.1875
 40
0.25
 40
0.25
 40
0.25
 40
0.25
 40
0.3125
 40
0.3125
 40
0.3125
 40
0.3125
 40
0.375
 40
0.375
 40
0.375
 40
0.375
 40
0.4375
 40
0.4375
 40
0.4375
 40
0.4375
 40
0.5
 40
0.5
 40
0.5
 40
0.5
 40
0.5625
 40
0.5625
 40
0.5625
 40
0.5625
 40
0.625
 40
0.625
 40
0.625
 40
0.625
 40
0.6875
 40
0.6875
 40
0.6875
 40
0.6875
 40
0.75
 40
0.75
 40
0.75
 40
0.75
 40
0.8125
 40
0.8125
 40
0.8125
 40
0.8125
 40
0.875
 40
0.875
 40
0.875
 40
0.875
 40
1.0
 40
1.0
 40
1.0
 40
1.0
 10
5.2828
 20
23.199
 30
0.0
 10
5.2828
 20
23.199
 30
0.0
 10
5.8176
 20
23.9596
 30
0.0
 10
5.8176
 20
23.9596
 30
0.0
 10
5.8176
 20
23.9596
 30
0.0
 10
5.8176
 20
23.9596
 30
0.0
 10
5.3228
 20
24.6623
 30
0.0
 10
5.3228
 20
24.6623
 30
0.0
 10
5.3228
 20
24.6623
 30
0.0
 10
5.3228
 20
24.6623
 30
0.0
 10
5.6327
 20
24.6623
 30
0.0
 10
5.6327
 20
24.6623
 30
0.0
 10
5.6327
 20
24.6623
 30
0.0
 10
5.6327
 20
24.6623
 30
0.0
 10
5.8576
 20
24.3194
 30
0.0
 10
5.8576
 20
24.3194
 30
0.0
 10
5.8576
 20
24.3194
 30
0.0
 10
5.8994
 20
24.254
 30
0.0
 10
5.9338
 20
24.1995
 30
0.0
 10
5.9592
 20
24.1553
 30
0.0
 10
5.9592
 20
24.1553
 30
0.0
 10
5.9996
 20
24.2159
 30
0.0
 10
6.0368
 20
24.2696
 30
0.0
 10
6.0711
 20
24.3166
 30
0.0
 10
6.0711
 20
24.3166
 30
0.0
 10
6.0711
 20
24.3166
 30
0.0
 10
6.3176
 20
24.6623
 30
0.0
 10
6.3176
 20
24.6623
 30
0.0
 10
6.3176
 20
24.6623
 30
0.0
 10
6.3176
 20
24.6623
 30
0.0
 10
6.6139
 20
24.6623
 30
0.0
 10
6.6139
 20
24.6623
 30
0.0
 10
6.6139
 20
24.6623
 30
0.0
 10
6.6139
 20
24.6623
 30
0.0
 10
6.1083
 20
23.9732
 30
0.0
 10
6.1083
 20
23.9732
 30
0.0
 10
6.1083
 20
23.9732
 30
0.0
 10
6.1083
 20
23.9732
 30
0.0
 10
6.6525
 20
23.199
 30
0.0
 10
6.6525
 20
23.199
 30
0.0
 10
6.6525
 20
23.199
 30
0.0
 10
6.6525
 20
23.199
 30
0.0
 10
6.3482
 20
23.199
 30
0.0
 10
6.3482
 20
23.199
 30
0.0
 10
6.3482
 20
23.199
 30
0.0
 10
6.3482
 20
23.199
 30
0.0
 10
6.0476
 20
23.6538
 30
0.0
 10
6.0476
 20
23.6538
 30
0.0
 10
6.0476
 20
23.6538
 30
0.0
 10
6.0476
 20
23.6538
 30
0.0
 10
5.9677
 20
23.7766
 30
0.0
 10
5.9677
 20
23.7766
 30
0.0
 10
5.9677
 20
23.7766
 30
0.0
 10
5.9677
 20
23.7766
 30
0.0
 10
5.5834
 20
23.199
 30
0.0
 10
5.5834
 20
23.199
 30
0.0
 10
5.5834
 20
23.199
 30
0.0
 10
5.5834
 20
23.199
 30
0.0
 10
5.2828
 20
23.199
 30
0.0
 10
5.2828
 20
23.199
 30
0.0
  0
SPLINE
  5
FA
330
1F
100
AcDbEntity
  8
DEFAULT_1
 62
   250
100
AcDbSpline
210
0.0
220
0.0
230
1.0
 70
    11
 71
     3
 72
    92
 73
    88
 74
     0
 42
0.0000000001
 43
0.0000000001
 40
0.0
 40
0.0
 40
0.0
 40
0.0
 40
0.0434782608695652
 40
0.0434782608695652
 40
0.0434782608695652
 40
0.0434782608695652
 40
0.0869565217391304
 40
0.0869565217391304
 40
0.0869565217391304
 40
0.0869565217391304
 40
0.1304347826086956
 40
0.1304347826086956
 40
0.1304347826086956
 40
0.1304347826086956
 40
0.1739130434782609
 40
0.1739130434782609
 40
0.1739130434782609
 40
0.1739130434782609
 40
0.2173913043478261
 40
0.2173913043478261
 40
0.2173913043478261
 40
0.2173913043478261
 40
0.2608695652173913
 40
0.2608695652173913
 40
0.2608695652173913
 40
0.2608695652173913
 40
0.3043478260869565
 40
0.3043478260869565
 40
0.3043478260869565
 40
0.3043478260869565
 40
0.3478260869565217
 40
0.3478260869565217
 40
0.3478260869565217
 40
0.3478260869565217
 40
0.391304347826087
 40
0.391304347826087
 40
0.391304347826087
 40
0.391304347826087
 40
0.4347826086956522
 40
0.4347826086956522
 40
0.4347826086956522
 40
0.4347826086956522
 40
0.4782608695652174
 40
0.4782608695652174
 40
0.4782608695652174
 40
0.4782608695652174
 40
0.5217391304347826
 40
0.5217391304347826
 40
0.5217391304347826
 40
0.5217391304347826
 40
0.5652173913043478
 40
0.5652173913043478
 40
0.5652173913043478
 40
0.5652173913043478
 40
0.6086956521739131
 40
0.6086956521739131
 40
0.6086956521739131
 40
0.6086956521739131
 40
0.6521739130434783
 40
0.6521739130434783
 40
0.6521739130434783
 40
0.6521739130434783
 40
0.6956521739130435
 40
0.6956521739130435
 40
0.6956521739130435
 40
0.6956521739130435
 40
0.7391304347826086
 40
0.7391304347826086
 40
0.7391304347826086
 40
0.7391304347826086
 40
0.782608695652174
 40
0.782608695652174
 40
0.782608695652174
 40
0.782608695652174
 40
0.8260869565217391
 40
0.8260869565217391
 40
0.8260869565217391
 40
0.8260869565217391
 40
0.8695652173913043
 40
0.8695652173913043
 40
0.8695652173913043
 40
0.8695652173913043
 40
0.9130434782608695
 40
0.9130434782608695
 40
0.9130434782608695
 40
0.9130434782608695
 40
1.0
 40
1.0
 40
1.0
 40
1.0
 10
8.8783
 20
23.4375
 30
0.0
 10
8.8783
 20
23.4375
 30
0.0
 10
8.8783
 20
23.199
 30
0.0
 10
8.8783
 20
23.199
 30
0.0
 10
8.8783
 20
23.199
 30
0.0
 10
8.8783
 20
23.199
 30
0.0
 10
7.5429
 20
23.199
 30
0.0
 10
7.5429
 20
23.199
 30
0.0
 10
7.5429
 20
23.199
 30
0.0
 10
7.541
 20
23.2587
 30
0.0
 10
7.5504
 20
23.3161
 30
0.0
 10
7.5716
 20
23.3712
 30
0.0
 10
7.5716
 20
23.3712
 30
0.0
 10
7.6055
 20
23.4624
 30
0.0
 10
7.66
 20
23.5518
 30
0.0
 10
7.7348
 20
23.6402
 30
0.0
 10
7.7348
 20
23.6402
 30
0.0
 10
7.8101
 20
23.7282
 30
0.0
 10
7.9183
 20
23.8302
 30
0.0
 10
8.0594
 20
23.9459
 30
0.0
 10
8.0594
 20
23.9459
 30
0.0
 10
8.279
 20
24.1261
 30
0.0
 10
8.4277
 20
24.2686
 30
0.0
 10
8.5048
 20
24.374
 30
0.0
 10
8.5048
 20
24.374
 30
0.0
 10
8.5819
 20
24.4789
 30
0.0
 10
8.6205
 20
24.5786
 30
0.0
 10
8.6205
 20
24.6722
 30
0.0
 10
8.6205
 20
24.6722
 30
0.0
 10
8.6205
 20
24.7705
 30
0.0
 10
8.5852
 20
24.8533
 30
0.0
 10
8.5152
 20
24.921
 30
0.0
 10
8.5152
 20
24.921
 30
0.0
 10
8.4446
 20
24.9883
 30
0.0
 10
8.3529
 20
25.0221
 30
0.0
 10
8.24
 20
25.0221
 30
0.0
 10
8.24
 20
25.0221
 30
0.0
 10
8.1205
 20
25.0221
 30
0.0
 10
8.025
 20
24.9864
 30
0.0
 10
7.9535
 20
24.9144
 30
0.0
 10
7.9535
 20
24.9144
 30
0.0
 10
7.8816
 20
24.8429
 30
0.0
 10
7.8454
 20
24.7437
 30
0.0
 10
7.8444
 20
24.6172
 30
0.0
 10
7.8444
 20
24.6172
 30
0.0
 10
7.8444
 20
24.6172
 30
0.0
 10
7.5895
 20
24.643
 30
0.0
 10
7.5895
 20
24.643
 30
0.0
 10
7.5895
 20
24.643
 30
0.0
 10
7.6069
 20
24.8335
 30
0.0
 10
7.6727
 20
24.9784
 30
0.0
 10
7.7866
 20
25.0781
 30
0.0
 10
7.7866
 20
25.0781
 30
0.0
 10
7.9004
 20
25.1778
 30
0.0
 10
8.0537
 20
25.2277
 30
0.0
 10
8.2456
 20
25.2277
 30
0.0
 10
8.2456
 20
25.2277
 30
0.0
 10
8.4394
 20
25.2277
 30
0.0
 10
8.5928
 20
25.1736
 30
0.0
 10
8.7057
 20
25.0664
 30
0.0
 10
8.7057
 20
25.0664
 30
0.0
 10
8.819
 20
24.9586
 30
0.0
 10
8.8755
 20
24.8255
 30
0.0
 10
8.8755
 20
24.6665
 30
0.0
 10
8.8755
 20
24.6665
 30
0.0
 10
8.8755
 20
24.5856
 30
0.0
 10
8.859
 20
24.5061
 30
0.0
 10
8.8256
 20
24.4281
 30
0.0
 10
8.8256
 20
24.4281
 30
0.0
 10
8.7927
 20
24.35
 30
0.0
 10
8.7376
 20
24.2677
 30
0.0
 10
8.661
 20
24.1816
 30
0.0
 10
8.661
 20
24.1816
 30
0.0
 10
8.5843
 20
24.095
 30
0.0
 10
8.4568
 20
23.9765
 30
0.0
 10
8.2786
 20
23.826
 30
0.0
 10
8.2786
 20
23.826
 30
0.0
 10
8.1299
 20
23.7009
 30
0.0
 10
8.0344
 20
23.6162
 30
0.0
 10
7.9921
 20
23.5715
 30
0.0
 10
7.9921
 20
23.5715
 30
0.0
 10
7.9498
 20
23.5273
 30
0.0
 10
7.915
 20
23.4826
 30
0.0
 10
7.8872
 20
23.4375
 30
0.0
 10
7.8872
 20
23.4375
 30
0.0
 10
7.8872
 20
23.4375
 30
0.0
 10
8.8783
 20
23.4375
 30
0.0
 10
8.8783
 20
23.4375
 30
0.0
  0
SPLINE
  5
FB
330
1F
100
AcDbEntity
  8
DEFAULT_1
 62
   250
100
AcDbSpline
210
0.0
220
0.0
230
1.0
 70
    11
 71
     3
 72
    92
 73
    88
 74
     0
 42
0.0000000001
 43
0.0000000001
 40
0.0
 40
0.0
 40
0.0
 40
0.0
 40
0.0434782608695652
 40
0.0434782608695652
 40
0.0434782608695652
 40
0.0434782608695652
 40
0.0869565217391304
 40
0.0869565217391304
 40
0.0869565217391304
 40
0.0869565217391304
 40
0.1304347826086956
 40
0.1304347826086956
 40
0.1304347826086956
 40
0.1304347826086956
 40
0.1739130434782609
 40
0.1739130434782609
 40
0.1739130434782609
 40
0.1739130434782609
 40
0.2173913043478261
 40
0.2173913043478261
 40
0.2173913043478261
 40
0.2173913043478261
 40
0.2608695652173913
 40
0.2608695652173913
 40
0.2608695652173913
 40
0.2608695652173913
 40
0.3043478260869565
 40
0.3043478260869565
 40
0.3043478260869565
 40
0.3043478260869565
 40
0.3478260869565217
 40
0.3478260869565217
 40
0.3478260869565217
 40
0.3478260869565217
 40
0.391304347826087
 40
0.391304347826087
 40
0.391304347826087
 40
0.391304347826087
 40
0.4347826086956522
 40
0.4347826086956522
 40
0.4347826086956522
 40
0.4347826086956522
 40
0.4782608695652174
 40
0.4782608695652174
 40
0.4782608695652174
 40
0.4782608695652174
 40
0.5217391304347826
 40
0.5217391304347826
 40
0.5217391304347826
 40
0.5217391304347826
 40
0.5652173913043478
 40
0.5652173913043478
 40
0.5652173913043478
 40
0.5652173913043478
 40
0.6086956521739131
 40
0.6086956521739131
 40
0.6086956521739131
 40
0.6086956521739131
 40
0.6521739130434783
 40
0.6521739130434783
 40
0.6521739130434783
 40
0.6521739130434783
 40
0.6956521739130435
 40
0.6956521739130435
 40
0.6956521739130435
 40
0.6956521739130435
 40
0.7391304347826086
 40
0.7391304347826086
 40
0.7391304347826086
 40
0.7391304347826086
 40
0.782608695652174
 40
0.782608695652174
 40
0.782608695652174
 40
0.782608695652174
 40
0.8260869565217391
 40
0.8260869565217391
 40
0.8260869565217391
 40
0.8260869565217391
 40
0.8695652173913043
 40
0.8695652173913043
 40
0.8695652173913043
 40
0.8695652173913043
 40
0.9130434782608695
 40
0.9130434782608695
 40
0.9130434782608695
 40
0.9130434782608695
 40
1.0
 40
1.0
 40
1.0
 40
1.0
 10
9.1812
 20
23.6661
 30
0.0
 10
9.1812
 20
23.6661
 30
0.0
 10
9.4197
 20
23.6882
 30
0.0
 10
9.4197
 20
23.6882
 30
0.0
 10
9.4197
 20
23.6882
 30
0.0
 10
9.4399
 20
23.5762
 30
0.0
 10
9.4785
 20
23.4949
 30
0.0
 10
9.5354
 20
23.4441
 30
0.0
 10
9.5354
 20
23.4441
 30
0.0
 10
9.5923
 20
23.3937
 30
0.0
 10
9.6652
 20
23.3683
 30
0.0
 10
9.7546
 20
23.3683
 30
0.0
 10
9.7546
 20
23.3683
 30
0.0
 10
9.8308
 20
23.3683
 30
0.0
 10
9.8975
 20
23.3857
 30
0.0
 10
9.9549
 20
23.421
 30
0.0
 10
9.9549
 20
23.421
 30
0.0
 10
10.0123
 20
23.4558
 30
0.0
 10
10.0594
 20
23.5024
 30
0.0
 10
10.096
 20
23.5607
 30
0.0
 10
10.096
 20
23.5607
 30
0.0
 10
10.1332
 20
23.619
 30
0.0
 10
10.1638
 20
23.6981
 30
0.0
 10
10.1887
 20
23.7968
 30
0.0
 10
10.1887
 20
23.7968
 30
0.0
 10
10.2132
 20
23.8961
 30
0.0
 10
10.2259
 20
23.9972
 30
0.0
 10
10.2259
 20
24.1002
 30
0.0
 10
10.2259
 20
24.1002
 30
0.0
 10
10.2259
 20
24.111
 30
0.0
 10
10.2254
 20
24.128
 30
0.0
 10
10.2245
 20
24.1496
 30
0.0
 10
10.2245
 20
24.1496
 30
0.0
 10
10.1746
 20
24.0711
 30
0.0
 10
10.1069
 20
24.0066
 30
0.0
 10
10.0213
 20
23.9577
 30
0.0
 10
10.0213
 20
23.9577
 30
0.0
 10
9.9352
 20
23.9083
 30
0.0
 10
9.842
 20
23.8839
 30
0.0
 10
9.7423
 20
23.8839
 30
0.0
 10
9.7423
 20
23.8839
 30
0.0
 10
9.5749
 20
23.8839
 30
0.0
 10
9.4333
 20
23.9445
 30
0.0
 10
9.3176
 20
24.0659
 30
0.0
 10
9.3176
 20
24.0659
 30
0.0
 10
9.2019
 20
24.1872
 30
0.0
 10
9.144
 20
24.3467
 30
0.0
 10
9.144
 20
24.5452
 30
0.0
 10
9.144
 20
24.5452
 30
0.0
 10
9.144
 20
24.7503
 30
0.0
 10
9.2042
 20
24.9149
 30
0.0
 10
9.3251
 20
25.04
 30
0.0
 10
9.3251
 20
25.04
 30
0.0
 10
9.446
 20
25.1651
 30
0.0
 10
9.5975
 20
25.2277
 30
0.0
 10
9.7795
 20
25.2277
 30
0.0
 10
9.7795
 20
25.2277
 30
0.0
 10
9.9107
 20
25.2277
 30
0.0
 10
10.0307
 20
25.1919
 30
0.0
 10
10.1398
 20
25.1214
 30
0.0
 10
10.1398
 20
25.1214
 30
0.0
 10
10.2484
 20
25.0508
 30
0.0
 10
10.3312
 20
24.9497
 30
0.0
 10
10.3877
 20
24.8189
 30
0.0
 10
10.3877
 20
24.8189
 30
0.0
 10
10.4441
 20
24.6882
 30
0.0
 10
10.4723
 20
24.4986
 30
0.0
 10
10.4723
 20
24.2503
 30
0.0
 10
10.4723
 20
24.2503
 30
0.0
 10
10.4723
 20
23.9925
 30
0.0
 10
10.4446
 20
23.787
 30
0.0
 10
10.3886
 20
23.6336
 30
0.0
 10
10.3886
 20
23.6336
 30
0.0
 10
10.3322
 20
23.4807
 30
0.0
 10
10.2489
 20
23.3646
 30
0.0
 10
10.1384
 20
23.2846
 30
0.0
 10
10.1384
 20
23.2846
 30
0.0
 10
10.0274
 20
23.2046
 30
0.0
 10
9.898
 20
23.1647
 30
0.0
 10
9.7489
 20
23.1647
 30
0.0
 10
9.7489
 20
23.1647
 30
0.0
 10
9.5909
 20
23.1647
 30
0.0
 10
9.462
 20
23.2084
 30
0.0
 10
9.3618
 20
23.2964
 30
0.0
 10
9.3618
 20
23.2964
 30
0.0
 10
9.2616
 20
23.3839
 30
0.0
 10
9.2014
 20
23.5071
 30
0.0
 10
9.1812
 20
23.6661
 30
0.0
  0
SPLINE
  5
FC
330
1F
100
AcDbEntity
  8
DEFAULT_1
 62
   250
100
AcDbSpline
210
0.0
220
0.0
230
1.0
 70
    11
 71
     3
 72
    36
 73
    32
 74
     0
 42
0.0000000001
 43
0.0000000001
 40
0.0
 40
0.0
 40
0.0
 40
0.0
 40
0.1111111111111111
 40
0.1111111111111111
 40
0.1111111111111111
 40
0.1111111111111111
 40
0.2222222222222222
 40
0.2222222222222222
 40
0.2222222222222222
 40
0.2222222222222222
 40
0.3333333333333333
 40
0.3333333333333333
 40
0.3333333333333333
 40
0.3333333333333333
 40
0.4444444444444444
 40
0.4444444444444444
 40
0.4444444444444444
 40
0.4444444444444444
 40
0.5555555555555556
 40
0.5555555555555556
 40
0.5555555555555556
 40
0.5555555555555556
 40
0.6666666666666666
 40
0.6666666666666666
 40
0.6666666666666666
 40
0.6666666666666666
 40
0.7777777777777778
 40
0.7777777777777778
 40
0.7777777777777778
 40
0.7777777777777778
 40
1.0
 40
1.0
 40
1.0
 40
1.0
 10
10.1967
 20
24.5579
 30
0.0
 10
10.1967
 20
24.6999
 30
0.0
 10
10.1591
 20
24.8133
 30
0.0
 10
10.0833
 20
24.8966
 30
0.0
 10
10.0833
 20
24.8966
 30
0.0
 10
10.0071
 20
24.9803
 30
0.0
 10
9.9164
 20
25.0221
 30
0.0
 10
9.8096
 20
25.0221
 30
0.0
 10
9.8096
 20
25.0221
 30
0.0
 10
9.6995
 20
25.0221
 30
0.0
 10
9.6036
 20
24.977
 30
0.0
 10
9.5217
 20
24.8871
 30
0.0
 10
9.5217
 20
24.8871
 30
0.0
 10
9.4399
 20
24.7968
 30
0.0
 10
9.399
 20
24.6802
 30
0.0
 10
9.399
 20
24.5372
 30
0.0
 10
9.399
 20
24.5372
 30
0.0
 10
9.399
 20
24.4083
 30
0.0
 10
9.438
 20
24.3039
 30
0.0
 10
9.5156
 20
24.2235
 30
0.0
 10
9.5156
 20
24.2235
 30
0.0
 10
9.5932
 20
24.143
 30
0.0
 10
9.6887
 20
24.103
 30
0.0
 10
9.8025
 20
24.103
 30
0.0
 10
9.8025
 20
24.103
 30
0.0
 10
9.9178
 20
24.103
 30
0.0
 10
10.0118
 20
24.143
 30
0.0
 10
10.0857
 20
24.2235
 30
0.0
 10
10.0857
 20
24.2235
 30
0.0
 10
10.16
 20
24.3039
 30
0.0
 10
10.1967
 20
24.4154
 30
0.0
 10
10.1967
 20
24.5579
 30
0.0
  0
SPLINE
  5
FD
330
1F
100
AcDbEntity
  8
DEFAULT_1
 62
   250
100
AcDbSpline
210
0.0
220
0.0
230
1.0
 70
    11
 71
     3
 72
    52
 73
    48
 74
     0
 42
0.0000000001
 43
0.0000000001
 40
0.0
 40
0.0
 40
0.0
 40
0.0
 40
0.0769230769230769
 40
0.0769230769230769
 40
0.0769230769230769
 40
0.0769230769230769
 40
0.1538461538461539
 40
0.1538461538461539
 40
0.1538461538461539
 40
0.1538461538461539
 40
0.2307692307692308
 40
0.2307692307692308
 40
0.2307692307692308
 40
0.2307692307692308
 40
0.3076923076923077
 40
0.3076923076923077
 40
0.3076923076923077
 40
0.3076923076923077
 40
0.3846153846153846
 40
0.3846153846153846
 40
0.3846153846153846
 40
0.3846153846153846
 40
0.4615384615384616
 40
0.4615384615384616
 40
0.4615384615384616
 40
0.4615384615384616
 40
0.5384615384615384
 40
0.5384615384615384
 40
0.5384615384615384
 40
0.5384615384615384
 40
0.6153846153846154
 40
0.6153846153846154
 40
0.6153846153846154
 40
0.6153846153846154
 40
0.6923076923076923
 40
0.6923076923076923
 40
0.6923076923076923
 40
0.6923076923076923
 40
0.7692307692307693
 40
0.7692307692307693
 40
0.7692307692307693
 40
0.7692307692307693
 40
0.8461538461538461
 40
0.8461538461538461
 40
0.8461538461538461
 40
0.8461538461538461
 40
1.0
 40
1.0
 40
1.0
 40
1.0
 10
10.7136
 20
24.1952
 30
0.0
 10
10.7136
 20
24.4342
 30
0.0
 10
10.7381
 20
24.6266
 30
0.0
 10
10.7875
 20
24.7719
 30
0.0
 10
10.7875
 20
24.7719
 30
0.0
 10
10.8364
 20
24.9177
 30
0.0
 10
10.9098
 20
25.0301
 30
0.0
 10
11.0067
 20
25.1092
 30
0.0
 10
11.0067
 20
25.1092
 30
0.0
 10
11.1036
 20
25.1882
 30
0.0
 10
11.2254
 20
25.2277
 30
0.0
 10
11.3721
 20
25.2277
 30
0.0
 10
11.3721
 20
25.2277
 30
0.0
 10
11.4808
 20
25.2277
 30
0.0
 10
11.5758
 20
25.2056
 30
0.0
 10
11.6576
 20
25.1618
 30
0.0
 10
11.6576
 20
25.1618
 30
0.0
 10
11.7395
 20
25.1186
 30
0.0
 10
11.8068
 20
25.0555
 30
0.0
 10
11.8604
 20
24.9732
 30
0.0
 10
11.8604
 20
24.9732
 30
0.0
 10
11.9135
 20
24.8909
 30
0.0
 10
11.9554
 20
24.7907
 30
0.0
 10
11.9855
 20
24.6727
 30
0.0
 10
11.9855
 20
24.6727
 30
0.0
 10
12.0161
 20
24.5546
 30
0.0
 10
12.0311
 20
24.3956
 30
0.0
 10
12.0311
 20
24.1952
 30
0.0
 10
12.0311
 20
24.1952
 30
0.0
 10
12.0311
 20
23.9582
 30
0.0
 10
12.0067
 20
23.7672
 30
0.0
 10
11.9582
 20
23.6214
 30
0.0
 10
11.9582
 20
23.6214
 30
0.0
 10
11.9093
 20
23.4756
 30
0.0
 10
11.8364
 20
23.3632
 30
0.0
 10
11.7395
 20
23.2837
 30
0.0
 10
11.7395
 20
23.2837
 30
0.0
 10
11.6426
 20
23.2042
 30
0.0
 10
11.5203
 20
23.1647
 30
0.0
 10
11.3721
 20
23.1647
 30
0.0
 10
11.3721
 20
23.1647
 30
0.0
 10
11.1774
 20
23.1647
 30
0.0
 10
11.0245
 20
23.2343
 30
0.0
 10
10.9135
 20
23.374
 30
0.0
 10
10.9135
 20
23.374
 30
0.0
 10
10.7804
 20
23.5419
 30
0.0
 10
10.7136
 20
23.8161
 30
0.0
 10
10.7136
 20
24.1952
 30
0.0
  0
SPLINE
  5
FE
330
1F
100
AcDbEntity
  8
DEFAULT_1
 62
   250
100
AcDbSpline
210
0.0
220
0.0
230
1.0
 70
    11
 71
     3
 72
    36
 73
    32
 74
     0
 42
0.0000000001
 43
0.0000000001
 40
0.0
 40
0.0
 40
0.0
 40
0.0
 40
0.1111111111111111
 40
0.1111111111111111
 40
0.1111111111111111
 40
0.1111111111111111
 40
0.2222222222222222
 40
0.2222222222222222
 40
0.2222222222222222
 40
0.2222222222222222
 40
0.3333333333333333
 40
0.3333333333333333
 40
0.3333333333333333
 40
0.3333333333333333
 40
0.4444444444444444
 40
0.4444444444444444
 40
0.4444444444444444
 40
0.4444444444444444
 40
0.5555555555555556
 40
0.5555555555555556
 40
0.5555555555555556
 40
0.5555555555555556
 40
0.6666666666666666
 40
0.6666666666666666
 40
0.6666666666666666
 40
0.6666666666666666
 40
0.7777777777777778
 40
0.7777777777777778
 40
0.7777777777777778
 40
0.7777777777777778
 40
1.0
 40
1.0
 40
1.0
 40
1.0
 10
10.9686
 20
24.1952
 30
0.0
 10
10.9686
 20
23.8636
 30
0.0
 10
11.0076
 20
23.643
 30
0.0
 10
11.0852
 20
23.533
 30
0.0
 10
11.0852
 20
23.533
 30
0.0
 10
11.1628
 20
23.4234
 30
0.0
 10
11.2583
 20
23.3683
 30
0.0
 10
11.3721
 20
23.3683
 30
0.0
 10
11.3721
 20
23.3683
 30
0.0
 10
11.4864
 20
23.3683
 30
0.0
 10
11.5819
 20
23.4238
 30
0.0
 10
11.6595
 20
23.5339
 30
0.0
 10
11.6595
 20
23.5339
 30
0.0
 10
11.7371
 20
23.644
 30
0.0
 10
11.7762
 20
23.8646
 30
0.0
 10
11.7762
 20
24.1952
 30
0.0
 10
11.7762
 20
24.1952
 30
0.0
 10
11.7762
 20
24.5278
 30
0.0
 10
11.7371
 20
24.7489
 30
0.0
 10
11.6595
 20
24.858
 30
0.0
 10
11.6595
 20
24.858
 30
0.0
 10
11.5819
 20
24.9676
 30
0.0
 10
11.4855
 20
25.0221
 30
0.0
 10
11.3698
 20
25.0221
 30
0.0
 10
11.3698
 20
25.0221
 30
0.0
 10
11.2555
 20
25.0221
 30
0.0
 10
11.1647
 20
24.9737
 30
0.0
 10
11.0965
 20
24.8773
 30
0.0
 10
11.0965
 20
24.8773
 30
0.0
 10
11.0114
 20
24.7545
 30
0.0
 10
10.9686
 20
24.5268
 30
0.0
 10
10.9686
 20
24.1952
 30
0.0
  0
SPLINE
  5
FF
330
1F
100
AcDbEntity
  8
DEFAULT_1
 62
   250
100
AcDbSpline
210
0.0
220
0.0
230
1.0
 70
    11
 71
     3
 72
    20
 73
    16
 74
     0
 42
0.0000000001
 43
0.0000000001
 40
0.0
 40
0.0
 40
0.0
 40
0.0
 40
0.2
 40
0.2
 40
0.2
 40
0.2
 40
0.4
 40
0.4
 40
0.4
 40
0.4
 40
0.6
 40
0.6
 40
0.6
 40
0.6
 40
1.0
 40
1.0
 40
1.0
 40
1.0
 10
32.6332
 20
22.6268
 30
0.0
 10
32.6332
 20
22.6268
 30
0.0
 10
36.187
 20
22.1252
 30
0.0
 10
36.187
 20
22.1252
 30
0.0
 10
36.187
 20
22.1252
 30
0.0
 10
36.187
 20
22.1252
 30
0.0
 10
36.187
 20
22.0138
 30
0.0
 10
36.187
 20
22.0138
 30
0.0
 10
36.187
 20
22.0138
 30
0.0
 10
36.187
 20
22.0138
 30
0.0
 10
32.6332
 20
21.479
 30
0.0
 10
32.6332
 20
21.479
 30
0.0
 10
32.6332
 20
21.479
 30
0.0
 10
32.6332
 20
21.479
 30
0.0
 10
32.6332
 20
22.6268
 30
0.0
 10
32.6332
 20
22.6268
 30
0.0
  0
SPLINE
  5
100
330
1F
100
AcDbEntity
  8
DEFAULT_1
 62
   250
100
AcDbSpline
210
0.0
220
0.0
230
1.0
 70
    11
 71
     3
 72
    20
 73
    16
 74
     0
 42
0.0000000001
 43
0.0000000001
 40
0.0
 40
0.0
 40
0.0
 40
0.0
 40
0.2
 40
0.2
 40
0.2
 40
0.2
 40
0.4
 40
0.4
 40
0.4
 40
0.4
 40
0.6
 40
0.6
 40
0.6
 40
0.6
 40
1.0
 40
1.0
 40
1.0
 40
1.0
 10
-21.2494
 20
21.5074
 30
0.0
 10
-21.2494
 20
21.5074
 30
0.0
 10
-24.8032
 20
22.009
 30
0.0
 10
-24.8032
 20
22.009
 30
0.0
 10
-24.8032
 20
22.009
 30
0.0
 10
-24.8032
 20
22.009
 30
0.0
 10
-24.8032
 20
22.1204
 30
0.0
 10
-24.8032
 20
22.1204
 30
0.0
 10
-24.8032
 20
22.1204
 30
0.0
 10
-24.8032
 20
22.1204
 30
0.0
 10
-21.2494
 20
22.6553
 30
0.0
 10
-21.2494
 20
22.6553
 30
0.0
 10
-21.2494
 20
22.6553
 30
0.0
 10
-21.2494
 20
22.6553
 30
0.0
 10
-21.2494
 20
21.5074
 30
0.0
 10
-21.2494
 20
21.5074
 30
0.0
  0
SPLINE
  5
101
330
1F
100
AcDbEntity
  8
DEFAULT_1
 62
   250
100
AcDbSpline
210
0.0
220
0.0
230
1.0
 70
    24
 71
     3
 72
     8
 73
     4
 74
     0
 42
0.0000000001
 43
0.0000000001
 40
0.0
 40
0.0
 40
0.0
 40
0.0
 40
1.0
 40
1.0
 40
1.0
 40
1.0
 10
-23.6165
 20
22.0821
 30
0.0
 10
-23.6165
 20
22.0821
 30
0.0
 10
35.1844
 20
22.0821
 30
0.0
 10
35.1844
 20
22.0821
 30
0.0
  0
SPLINE
  5
102
330
1F
100
AcDbEntity
  8
DEFAULT_1
 62
   250
100
AcDbSpline
210
0.0
220
0.0
230
1.0
 70
    24
 71
     3
 72
     8
 73
     4
 74
     0
 42
0.0000000001
 43
0.0000000001
 40
0.0
 40
0.0
 40
0.0
 40
0.0
 40
1.0
 40
1.0
 40
1.0
 40
1.0
 10
10.6551
 20
-21.0921
 30
0.0
 10
10.6551
 20
-21.0921
 30
0.0
 10
10.6551
 20
2.0435
 30
0.0
 10
10.6551
 20
2.0435
 30
0.0
  0
SPLINE
  5
103
330
1F
100
AcDbEntity
  8
DEFAULT_1
 62
   250
100
AcDbSpline
210
0.0
220
0.0
230
1.0
 70
    11
 71
     3
 72
    84
 73
    80
 74
     0
 42
0.0000000001
 43
0.0000000001
 40
0.0
 40
0.0
 40
0.0
 40
0.0
 40
0.0476190476190476
 40
0.0476190476190476
 40
0.0476190476190476
 40
0.0476190476190476
 40
0.0952380952380952
 40
0.0952380952380952
 40
0.0952380952380952
 40
0.0952380952380952
 40
0.1428571428571428
 40
0.1428571428571428
 40
0.1428571428571428
 40
0.1428571428571428
 40
0.1904761904761905
 40
0.1904761904761905
 40
0.1904761904761905
 40
0.1904761904761905
 40
0.2380952380952381
 40
0.2380952380952381
 40
0.2380952380952381
 40
0.2380952380952381
 40
0.2857142857142857
 40
0.2857142857142857
 40
0.2857142857142857
 40
0.2857142857142857
 40
0.3333333333333333
 40
0.3333333333333333
 40
0.3333333333333333
 40
0.3333333333333333
 40
0.3809523809523809
 40
0.3809523809523809
 40
0.3809523809523809
 40
0.3809523809523809
 40
0.4285714285714285
 40
0.4285714285714285
 40
0.4285714285714285
 40
0.4285714285714285
 40
0.4761904761904762
 40
0.4761904761904762
 40
0.4761904761904762
 40
0.4761904761904762
 40
0.5238095238095238
 40
0.5238095238095238
 40
0.5238095238095238
 40
0.5238095238095238
 40
0.5714285714285714
 40
0.5714285714285714
 40
0.5714285714285714
 40
0.5714285714285714
 40
0.6190476190476191
 40
0.6190476190476191
 40
0.6190476190476191
 40
0.6190476190476191
 40
0.6666666666666666
 40
0.6666666666666666
 40
0.6666666666666666
 40
0.6666666666666666
 40
0.7142857142857143
 40
0.7142857142857143
 40
0.7142857142857143
 40
0.7142857142857143
 40
0.7619047619047619
 40
0.7619047619047619
 40
0.7619047619047619
 40
0.7619047619047619
 40
0.8095238095238095
 40
0.8095238095238095
 40
0.8095238095238095
 40
0.8095238095238095
 40
0.8571428571428571
 40
0.8571428571428571
 40
0.8571428571428571
 40
0.8571428571428571
 40
0.9047619047619048
 40
0.9047619047619048
 40
0.9047619047619048
 40
0.9047619047619048
 40
1.0
 40
1.0
 40
1.0
 40
1.0
 10
-25.6908
 20
31.9046
 30
0.0
 10
-25.6908
 20
31.9046
 30
0.0
 10
-25.4593
 20
32.1638
 30
0.0
 10
-25.4593
 20
32.1638
 30
0.0
 10
-25.4593
 20
32.1638
 30
0.0
 10
-25.4593
 20
32.1638
 30
0.0
 10
-25.323
 20
32.0481
 30
0.0
 10
-25.323
 20
32.0481
 30
0.0
 10
-25.323
 20
32.0481
 30
0.0
 10
-25.323
 20
32.0481
 30
0.0
 10
-25.5652
 20
31.7752
 30
0.0
 10
-25.5652
 20
31.7752
 30
0.0
 10
-25.5652
 20
31.7752
 30
0.0
 10
-25.4862
 20
31.6577
 30
0.0
 10
-25.433
 20
31.5547
 30
0.0
 10
-25.4053
 20
31.4666
 30
0.0
 10
-25.4053
 20
31.4666
 30
0.0
 10
-25.3685
 20
31.3509
 30
0.0
 10
-25.3502
 20
31.2212
 30
0.0
 10
-25.3502
 20
31.0782
 30
0.0
 10
-25.3502
 20
31.0782
 30
0.0
 10
-25.3502
 20
30.8712
 30
0.0
 10
-25.3921
 20
30.6868
 30
0.0
 10
-25.4759
 20
30.5255
 30
0.0
 10
-25.4759
 20
30.5255
 30
0.0
 10
-25.5596
 20
30.3636
 30
0.0
 10
-25.6766
 20
30.2413
 30
0.0
 10
-25.8277
 20
30.1586
 30
0.0
 10
-25.8277
 20
30.1586
 30
0.0
 10
-25.9791
 20
30.0763
 30
0.0
 10
-26.1395
 20
30.0348
 30
0.0
 10
-26.3093
 20
30.0348
 30
0.0
 10
-26.3093
 20
30.0348
 30
0.0
 10
-26.4363
 20
30.0348
 30
0.0
 10
-26.5511
 20
30.0528
 30
0.0
 10
-26.6541
 20
30.0885
 30
0.0
 10
-26.6541
 20
30.0885
 30
0.0
 10
-26.7331
 20
30.1163
 30
0.0
 10
-26.8254
 20
30.169
 30
0.0
 10
-26.9312
 20
30.247
 30
0.0
 10
-26.9312
 20
30.247
 30
0.0
 10
-26.9312
 20
30.247
 30
0.0
 10
-27.1626
 20
29.9879
 30
0.0
 10
-27.1626
 20
29.9879
 30
0.0
 10
-27.1626
 20
29.9879
 30
0.0
 10
-27.1626
 20
29.9879
 30
0.0
 10
-27.299
 20
30.1036
 30
0.0
 10
-27.299
 20
30.1036
 30
0.0
 10
-27.299
 20
30.1036
 30
0.0
 10
-27.299
 20
30.1036
 30
0.0
 10
-27.0563
 20
30.3749
 30
0.0
 10
-27.0563
 20
30.3749
 30
0.0
 10
-27.0563
 20
30.3749
 30
0.0
 10
-27.1465
 20
30.5118
 30
0.0
 10
-27.2068
 20
30.629
 30
0.0
 10
-27.237
 20
30.7259
 30
0.0
 10
-27.237
 20
30.7259
 30
0.0
 10
-27.267
 20
30.8228
 30
0.0
 10
-27.2825
 20
30.9393
 30
0.0
 10
-27.2825
 20
31.0753
 30
0.0
 10
-27.2825
 20
31.0753
 30
0.0
 10
-27.2825
 20
31.2828
 30
0.0
 10
-27.2412
 20
31.4676
 30
0.0
 10
-27.1584
 20
31.6299
 30
0.0
 10
-27.1584
 20
31.6299
 30
0.0
 10
-27.0756
 20
31.7922
 30
0.0
 10
-26.9599
 20
31.915
 30
0.0
 10
-26.8103
 20
31.9986
 30
0.0
 10
-26.8103
 20
31.9986
 30
0.0
 10
-26.6612
 20
32.082
 30
0.0
 10
-26.4951
 20
32.1238
 30
0.0
 10
-26.3121
 20
32.1238
 30
0.0
 10
-26.3121
 20
32.1238
 30
0.0
 10
-26.1889
 20
32.1238
 30
0.0
 10
-26.0813
 20
32.1079
 30
0.0
 10
-25.989
 20
32.0749
 30
0.0
 10
-25.989
 20
32.0749
 30
0.0
 10
-25.8968
 20
32.0425
 30
0.0
 10
-25.7971
 20
31.9854
 30
0.0
 10
-25.6908
 20
31.9046
 30
0.0
  0
SPLINE
  5
104
330
1F
100
AcDbEntity
  8
DEFAULT_1
 62
   250
100
AcDbSpline
210
0.0
220
0.0
230
1.0
 70
    11
 71
     3
 72
    32
 73
    28
 74
     0
 42
0.0000000001
 43
0.0000000001
 40
0.0
 40
0.0
 40
0.0
 40
0.0
 40
0.125
 40
0.125
 40
0.125
 40
0.125
 40
0.25
 40
0.25
 40
0.25
 40
0.25
 40
0.375
 40
0.375
 40
0.375
 40
0.375
 40
0.5
 40
0.5
 40
0.5
 40
0.5
 40
0.625
 40
0.625
 40
0.625
 40
0.625
 40
0.75
 40
0.75
 40
0.75
 40
0.75
 40
1.0
 40
1.0
 40
1.0
 40
1.0
 10
-25.8558
 20
31.7188
 30
0.0
 10
-25.9424
 20
31.7866
 30
0.0
 10
-26.0181
 20
31.8331
 30
0.0
 10
-26.0826
 20
31.858
 30
0.0
 10
-26.0826
 20
31.858
 30
0.0
 10
-26.1475
 20
31.8825
 30
0.0
 10
-26.2237
 20
31.8952
 30
0.0
 10
-26.3108
 20
31.8952
 30
0.0
 10
-26.3108
 20
31.8952
 30
0.0
 10
-26.512
 20
31.8952
 30
0.0
 10
-26.6782
 20
31.827
 30
0.0
 10
-26.8098
 20
31.6905
 30
0.0
 10
-26.8098
 20
31.6905
 30
0.0
 10
-26.9411
 20
31.5542
 30
0.0
 10
-27.0069
 20
31.3506
 30
0.0
 10
-27.0069
 20
31.0791
 30
0.0
 10
-27.0069
 20
31.0791
 30
0.0
 10
-27.0069
 20
30.9728
 30
0.0
 10
-26.9966
 20
30.8782
 30
0.0
 10
-26.9763
 20
30.7955
 30
0.0
 10
-26.9763
 20
30.7955
 30
0.0
 10
-26.9617
 20
30.7339
 30
0.0
 10
-26.9312
 20
30.6581
 30
0.0
 10
-26.8841
 20
30.5682
 30
0.0
 10
-26.8841
 20
30.5682
 30
0.0
 10
-26.8841
 20
30.5682
 30
0.0
 10
-25.8558
 20
31.7188
 30
0.0
 10
-25.8558
 20
31.7188
 30
0.0
  0
SPLINE
  5
105
330
1F
100
AcDbEntity
  8
DEFAULT_1
 62
   250
100
AcDbSpline
210
0.0
220
0.0
230
1.0
 70
    11
 71
     3
 72
    28
 73
    24
 74
     0
 42
0.0000000001
 43
0.0000000001
 40
0.0
 40
0.0
 40
0.0
 40
0.0
 40
0.1428571428571428
 40
0.1428571428571428
 40
0.1428571428571428
 40
0.1428571428571428
 40
0.2857142857142857
 40
0.2857142857142857
 40
0.2857142857142857
 40
0.2857142857142857
 40
0.4285714285714285
 40
0.4285714285714285
 40
0.4285714285714285
 40
0.4285714285714285
 40
0.5714285714285714
 40
0.5714285714285714
 40
0.5714285714285714
 40
0.5714285714285714
 40
0.7142857142857143
 40
0.7142857142857143
 40
0.7142857142857143
 40
0.7142857142857143
 40
1.0
 40
1.0
 40
1.0
 40
1.0
 10
-25.743
 20
31.5767
 30
0.0
 10
-25.743
 20
31.5767
 30
0.0
 10
-26.767
 20
30.4305
 30
0.0
 10
-26.767
 20
30.4305
 30
0.0
 10
-26.767
 20
30.4305
 30
0.0
 10
-26.6965
 20
30.3726
 30
0.0
 10
-26.6311
 20
30.3321
 30
0.0
 10
-26.5713
 20
30.3091
 30
0.0
 10
-26.5713
 20
30.3091
 30
0.0
 10
-26.4932
 20
30.2785
 30
0.0
 10
-26.4085
 20
30.2635
 30
0.0
 10
-26.3178
 20
30.2635
 30
0.0
 10
-26.3178
 20
30.2635
 30
0.0
 10
-26.1174
 20
30.2635
 30
0.0
 10
-25.9524
 20
30.334
 30
0.0
 10
-25.8216
 20
30.4756
 30
0.0
 10
-25.8216
 20
30.4756
 30
0.0
 10
-25.6912
 20
30.6172
 30
0.0
 10
-25.6258
 20
30.8157
 30
0.0
 10
-25.6258
 20
31.0711
 30
0.0
 10
-25.6258
 20
31.0711
 30
0.0
 10
-25.6258
 20
31.262
 30
0.0
 10
-25.6649
 20
31.4309
 30
0.0
 10
-25.743
 20
31.5767
 30
0.0
  0
SPLINE
  5
106
330
1F
100
AcDbEntity
  8
DEFAULT_1
 62
   250
100
AcDbSpline
210
0.0
220
0.0
230
1.0
 70
    11
 71
     3
 72
    92
 73
    88
 74
     0
 42
0.0000000001
 43
0.0000000001
 40
0.0
 40
0.0
 40
0.0
 40
0.0
 40
0.0434782608695652
 40
0.0434782608695652
 40
0.0434782608695652
 40
0.0434782608695652
 40
0.0869565217391304
 40
0.0869565217391304
 40
0.0869565217391304
 40
0.0869565217391304
 40
0.1304347826086956
 40
0.1304347826086956
 40
0.1304347826086956
 40
0.1304347826086956
 40
0.1739130434782609
 40
0.1739130434782609
 40
0.1739130434782609
 40
0.1739130434782609
 40
0.2173913043478261
 40
0.2173913043478261
 40
0.2173913043478261
 40
0.2173913043478261
 40
0.2608695652173913
 40
0.2608695652173913
 40
0.2608695652173913
 40
0.2608695652173913
 40
0.3043478260869565
 40
0.3043478260869565
 40
0.3043478260869565
 40
0.3043478260869565
 40
0.3478260869565217
 40
0.3478260869565217
 40
0.3478260869565217
 40
0.3478260869565217
 40
0.391304347826087
 40
0.391304347826087
 40
0.391304347826087
 40
0.391304347826087
 40
0.4347826086956522
 40
0.4347826086956522
 40
0.4347826086956522
 40
0.4347826086956522
 40
0.4782608695652174
 40
0.4782608695652174
 40
0.4782608695652174
 40
0.4782608695652174
 40
0.5217391304347826
 40
0.5217391304347826
 40
0.5217391304347826
 40
0.5217391304347826
 40
0.5652173913043478
 40
0.5652173913043478
 40
0.5652173913043478
 40
0.5652173913043478
 40
0.6086956521739131
 40
0.6086956521739131
 40
0.6086956521739131
 40
0.6086956521739131
 40
0.6521739130434783
 40
0.6521739130434783
 40
0.6521739130434783
 40
0.6521739130434783
 40
0.6956521739130435
 40
0.6956521739130435
 40
0.6956521739130435
 40
0.6956521739130435
 40
0.7391304347826086
 40
0.7391304347826086
 40
0.7391304347826086
 40
0.7391304347826086
 40
0.782608695652174
 40
0.782608695652174
 40
0.782608695652174
 40
0.782608695652174
 40
0.8260869565217391
 40
0.8260869565217391
 40
0.8260869565217391
 40
0.8260869565217391
 40
0.8695652173913043
 40
0.8695652173913043
 40
0.8695652173913043
 40
0.8695652173913043
 40
0.9130434782608695
 40
0.9130434782608695
 40
0.9130434782608695
 40
0.9130434782608695
 40
1.0
 40
1.0
 40
1.0
 40
1.0
 10
-25.101
 20
30.5984
 30
0.0
 10
-25.101
 20
30.5984
 30
0.0
 10
-24.8404
 20
30.6205
 30
0.0
 10
-24.8404
 20
30.6205
 30
0.0
 10
-24.8404
 20
30.6205
 30
0.0
 10
-24.8211
 20
30.4935
 30
0.0
 10
-24.7764
 20
30.3985
 30
0.0
 10
-24.7064
 20
30.3345
 30
0.0
 10
-24.7064
 20
30.3345
 30
0.0
 10
-24.6358
 20
30.2706
 30
0.0
 10
-24.5511
 20
30.2386
 30
0.0
 10
-24.4518
 20
30.2386
 30
0.0
 10
-24.4518
 20
30.2386
 30
0.0
 10
-24.3324
 20
30.2386
 30
0.0
 10
-24.2313
 20
30.2837
 30
0.0
 10
-24.1489
 20
30.3736
 30
0.0
 10
-24.1489
 20
30.3736
 30
0.0
 10
-24.0661
 20
30.4639
 30
0.0
 10
-24.0248
 20
30.5833
 30
0.0
 10
-24.0248
 20
30.732
 30
0.0
 10
-24.0248
 20
30.732
 30
0.0
 10
-24.0248
 20
30.8736
 30
0.0
 10
-24.0643
 20
30.985
 30
0.0
 10
-24.1437
 20
31.0669
 30
0.0
 10
-24.1437
 20
31.0669
 30
0.0
 10
-24.2233
 20
31.1487
 30
0.0
 10
-24.3272
 20
31.1897
 30
0.0
 10
-24.456
 20
31.1897
 30
0.0
 10
-24.456
 20
31.1897
 30
0.0
 10
-24.536
 20
31.1897
 30
0.0
 10
-24.608
 20
31.1713
 30
0.0
 10
-24.6725
 20
31.1351
 30
0.0
 10
-24.6725
 20
31.1351
 30
0.0
 10
-24.7369
 20
31.0989
 30
0.0
 10
-24.7872
 20
31.0518
 30
0.0
 10
-24.8239
 20
30.994
 30
0.0
 10
-24.8239
 20
30.994
 30
0.0
 10
-24.8239
 20
30.994
 30
0.0
 10
-25.0567
 20
31.024
 30
0.0
 10
-25.0567
 20
31.024
 30
0.0
 10
-25.0567
 20
31.024
 30
0.0
 10
-25.0567
 20
31.024
 30
0.0
 10
-24.861
 20
32.0617
 30
0.0
 10
-24.861
 20
32.0617
 30
0.0
 10
-24.861
 20
32.0617
 30
0.0
 10
-24.861
 20
32.0617
 30
0.0
 10
-23.8564
 20
32.0617
 30
0.0
 10
-23.8564
 20
32.0617
 30
0.0
 10
-23.8564
 20
32.0617
 30
0.0
 10
-23.8564
 20
32.0617
 30
0.0
 10
-23.8564
 20
31.8247
 30
0.0
 10
-23.8564
 20
31.8247
 30
0.0
 10
-23.8564
 20
31.8247
 30
0.0
 10
-23.8564
 20
31.8247
 30
0.0
 10
-24.6625
 20
31.8247
 30
0.0
 10
-24.6625
 20
31.8247
 30
0.0
 10
-24.6625
 20
31.8247
 30
0.0
 10
-24.6625
 20
31.8247
 30
0.0
 10
-24.7718
 20
31.2818
 30
0.0
 10
-24.7718
 20
31.2818
 30
0.0
 10
-24.7718
 20
31.2818
 30
0.0
 10
-24.6503
 20
31.3665
 30
0.0
 10
-24.5229
 20
31.4088
 30
0.0
 10
-24.3898
 20
31.4088
 30
0.0
 10
-24.3898
 20
31.4088
 30
0.0
 10
-24.2133
 20
31.4088
 30
0.0
 10
-24.0648
 20
31.3477
 30
0.0
 10
-23.9433
 20
31.2254
 30
0.0
 10
-23.9433
 20
31.2254
 30
0.0
 10
-23.822
 20
31.1031
 30
0.0
 10
-23.7614
 20
30.9459
 30
0.0
 10
-23.7614
 20
30.754
 30
0.0
 10
-23.7614
 20
30.754
 30
0.0
 10
-23.7614
 20
30.5711
 30
0.0
 10
-23.8149
 20
30.413
 30
0.0
 10
-23.9213
 20
30.2799
 30
0.0
 10
-23.9213
 20
30.2799
 30
0.0
 10
-24.0511
 20
30.1166
 30
0.0
 10
-24.2279
 20
30.0348
 30
0.0
 10
-24.4518
 20
30.0348
 30
0.0
 10
-24.4518
 20
30.0348
 30
0.0
 10
-24.6358
 20
30.0348
 30
0.0
 10
-24.7858
 20
30.0861
 30
0.0
 10
-24.902
 20
30.1891
 30
0.0
 10
-24.902
 20
30.1891
 30
0.0
 10
-25.0182
 20
30.2921
 30
0.0
 10
-25.0845
 20
30.4286
 30
0.0
 10
-25.101
 20
30.5984
 30
0.0
  0
SPLINE
  5
107
330
1F
100
AcDbEntity
  8
DEFAULT_1
 62
   250
100
AcDbSpline
210
0.0
220
0.0
230
1.0
 70
    11
 71
     3
 72
    92
 73
    88
 74
     0
 42
0.0000000001
 43
0.0000000001
 40
0.0
 40
0.0
 40
0.0
 40
0.0
 40
0.0434782608695652
 40
0.0434782608695652
 40
0.0434782608695652
 40
0.0434782608695652
 40
0.0869565217391304
 40
0.0869565217391304
 40
0.0869565217391304
 40
0.0869565217391304
 40
0.1304347826086956
 40
0.1304347826086956
 40
0.1304347826086956
 40
0.1304347826086956
 40
0.1739130434782609
 40
0.1739130434782609
 40
0.1739130434782609
 40
0.1739130434782609
 40
0.2173913043478261
 40
0.2173913043478261
 40
0.2173913043478261
 40
0.2173913043478261
 40
0.2608695652173913
 40
0.2608695652173913
 40
0.2608695652173913
 40
0.2608695652173913
 40
0.3043478260869565
 40
0.3043478260869565
 40
0.3043478260869565
 40
0.3043478260869565
 40
0.3478260869565217
 40
0.3478260869565217
 40
0.3478260869565217
 40
0.3478260869565217
 40
0.391304347826087
 40
0.391304347826087
 40
0.391304347826087
 40
0.391304347826087
 40
0.4347826086956522
 40
0.4347826086956522
 40
0.4347826086956522
 40
0.4347826086956522
 40
0.4782608695652174
 40
0.4782608695652174
 40
0.4782608695652174
 40
0.4782608695652174
 40
0.5217391304347826
 40
0.5217391304347826
 40
0.5217391304347826
 40
0.5217391304347826
 40
0.5652173913043478
 40
0.5652173913043478
 40
0.5652173913043478
 40
0.5652173913043478
 40
0.6086956521739131
 40
0.6086956521739131
 40
0.6086956521739131
 40
0.6086956521739131
 40
0.6521739130434783
 40
0.6521739130434783
 40
0.6521739130434783
 40
0.6521739130434783
 40
0.6956521739130435
 40
0.6956521739130435
 40
0.6956521739130435
 40
0.6956521739130435
 40
0.7391304347826086
 40
0.7391304347826086
 40
0.7391304347826086
 40
0.7391304347826086
 40
0.782608695652174
 40
0.782608695652174
 40
0.782608695652174
 40
0.782608695652174
 40
0.8260869565217391
 40
0.8260869565217391
 40
0.8260869565217391
 40
0.8260869565217391
 40
0.8695652173913043
 40
0.8695652173913043
 40
0.8695652173913043
 40
0.8695652173913043
 40
0.9130434782608695
 40
0.9130434782608695
 40
0.9130434782608695
 40
0.9130434782608695
 40
1.0
 40
1.0
 40
1.0
 40
1.0
 10
-23.5314
 20
30.5984
 30
0.0
 10
-23.5314
 20
30.5984
 30
0.0
 10
-23.2707
 20
30.6205
 30
0.0
 10
-23.2707
 20
30.6205
 30
0.0
 10
-23.2707
 20
30.6205
 30
0.0
 10
-23.2514
 20
30.4935
 30
0.0
 10
-23.2067
 20
30.3985
 30
0.0
 10
-23.1367
 20
30.3345
 30
0.0
 10
-23.1367
 20
30.3345
 30
0.0
 10
-23.0661
 20
30.2706
 30
0.0
 10
-22.9814
 20
30.2386
 30
0.0
 10
-22.8822
 20
30.2386
 30
0.0
 10
-22.8822
 20
30.2386
 30
0.0
 10
-22.7627
 20
30.2386
 30
0.0
 10
-22.6616
 20
30.2837
 30
0.0
 10
-22.5793
 20
30.3736
 30
0.0
 10
-22.5793
 20
30.3736
 30
0.0
 10
-22.4965
 20
30.4639
 30
0.0
 10
-22.4551
 20
30.5833
 30
0.0
 10
-22.4551
 20
30.732
 30
0.0
 10
-22.4551
 20
30.732
 30
0.0
 10
-22.4551
 20
30.8736
 30
0.0
 10
-22.4946
 20
30.985
 30
0.0
 10
-22.5741
 20
31.0669
 30
0.0
 10
-22.5741
 20
31.0669
 30
0.0
 10
-22.6536
 20
31.1487
 30
0.0
 10
-22.7575
 20
31.1897
 30
0.0
 10
-22.8864
 20
31.1897
 30
0.0
 10
-22.8864
 20
31.1897
 30
0.0
 10
-22.9663
 20
31.1897
 30
0.0
 10
-23.0383
 20
31.1713
 30
0.0
 10
-23.1028
 20
31.1351
 30
0.0
 10
-23.1028
 20
31.1351
 30
0.0
 10
-23.1672
 20
31.0989
 30
0.0
 10
-23.2175
 20
31.0518
 30
0.0
 10
-23.2543
 20
30.994
 30
0.0
 10
-23.2543
 20
30.994
 30
0.0
 10
-23.2543
 20
30.994
 30
0.0
 10
-23.487
 20
31.024
 30
0.0
 10
-23.487
 20
31.024
 30
0.0
 10
-23.487
 20
31.024
 30
0.0
 10
-23.487
 20
31.024
 30
0.0
 10
-23.2914
 20
32.0617
 30
0.0
 10
-23.2914
 20
32.0617
 30
0.0
 10
-23.2914
 20
32.0617
 30
0.0
 10
-23.2914
 20
32.0617
 30
0.0
 10
-22.2867
 20
32.0617
 30
0.0
 10
-22.2867
 20
32.0617
 30
0.0
 10
-22.2867
 20
32.0617
 30
0.0
 10
-22.2867
 20
32.0617
 30
0.0
 10
-22.2867
 20
31.8247
 30
0.0
 10
-22.2867
 20
31.8247
 30
0.0
 10
-22.2867
 20
31.8247
 30
0.0
 10
-22.2867
 20
31.8247
 30
0.0
 10
-23.0929
 20
31.8247
 30
0.0
 10
-23.0929
 20
31.8247
 30
0.0
 10
-23.0929
 20
31.8247
 30
0.0
 10
-23.0929
 20
31.8247
 30
0.0
 10
-23.2021
 20
31.2818
 30
0.0
 10
-23.2021
 20
31.2818
 30
0.0
 10
-23.2021
 20
31.2818
 30
0.0
 10
-23.0807
 20
31.3665
 30
0.0
 10
-22.9533
 20
31.4088
 30
0.0
 10
-22.8201
 20
31.4088
 30
0.0
 10
-22.8201
 20
31.4088
 30
0.0
 10
-22.6437
 20
31.4088
 30
0.0
 10
-22.4951
 20
31.3477
 30
0.0
 10
-22.3737
 20
31.2254
 30
0.0
 10
-22.3737
 20
31.2254
 30
0.0
 10
-22.2524
 20
31.1031
 30
0.0
 10
-22.1917
 20
30.9459
 30
0.0
 10
-22.1917
 20
30.754
 30
0.0
 10
-22.1917
 20
30.754
 30
0.0
 10
-22.1917
 20
30.5711
 30
0.0
 10
-22.2453
 20
30.413
 30
0.0
 10
-22.3516
 20
30.2799
 30
0.0
 10
-22.3516
 20
30.2799
 30
0.0
 10
-22.4814
 20
30.1166
 30
0.0
 10
-22.6582
 20
30.0348
 30
0.0
 10
-22.8822
 20
30.0348
 30
0.0
 10
-22.8822
 20
30.0348
 30
0.0
 10
-23.0661
 20
30.0348
 30
0.0
 10
-23.2162
 20
30.0861
 30
0.0
 10
-23.3324
 20
30.1891
 30
0.0
 10
-23.3324
 20
30.1891
 30
0.0
 10
-23.4485
 20
30.2921
 30
0.0
 10
-23.5148
 20
30.4286
 30
0.0
 10
-23.5314
 20
30.5984
 30
0.0
  0
SPLINE
  5
108
330
1F
100
AcDbEntity
  8
DEFAULT_1
 62
   250
100
AcDbSpline
210
0.0
220
0.0
230
1.0
 70
    11
 71
     3
 72
    20
 73
    16
 74
     0
 42
0.0000000001
 43
0.0000000001
 40
0.0
 40
0.0
 40
0.0
 40
0.0
 40
0.2
 40
0.2
 40
0.2
 40
0.2
 40
0.4
 40
0.4
 40
0.4
 40
0.4
 40
0.6
 40
0.6
 40
0.6
 40
0.6
 40
1.0
 40
1.0
 40
1.0
 40
1.0
 10
-34.9439
 20
29.9673
 30
0.0
 10
-34.9439
 20
29.9673
 30
0.0
 10
-31.39
 20
29.4657
 30
0.0
 10
-31.39
 20
29.4657
 30
0.0
 10
-31.39
 20
29.4657
 30
0.0
 10
-31.39
 20
29.4657
 30
0.0
 10
-31.39
 20
29.3543
 30
0.0
 10
-31.39
 20
29.3543
 30
0.0
 10
-31.39
 20
29.3543
 30
0.0
 10
-31.39
 20
29.3543
 30
0.0
 10
-34.9439
 20
28.8194
 30
0.0
 10
-34.9439
 20
28.8194
 30
0.0
 10
-34.9439
 20
28.8194
 30
0.0
 10
-34.9439
 20
28.8194
 30
0.0
 10
-34.9439
 20
29.9673
 30
0.0
 10
-34.9439
 20
29.9673
 30
0.0
  0
SPLINE
  5
109
330
1F
100
AcDbEntity
  8
DEFAULT_1
 62
   250
100
AcDbSpline
210
0.0
220
0.0
230
1.0
 70
    11
 71
     3
 72
    20
 73
    16
 74
     0
 42
0.0000000001
 43
0.0000000001
 40
0.0
 40
0.0
 40
0.0
 40
0.0
 40
0.2
 40
0.2
 40
0.2
 40
0.2
 40
0.4
 40
0.4
 40
0.4
 40
0.4
 40
0.6
 40
0.6
 40
0.6
 40
0.6
 40
1.0
 40
1.0
 40
1.0
 40
1.0
 10
-15.139
 20
28.8144
 30
0.0
 10
-15.139
 20
28.8144
 30
0.0
 10
-18.6929
 20
29.3159
 30
0.0
 10
-18.6929
 20
29.3159
 30
0.0
 10
-18.6929
 20
29.3159
 30
0.0
 10
-18.6929
 20
29.3159
 30
0.0
 10
-18.6929
 20
29.4273
 30
0.0
 10
-18.6929
 20
29.4273
 30
0.0
 10
-18.6929
 20
29.4273
 30
0.0
 10
-18.6929
 20
29.4273
 30
0.0
 10
-15.139
 20
29.9622
 30
0.0
 10
-15.139
 20
29.9622
 30
0.0
 10
-15.139
 20
29.9622
 30
0.0
 10
-15.139
 20
29.9622
 30
0.0
 10
-15.139
 20
28.8144
 30
0.0
 10
-15.139
 20
28.8144
 30
0.0
  0
SPLINE
  5
10A
330
1F
100
AcDbEntity
  8
DEFAULT_1
 62
   250
100
AcDbSpline
210
0.0
220
0.0
230
1.0
 70
    24
 71
     3
 72
     8
 73
     4
 74
     0
 42
0.0000000001
 43
0.0000000001
 40
0.0
 40
0.0
 40
0.0
 40
0.0
 40
1.0
 40
1.0
 40
1.0
 40
1.0
 10
-36.8391
 20
29.3731
 30
0.0
 10
-36.8391
 20
29.3731
 30
0.0
 10
-13.7411
 20
29.3731
 30
0.0
 10
-13.7411
 20
29.3731
 30
0.0
  0
SPLINE
  5
10B
330
1F
100
AcDbEntity
  8
DEFAULT_1
 62
   250
100
AcDbSpline
210
0.0
220
0.0
230
1.0
 70
    11
 71
     3
 72
    84
 73
    80
 74
     0
 42
0.0000000001
 43
0.0000000001
 40
0.0
 40
0.0
 40
0.0
 40
0.0
 40
0.0476190476190476
 40
0.0476190476190476
 40
0.0476190476190476
 40
0.0476190476190476
 40
0.0952380952380952
 40
0.0952380952380952
 40
0.0952380952380952
 40
0.0952380952380952
 40
0.1428571428571428
 40
0.1428571428571428
 40
0.1428571428571428
 40
0.1428571428571428
 40
0.1904761904761905
 40
0.1904761904761905
 40
0.1904761904761905
 40
0.1904761904761905
 40
0.2380952380952381
 40
0.2380952380952381
 40
0.2380952380952381
 40
0.2380952380952381
 40
0.2857142857142857
 40
0.2857142857142857
 40
0.2857142857142857
 40
0.2857142857142857
 40
0.3333333333333333
 40
0.3333333333333333
 40
0.3333333333333333
 40
0.3333333333333333
 40
0.3809523809523809
 40
0.3809523809523809
 40
0.3809523809523809
 40
0.3809523809523809
 40
0.4285714285714285
 40
0.4285714285714285
 40
0.4285714285714285
 40
0.4285714285714285
 40
0.4761904761904762
 40
0.4761904761904762
 40
0.4761904761904762
 40
0.4761904761904762
 40
0.5238095238095238
 40
0.5238095238095238
 40
0.5238095238095238
 40
0.5238095238095238
 40
0.5714285714285714
 40
0.5714285714285714
 40
0.5714285714285714
 40
0.5714285714285714
 40
0.6190476190476191
 40
0.6190476190476191
 40
0.6190476190476191
 40
0.6190476190476191
 40
0.6666666666666666
 40
0.6666666666666666
 40
0.6666666666666666
 40
0.6666666666666666
 40
0.7142857142857143
 40
0.7142857142857143
 40
0.7142857142857143
 40
0.7142857142857143
 40
0.7619047619047619
 40
0.7619047619047619
 40
0.7619047619047619
 40
0.7619047619047619
 40
0.8095238095238095
 40
0.8095238095238095
 40
0.8095238095238095
 40
0.8095238095238095
 40
0.8571428571428571
 40
0.8571428571428571
 40
0.8571428571428571
 40
0.8571428571428571
 40
0.9047619047619048
 40
0.9047619047619048
 40
0.9047619047619048
 40
0.9047619047619048
 40
1.0
 40
1.0
 40
1.0
 40
1.0
 10
-8.1357
 20
8.7625
 30
0.0
 10
-8.1357
 20
8.7625
 30
0.0
 10
-7.9042
 20
9.0217
 30
0.0
 10
-7.9042
 20
9.0217
 30
0.0
 10
-7.9042
 20
9.0217
 30
0.0
 10
-7.9042
 20
9.0217
 30
0.0
 10
-7.7679
 20
8.906
 30
0.0
 10
-7.7679
 20
8.906
 30
0.0
 10
-7.7679
 20
8.906
 30
0.0
 10
-7.7679
 20
8.906
 30
0.0
 10
-8.0101
 20
8.6331
 30
0.0
 10
-8.0101
 20
8.6331
 30
0.0
 10
-8.0101
 20
8.6331
 30
0.0
 10
-7.9311
 20
8.5156
 30
0.0
 10
-7.8779
 20
8.4126
 30
0.0
 10
-7.8502
 20
8.3245
 30
0.0
 10
-7.8502
 20
8.3245
 30
0.0
 10
-7.8134
 20
8.2088
 30
0.0
 10
-7.7951
 20
8.0791
 30
0.0
 10
-7.7951
 20
7.9361
 30
0.0
 10
-7.7951
 20
7.9361
 30
0.0
 10
-7.7951
 20
7.7291
 30
0.0
 10
-7.837
 20
7.5447
 30
0.0
 10
-7.9208
 20
7.3834
 30
0.0
 10
-7.9208
 20
7.3834
 30
0.0
 10
-8.0045
 20
7.2215
 30
0.0
 10
-8.1215
 20
7.0992
 30
0.0
 10
-8.2726
 20
7.0165
 30
0.0
 10
-8.2726
 20
7.0165
 30
0.0
 10
-8.424
 20
6.9342
 30
0.0
 10
-8.5844
 20
6.8927
 30
0.0
 10
-8.7542
 20
6.8927
 30
0.0
 10
-8.7542
 20
6.8927
 30
0.0
 10
-8.8812
 20
6.8927
 30
0.0
 10
-8.996
 20
6.9107
 30
0.0
 10
-9.099
 20
6.9464
 30
0.0
 10
-9.099
 20
6.9464
 30
0.0
 10
-9.178
 20
6.9742
 30
0.0
 10
-9.2703
 20
7.0269
 30
0.0
 10
-9.3761
 20
7.1049
 30
0.0
 10
-9.3761
 20
7.1049
 30
0.0
 10
-9.3761
 20
7.1049
 30
0.0
 10
-9.6075
 20
6.8458
 30
0.0
 10
-9.6075
 20
6.8458
 30
0.0
 10
-9.6075
 20
6.8458
 30
0.0
 10
-9.6075
 20
6.8458
 30
0.0
 10
-9.7439
 20
6.9615
 30
0.0
 10
-9.7439
 20
6.9615
 30
0.0
 10
-9.7439
 20
6.9615
 30
0.0
 10
-9.7439
 20
6.9615
 30
0.0
 10
-9.5012
 20
7.2328
 30
0.0
 10
-9.5012
 20
7.2328
 30
0.0
 10
-9.5012
 20
7.2328
 30
0.0
 10
-9.5914
 20
7.3697
 30
0.0
 10
-9.6517
 20
7.4869
 30
0.0
 10
-9.6819
 20
7.5838
 30
0.0
 10
-9.6819
 20
7.5838
 30
0.0
 10
-9.7119
 20
7.6807
 30
0.0
 10
-9.7274
 20
7.7972
 30
0.0
 10
-9.7274
 20
7.9332
 30
0.0
 10
-9.7274
 20
7.9332
 30
0.0
 10
-9.7274
 20
8.1407
 30
0.0
 10
-9.6861
 20
8.3255
 30
0.0
 10
-9.6033
 20
8.4878
 30
0.0
 10
-9.6033
 20
8.4878
 30
0.0
 10
-9.5205
 20
8.6501
 30
0.0
 10
-9.4048
 20
8.7729
 30
0.0
 10
-9.2552
 20
8.8565
 30
0.0
 10
-9.2552
 20
8.8565
 30
0.0
 10
-9.1061
 20
8.9399
 30
0.0
 10
-8.94
 20
8.9817
 30
0.0
 10
-8.757
 20
8.9817
 30
0.0
 10
-8.757
 20
8.9817
 30
0.0
 10
-8.6338
 20
8.9817
 30
0.0
 10
-8.5262
 20
8.9658
 30
0.0
 10
-8.4339
 20
8.9328
 30
0.0
 10
-8.4339
 20
8.9328
 30
0.0
 10
-8.3417
 20
8.9004
 30
0.0
 10
-8.242
 20
8.8433
 30
0.0
 10
-8.1357
 20
8.7625
 30
0.0
  0
SPLINE
  5
10C
330
1F
100
AcDbEntity
  8
DEFAULT_1
 62
   250
100
AcDbSpline
210
0.0
220
0.0
230
1.0
 70
    11
 71
     3
 72
    32
 73
    28
 74
     0
 42
0.0000000001
 43
0.0000000001
 40
0.0
 40
0.0
 40
0.0
 40
0.0
 40
0.125
 40
0.125
 40
0.125
 40
0.125
 40
0.25
 40
0.25
 40
0.25
 40
0.25
 40
0.375
 40
0.375
 40
0.375
 40
0.375
 40
0.5
 40
0.5
 40
0.5
 40
0.5
 40
0.625
 40
0.625
 40
0.625
 40
0.625
 40
0.75
 40
0.75
 40
0.75
 40
0.75
 40
1.0
 40
1.0
 40
1.0
 40
1.0
 10
-8.3007
 20
8.5767
 30
0.0
 10
-8.3873
 20
8.6445
 30
0.0
 10
-8.463
 20
8.691
 30
0.0
 10
-8.5275
 20
8.7159
 30
0.0
 10
-8.5275
 20
8.7159
 30
0.0
 10
-8.5924
 20
8.7404
 30
0.0
 10
-8.6686
 20
8.7531
 30
0.0
 10
-8.7557
 20
8.7531
 30
0.0
 10
-8.7557
 20
8.7531
 30
0.0
 10
-8.9569
 20
8.7531
 30
0.0
 10
-9.1231
 20
8.6849
 30
0.0
 10
-9.2547
 20
8.5484
 30
0.0
 10
-9.2547
 20
8.5484
 30
0.0
 10
-9.386
 20
8.4121
 30
0.0
 10
-9.4518
 20
8.2085
 30
0.0
 10
-9.4518
 20
7.937
 30
0.0
 10
-9.4518
 20
7.937
 30
0.0
 10
-9.4518
 20
7.8307
 30
0.0
 10
-9.4415
 20
7.7361
 30
0.0
 10
-9.4212
 20
7.6534
 30
0.0
 10
-9.4212
 20
7.6534
 30
0.0
 10
-9.4066
 20
7.5918
 30
0.0
 10
-9.3761
 20
7.516
 30
0.0
 10
-9.329
 20
7.4261
 30
0.0
 10
-9.329
 20
7.4261
 30
0.0
 10
-9.329
 20
7.4261
 30
0.0
 10
-8.3007
 20
8.5767
 30
0.0
 10
-8.3007
 20
8.5767
 30
0.0
  0
SPLINE
  5
10D
330
1F
100
AcDbEntity
  8
DEFAULT_1
 62
   250
100
AcDbSpline
210
0.0
220
0.0
230
1.0
 70
    11
 71
     3
 72
    28
 73
    24
 74
     0
 42
0.0000000001
 43
0.0000000001
 40
0.0
 40
0.0
 40
0.0
 40
0.0
 40
0.1428571428571428
 40
0.1428571428571428
 40
0.1428571428571428
 40
0.1428571428571428
 40
0.2857142857142857
 40
0.2857142857142857
 40
0.2857142857142857
 40
0.2857142857142857
 40
0.4285714285714285
 40
0.4285714285714285
 40
0.4285714285714285
 40
0.4285714285714285
 40
0.5714285714285714
 40
0.5714285714285714
 40
0.5714285714285714
 40
0.5714285714285714
 40
0.7142857142857143
 40
0.7142857142857143
 40
0.7142857142857143
 40
0.7142857142857143
 40
1.0
 40
1.0
 40
1.0
 40
1.0
 10
-8.1879
 20
8.4346
 30
0.0
 10
-8.1879
 20
8.4346
 30
0.0
 10
-9.2119
 20
7.2884
 30
0.0
 10
-9.2119
 20
7.2884
 30
0.0
 10
-9.2119
 20
7.2884
 30
0.0
 10
-9.1414
 20
7.2305
 30
0.0
 10
-9.076
 20
7.19
 30
0.0
 10
-9.0162
 20
7.167
 30
0.0
 10
-9.0162
 20
7.167
 30
0.0
 10
-8.9381
 20
7.1364
 30
0.0
 10
-8.8534
 20
7.1214
 30
0.0
 10
-8.7627
 20
7.1214
 30
0.0
 10
-8.7627
 20
7.1214
 30
0.0
 10
-8.5623
 20
7.1214
 30
0.0
 10
-8.3973
 20
7.1919
 30
0.0
 10
-8.2665
 20
7.3335
 30
0.0
 10
-8.2665
 20
7.3335
 30
0.0
 10
-8.1361
 20
7.4751
 30
0.0
 10
-8.0707
 20
7.6736
 30
0.0
 10
-8.0707
 20
7.929
 30
0.0
 10
-8.0707
 20
7.929
 30
0.0
 10
-8.0707
 20
8.1199
 30
0.0
 10
-8.1098
 20
8.2888
 30
0.0
 10
-8.1879
 20
8.4346
 30
0.0
  0
SPLINE
  5
10E
330
1F
100
AcDbEntity
  8
DEFAULT_1
 62
   250
100
AcDbSpline
210
0.0
220
0.0
230
1.0
 70
    11
 71
     3
 72
   124
 73
   120
 74
     0
 42
0.0000000001
 43
0.0000000001
 40
0.0
 40
0.0
 40
0.0
 40
0.0
 40
0.032258064516129
 40
0.032258064516129
 40
0.032258064516129
 40
0.032258064516129
 40
0.0645161290322581
 40
0.0645161290322581
 40
0.0645161290322581
 40
0.0645161290322581
 40
0.0967741935483871
 40
0.0967741935483871
 40
0.0967741935483871
 40
0.0967741935483871
 40
0.1290322580645161
 40
0.1290322580645161
 40
0.1290322580645161
 40
0.1290322580645161
 40
0.1612903225806452
 40
0.1612903225806452
 40
0.1612903225806452
 40
0.1612903225806452
 40
0.1935483870967742
 40
0.1935483870967742
 40
0.1935483870967742
 40
0.1935483870967742
 40
0.2258064516129032
 40
0.2258064516129032
 40
0.2258064516129032
 40
0.2258064516129032
 40
0.2580645161290323
 40
0.2580645161290323
 40
0.2580645161290323
 40
0.2580645161290323
 40
0.2903225806451613
 40
0.2903225806451613
 40
0.2903225806451613
 40
0.2903225806451613
 40
0.3225806451612903
 40
0.3225806451612903
 40
0.3225806451612903
 40
0.3225806451612903
 40
0.3548387096774194
 40
0.3548387096774194
 40
0.3548387096774194
 40
0.3548387096774194
 40
0.3870967741935484
 40
0.3870967741935484
 40
0.3870967741935484
 40
0.3870967741935484
 40
0.4193548387096774
 40
0.4193548387096774
 40
0.4193548387096774
 40
0.4193548387096774
 40
0.4516129032258064
 40
0.4516129032258064
 40
0.4516129032258064
 40
0.4516129032258064
 40
0.4838709677419355
 40
0.4838709677419355
 40
0.4838709677419355
 40
0.4838709677419355
 40
0.5161290322580645
 40
0.5161290322580645
 40
0.5161290322580645
 40
0.5161290322580645
 40
0.5483870967741935
 40
0.5483870967741935
 40
0.5483870967741935
 40
0.5483870967741935
 40
0.5806451612903226
 40
0.5806451612903226
 40
0.5806451612903226
 40
0.5806451612903226
 40
0.6129032258064516
 40
0.6129032258064516
 40
0.6129032258064516
 40
0.6129032258064516
 40
0.6451612903225806
 40
0.6451612903225806
 40
0.6451612903225806
 40
0.6451612903225806
 40
0.6774193548387096
 40
0.6774193548387096
 40
0.6774193548387096
 40
0.6774193548387096
 40
0.7096774193548387
 40
0.7096774193548387
 40
0.7096774193548387
 40
0.7096774193548387
 40
0.7419354838709677
 40
0.7419354838709677
 40
0.7419354838709677
 40
0.7419354838709677
 40
0.7741935483870968
 40
0.7741935483870968
 40
0.7741935483870968
 40
0.7741935483870968
 40
0.8064516129032258
 40
0.8064516129032258
 40
0.8064516129032258
 40
0.8064516129032258
 40
0.8387096774193549
 40
0.8387096774193549
 40
0.8387096774193549
 40
0.8387096774193549
 40
0.8709677419354839
 40
0.8709677419354839
 40
0.8709677419354839
 40
0.8709677419354839
 40
0.9032258064516129
 40
0.9032258064516129
 40
0.9032258064516129
 40
0.9032258064516129
 40
0.9354838709677419
 40
0.9354838709677419
 40
0.9354838709677419
 40
0.9354838709677419
 40
1.0
 40
1.0
 40
1.0
 40
1.0
 10
-7.5444
 20
7.4605
 30
0.0
 10
-7.5444
 20
7.4605
 30
0.0
 10
-7.2966
 20
7.4935
 30
0.0
 10
-7.2966
 20
7.4935
 30
0.0
 10
-7.2966
 20
7.4935
 30
0.0
 10
-7.2678
 20
7.3528
 30
0.0
 10
-7.2194
 20
7.2516
 30
0.0
 10
-7.1513
 20
7.1896
 30
0.0
 10
-7.1513
 20
7.1896
 30
0.0
 10
-7.0825
 20
7.1275
 30
0.0
 10
-6.9993
 20
7.0965
 30
0.0
 10
-6.9009
 20
7.0965
 30
0.0
 10
-6.9009
 20
7.0965
 30
0.0
 10
-6.7844
 20
7.0965
 30
0.0
 10
-6.6855
 20
7.1369
 30
0.0
 10
-6.6052
 20
7.2178
 30
0.0
 10
-6.6052
 20
7.2178
 30
0.0
 10
-6.5251
 20
7.2987
 30
0.0
 10
-6.4847
 20
7.3988
 30
0.0
 10
-6.4847
 20
7.5184
 30
0.0
 10
-6.4847
 20
7.5184
 30
0.0
 10
-6.4847
 20
7.6322
 30
0.0
 10
-6.5219
 20
7.7263
 30
0.0
 10
-6.5962
 20
7.8001
 30
0.0
 10
-6.5962
 20
7.8001
 30
0.0
 10
-6.6709
 20
7.874
 30
0.0
 10
-6.7655
 20
7.9111
 30
0.0
 10
-6.8803
 20
7.9111
 30
0.0
 10
-6.8803
 20
7.9111
 30
0.0
 10
-6.9274
 20
7.9111
 30
0.0
 10
-6.9856
 20
7.9017
 30
0.0
 10
-7.0553
 20
7.8834
 30
0.0
 10
-7.0553
 20
7.8834
 30
0.0
 10
-7.0553
 20
7.8834
 30
0.0
 10
-7.0275
 20
8.1011
 30
0.0
 10
-7.0275
 20
8.1011
 30
0.0
 10
-7.0275
 20
8.1011
 30
0.0
 10
-7.011
 20
8.0992
 30
0.0
 10
-6.9978
 20
8.0984
 30
0.0
 10
-6.9875
 20
8.0984
 30
0.0
 10
-6.9875
 20
8.0984
 30
0.0
 10
-6.8821
 20
8.0984
 30
0.0
 10
-6.7871
 20
8.1261
 30
0.0
 10
-6.7024
 20
8.1811
 30
0.0
 10
-6.7024
 20
8.1811
 30
0.0
 10
-6.6179
 20
8.2361
 30
0.0
 10
-6.5755
 20
8.3213
 30
0.0
 10
-6.5755
 20
8.4361
 30
0.0
 10
-6.5755
 20
8.4361
 30
0.0
 10
-6.5755
 20
8.5269
 30
0.0
 10
-6.6065
 20
8.6026
 30
0.0
 10
-6.6682
 20
8.6619
 30
0.0
 10
-6.6682
 20
8.6619
 30
0.0
 10
-6.7297
 20
8.7215
 30
0.0
 10
-6.8093
 20
8.7517
 30
0.0
 10
-6.9067
 20
8.7517
 30
0.0
 10
-6.9067
 20
8.7517
 30
0.0
 10
-7.0031
 20
8.7517
 30
0.0
 10
-7.0835
 20
8.7211
 30
0.0
 10
-7.1474
 20
8.6609
 30
0.0
 10
-7.1474
 20
8.6609
 30
0.0
 10
-7.2119
 20
8.6003
 30
0.0
 10
-7.2533
 20
8.509
 30
0.0
 10
-7.2717
 20
8.3877
 30
0.0
 10
-7.2717
 20
8.3877
 30
0.0
 10
-7.2717
 20
8.3877
 30
0.0
 10
-7.5195
 20
8.4319
 30
0.0
 10
-7.5195
 20
8.4319
 30
0.0
 10
-7.5195
 20
8.4319
 30
0.0
 10
-7.4894
 20
8.5984
 30
0.0
 10
-7.4203
 20
8.7273
 30
0.0
 10
-7.313
 20
8.8184
 30
0.0
 10
-7.313
 20
8.8184
 30
0.0
 10
-7.2053
 20
8.9097
 30
0.0
 10
-7.0717
 20
8.9558
 30
0.0
 10
-6.9118
 20
8.9558
 30
0.0
 10
-6.9118
 20
8.9558
 30
0.0
 10
-6.8017
 20
8.9558
 30
0.0
 10
-6.7001
 20
8.9319
 30
0.0
 10
-6.6074
 20
8.8848
 30
0.0
 10
-6.6074
 20
8.8848
 30
0.0
 10
-6.5148
 20
8.8372
 30
0.0
 10
-6.4438
 20
8.7729
 30
0.0
 10
-6.3943
 20
8.691
 30
0.0
 10
-6.3943
 20
8.691
 30
0.0
 10
-6.3455
 20
8.6092
 30
0.0
 10
-6.3205
 20
8.5227
 30
0.0
 10
-6.3205
 20
8.4304
 30
0.0
 10
-6.3205
 20
8.4304
 30
0.0
 10
-6.3205
 20
8.3435
 30
0.0
 10
-6.344
 20
8.2639
 30
0.0
 10
-6.3911
 20
8.1919
 30
0.0
 10
-6.3911
 20
8.1919
 30
0.0
 10
-6.4382
 20
8.1204
 30
0.0
 10
-6.5073
 20
8.0635
 30
0.0
 10
-6.5989
 20
8.0212
 30
0.0
 10
-6.5989
 20
8.0212
 30
0.0
 10
-6.4795
 20
7.9939
 30
0.0
 10
-6.3869
 20
7.9365
 30
0.0
 10
-6.3205
 20
7.8495
 30
0.0
 10
-6.3205
 20
7.8495
 30
0.0
 10
-6.2547
 20
7.763
 30
0.0
 10
-6.2217
 20
7.6543
 30
0.0
 10
-6.2217
 20
7.524
 30
0.0
 10
-6.2217
 20
7.524
 30
0.0
 10
-6.2217
 20
7.3477
 30
0.0
 10
-6.2857
 20
7.1981
 30
0.0
 10
-6.4146
 20
7.0753
 30
0.0
 10
-6.4146
 20
7.0753
 30
0.0
 10
-6.543
 20
6.9525
 30
0.0
 10
-6.7058
 20
6.8914
 30
0.0
 10
-6.9024
 20
6.8914
 30
0.0
 10
-6.9024
 20
6.8914
 30
0.0
 10
-7.0798
 20
6.8914
 30
0.0
 10
-7.227
 20
6.944
 30
0.0
 10
-7.3441
 20
7.0499
 30
0.0
 10
-7.3441
 20
7.0499
 30
0.0
 10
-7.4612
 20
7.1553
 30
0.0
 10
-7.528
 20
7.2921
 30
0.0
 10
-7.5444
 20
7.4605
 30
0.0
  0
SPLINE
  5
10F
330
1F
100
AcDbEntity
  8
DEFAULT_1
 62
   250
100
AcDbSpline
210
0.0
220
0.0
230
1.0
 70
    11
 71
     3
 72
    92
 73
    88
 74
     0
 42
0.0000000001
 43
0.0000000001
 40
0.0
 40
0.0
 40
0.0
 40
0.0
 40
0.0434782608695652
 40
0.0434782608695652
 40
0.0434782608695652
 40
0.0434782608695652
 40
0.0869565217391304
 40
0.0869565217391304
 40
0.0869565217391304
 40
0.0869565217391304
 40
0.1304347826086956
 40
0.1304347826086956
 40
0.1304347826086956
 40
0.1304347826086956
 40
0.1739130434782609
 40
0.1739130434782609
 40
0.1739130434782609
 40
0.1739130434782609
 40
0.2173913043478261
 40
0.2173913043478261
 40
0.2173913043478261
 40
0.2173913043478261
 40
0.2608695652173913
 40
0.2608695652173913
 40
0.2608695652173913
 40
0.2608695652173913
 40
0.3043478260869565
 40
0.3043478260869565
 40
0.3043478260869565
 40
0.3043478260869565
 40
0.3478260869565217
 40
0.3478260869565217
 40
0.3478260869565217
 40
0.3478260869565217
 40
0.391304347826087
 40
0.391304347826087
 40
0.391304347826087
 40
0.391304347826087
 40
0.4347826086956522
 40
0.4347826086956522
 40
0.4347826086956522
 40
0.4347826086956522
 40
0.4782608695652174
 40
0.4782608695652174
 40
0.4782608695652174
 40
0.4782608695652174
 40
0.5217391304347826
 40
0.5217391304347826
 40
0.5217391304347826
 40
0.5217391304347826
 40
0.5652173913043478
 40
0.5652173913043478
 40
0.5652173913043478
 40
0.5652173913043478
 40
0.6086956521739131
 40
0.6086956521739131
 40
0.6086956521739131
 40
0.6086956521739131
 40
0.6521739130434783
 40
0.6521739130434783
 40
0.6521739130434783
 40
0.6521739130434783
 40
0.6956521739130435
 40
0.6956521739130435
 40
0.6956521739130435
 40
0.6956521739130435
 40
0.7391304347826086
 40
0.7391304347826086
 40
0.7391304347826086
 40
0.7391304347826086
 40
0.782608695652174
 40
0.782608695652174
 40
0.782608695652174
 40
0.782608695652174
 40
0.8260869565217391
 40
0.8260869565217391
 40
0.8260869565217391
 40
0.8260869565217391
 40
0.8695652173913043
 40
0.8695652173913043
 40
0.8695652173913043
 40
0.8695652173913043
 40
0.9130434782608695
 40
0.9130434782608695
 40
0.9130434782608695
 40
0.9130434782608695
 40
1.0
 40
1.0
 40
1.0
 40
1.0
 10
-4.6724
 20
7.1656
 30
0.0
 10
-4.6724
 20
7.1656
 30
0.0
 10
-4.6724
 20
6.9271
 30
0.0
 10
-4.6724
 20
6.9271
 30
0.0
 10
-4.6724
 20
6.9271
 30
0.0
 10
-4.6724
 20
6.9271
 30
0.0
 10
-6.0078
 20
6.9271
 30
0.0
 10
-6.0078
 20
6.9271
 30
0.0
 10
-6.0078
 20
6.9271
 30
0.0
 10
-6.0096
 20
6.9869
 30
0.0
 10
-6.0002
 20
7.0442
 30
0.0
 10
-5.979
 20
7.0992
 30
0.0
 10
-5.979
 20
7.0992
 30
0.0
 10
-5.9451
 20
7.1905
 30
0.0
 10
-5.8906
 20
7.2799
 30
0.0
 10
-5.8159
 20
7.3683
 30
0.0
 10
-5.8159
 20
7.3683
 30
0.0
 10
-5.7405
 20
7.4563
 30
0.0
 10
-5.6324
 20
7.5584
 30
0.0
 10
-5.4912
 20
7.6741
 30
0.0
 10
-5.4912
 20
7.6741
 30
0.0
 10
-5.2716
 20
7.8542
 30
0.0
 10
-5.1229
 20
7.9967
 30
0.0
 10
-5.0459
 20
8.1021
 30
0.0
 10
-5.0459
 20
8.1021
 30
0.0
 10
-4.9686
 20
8.207
 30
0.0
 10
-4.93
 20
8.3067
 30
0.0
 10
-4.93
 20
8.4004
 30
0.0
 10
-4.93
 20
8.4004
 30
0.0
 10
-4.93
 20
8.4986
 30
0.0
 10
-4.9654
 20
8.5814
 30
0.0
 10
-5.0355
 20
8.6492
 30
0.0
 10
-5.0355
 20
8.6492
 30
0.0
 10
-5.106
 20
8.7164
 30
0.0
 10
-5.1978
 20
8.7503
 30
0.0
 10
-5.3106
 20
8.7503
 30
0.0
 10
-5.3106
 20
8.7503
 30
0.0
 10
-5.43
 20
8.7503
 30
0.0
 10
-5.5256
 20
8.7146
 30
0.0
 10
-5.5971
 20
8.6426
 30
0.0
 10
-5.5971
 20
8.6426
 30
0.0
 10
-5.669
 20
8.5711
 30
0.0
 10
-5.7053
 20
8.4719
 30
0.0
 10
-5.7063
 20
8.3453
 30
0.0
 10
-5.7063
 20
8.3453
 30
0.0
 10
-5.7063
 20
8.3453
 30
0.0
 10
-5.9612
 20
8.3711
 30
0.0
 10
-5.9612
 20
8.3711
 30
0.0
 10
-5.9612
 20
8.3711
 30
0.0
 10
-5.9438
 20
8.5616
 30
0.0
 10
-5.8779
 20
8.7065
 30
0.0
 10
-5.7641
 20
8.8062
 30
0.0
 10
-5.7641
 20
8.8062
 30
0.0
 10
-5.6502
 20
8.906
 30
0.0
 10
-5.4969
 20
8.9558
 30
0.0
 10
-5.305
 20
8.9558
 30
0.0
 10
-5.305
 20
8.9558
 30
0.0
 10
-5.1112
 20
8.9558
 30
0.0
 10
-4.9578
 20
8.9018
 30
0.0
 10
-4.845
 20
8.7945
 30
0.0
 10
-4.845
 20
8.7945
 30
0.0
 10
-4.7316
 20
8.6868
 30
0.0
 10
-4.6751
 20
8.5537
 30
0.0
 10
-4.6751
 20
8.3946
 30
0.0
 10
-4.6751
 20
8.3946
 30
0.0
 10
-4.6751
 20
8.3138
 30
0.0
 10
-4.6917
 20
8.2342
 30
0.0
 10
-4.725
 20
8.1562
 30
0.0
 10
-4.725
 20
8.1562
 30
0.0
 10
-4.7579
 20
8.0781
 30
0.0
 10
-4.813
 20
7.9957
 30
0.0
 10
-4.8897
 20
7.9097
 30
0.0
 10
-4.8897
 20
7.9097
 30
0.0
 10
-4.9663
 20
7.8231
 30
0.0
 10
-5.0938
 20
7.7046
 30
0.0
 10
-5.272
 20
7.5541
 30
0.0
 10
-5.272
 20
7.5541
 30
0.0
 10
-5.4207
 20
7.429
 30
0.0
 10
-5.5162
 20
7.3443
 30
0.0
 10
-5.5586
 20
7.2996
 30
0.0
 10
-5.5586
 20
7.2996
 30
0.0
 10
-5.6008
 20
7.2554
 30
0.0
 10
-5.6357
 20
7.2108
 30
0.0
 10
-5.6634
 20
7.1656
 30
0.0
 10
-5.6634
 20
7.1656
 30
0.0
 10
-5.6634
 20
7.1656
 30
0.0
 10
-4.6724
 20
7.1656
 30
0.0
 10
-4.6724
 20
7.1656
 30
0.0
  0
SPLINE
  5
110
330
1F
100
AcDbEntity
  8
DEFAULT_1
 62
   250
100
AcDbSpline
210
0.0
220
0.0
230
1.0
 70
    11
 71
     3
 72
    20
 73
    16
 74
     0
 42
0.0000000001
 43
0.0000000001
 40
0.0
 40
0.0
 40
0.0
 40
0.0
 40
0.2
 40
0.2
 40
0.2
 40
0.2
 40
0.4
 40
0.4
 40
0.4
 40
0.4
 40
0.6
 40
0.6
 40
0.6
 40
0.6
 40
1.0
 40
1.0
 40
1.0
 40
1.0
 10
-24.6886
 20
6.8706
 30
0.0
 10
-24.6886
 20
6.8706
 30
0.0
 10
-21.1347
 20
6.369
 30
0.0
 10
-21.1347
 20
6.369
 30
0.0
 10
-21.1347
 20
6.369
 30
0.0
 10
-21.1347
 20
6.369
 30
0.0
 10
-21.1347
 20
6.2576
 30
0.0
 10
-21.1347
 20
6.2576
 30
0.0
 10
-21.1347
 20
6.2576
 30
0.0
 10
-21.1347
 20
6.2576
 30
0.0
 10
-24.6886
 20
5.7227
 30
0.0
 10
-24.6886
 20
5.7227
 30
0.0
 10
-24.6886
 20
5.7227
 30
0.0
 10
-24.6886
 20
5.7227
 30
0.0
 10
-24.6886
 20
6.8706
 30
0.0
 10
-24.6886
 20
6.8706
 30
0.0
  0
SPLINE
  5
111
330
1F
100
AcDbEntity
  8
DEFAULT_1
 62
   250
100
AcDbSpline
210
0.0
220
0.0
230
1.0
 70
    11
 71
     3
 72
    20
 73
    16
 74
     0
 42
0.0000000001
 43
0.0000000001
 40
0.0
 40
0.0
 40
0.0
 40
0.0
 40
0.2
 40
0.2
 40
0.2
 40
0.2
 40
0.4
 40
0.4
 40
0.4
 40
0.4
 40
0.6
 40
0.6
 40
0.6
 40
0.6
 40
1.0
 40
1.0
 40
1.0
 40
1.0
 10
-10.5515
 20
5.7177
 30
0.0
 10
-10.5515
 20
5.7177
 30
0.0
 10
-14.1054
 20
6.2192
 30
0.0
 10
-14.1054
 20
6.2192
 30
0.0
 10
-14.1054
 20
6.2192
 30
0.0
 10
-14.1054
 20
6.2192
 30
0.0
 10
-14.1054
 20
6.3306
 30
0.0
 10
-14.1054
 20
6.3306
 30
0.0
 10
-14.1054
 20
6.3306
 30
0.0
 10
-14.1054
 20
6.3306
 30
0.0
 10
-10.5515
 20
6.8655
 30
0.0
 10
-10.5515
 20
6.8655
 30
0.0
 10
-10.5515
 20
6.8655
 30
0.0
 10
-10.5515
 20
6.8655
 30
0.0
 10
-10.5515
 20
5.7177
 30
0.0
 10
-10.5515
 20
5.7177
 30
0.0
  0
SPLINE
  5
112
330
1F
100
AcDbEntity
  8
DEFAULT_1
 62
   250
100
AcDbSpline
210
0.0
220
0.0
230
1.0
 70
    24
 71
     3
 72
     8
 73
     4
 74
     0
 42
0.0000000001
 43
0.0000000001
 40
0.0
 40
0.0
 40
0.0
 40
0.0
 40
1.0
 40
1.0
 40
1.0
 40
1.0
 10
-30.4654
 20
6.2764
 30
0.0
 10
-30.4654
 20
6.2764
 30
0.0
 10
-3.7361
 20
6.2764
 30
0.0
 10
-3.7361
 20
6.2764
 30
0.0
  0
SPLINE
  5
113
330
1F
100
AcDbEntity
  8
DEFAULT_1
 62
   250
100
AcDbSpline
210
0.0
220
0.0
230
1.0
 70
    11
 71
     3
 72
    40
 73
    36
 74
     0
 42
0.0000000001
 43
0.0000000001
 40
0.0
 40
0.0
 40
0.0
 40
0.0
 40
0.1
 40
0.1
 40
0.1
 40
0.1
 40
0.2
 40
0.2
 40
0.2
 40
0.2
 40
0.3
 40
0.3
 40
0.3
 40
0.3
 40
0.4
 40
0.4
 40
0.4
 40
0.4
 40
0.5
 40
0.5
 40
0.5
 40
0.5
 40
0.6
 40
0.6
 40
0.6
 40
0.6
 40
0.7
 40
0.7
 40
0.7
 40
0.7
 40
0.8
 40
0.8
 40
0.8
 40
0.8
 40
1.0
 40
1.0
 40
1.0
 40
1.0
 10
-35.9938
 20
4.3216
 30
0.0
 10
-35.9938
 20
4.3216
 30
0.0
 10
-35.9938
 20
4.0737
 30
0.0
 10
-35.9938
 20
4.0737
 30
0.0
 10
-35.9938
 20
4.0737
 30
0.0
 10
-35.9938
 20
4.0737
 30
0.0
 10
-37.5743
 20
4.0737
 30
0.0
 10
-37.5743
 20
4.0737
 30
0.0
 10
-37.5743
 20
4.0737
 30
0.0
 10
-37.5174
 20
4.0139
 30
0.0
 10
-37.4605
 20
3.9358
 30
0.0
 10
-37.4036
 20
3.8389
 30
0.0
 10
-37.4036
 20
3.8389
 30
0.0
 10
-37.3466
 20
3.7417
 30
0.0
 10
-37.3038
 20
3.6546
 30
0.0
 10
-37.2755
 20
3.5774
 30
0.0
 10
-37.2755
 20
3.5774
 30
0.0
 10
-37.2755
 20
3.5774
 30
0.0
 10
-37.515
 20
3.5774
 30
0.0
 10
-37.515
 20
3.5774
 30
0.0
 10
-37.515
 20
3.5774
 30
0.0
 10
-37.5804
 20
3.7163
 30
0.0
 10
-37.6594
 20
3.8376
 30
0.0
 10
-37.752
 20
3.9416
 30
0.0
 10
-37.752
 20
3.9416
 30
0.0
 10
-37.8452
 20
4.045
 30
0.0
 10
-37.9351
 20
4.1189
 30
0.0
 10
-38.0225
 20
4.1621
 30
0.0
 10
-38.0225
 20
4.1621
 30
0.0
 10
-38.0225
 20
4.1621
 30
0.0
 10
-38.0225
 20
4.3216
 30
0.0
 10
-38.0225
 20
4.3216
 30
0.0
 10
-38.0225
 20
4.3216
 30
0.0
 10
-38.0225
 20
4.3216
 30
0.0
 10
-35.9938
 20
4.3216
 30
0.0
 10
-35.9938
 20
4.3216
 30
0.0
  0
SPLINE
  5
114
330
1F
100
AcDbEntity
  8
DEFAULT_1
 62
   250
100
AcDbSpline
210
0.0
220
0.0
230
1.0
 70
    11
 71
     3
 72
    92
 73
    88
 74
     0
 42
0.0000000001
 43
0.0000000001
 40
0.0
 40
0.0
 40
0.0
 40
0.0
 40
0.0434782608695652
 40
0.0434782608695652
 40
0.0434782608695652
 40
0.0434782608695652
 40
0.0869565217391304
 40
0.0869565217391304
 40
0.0869565217391304
 40
0.0869565217391304
 40
0.1304347826086956
 40
0.1304347826086956
 40
0.1304347826086956
 40
0.1304347826086956
 40
0.1739130434782609
 40
0.1739130434782609
 40
0.1739130434782609
 40
0.1739130434782609
 40
0.2173913043478261
 40
0.2173913043478261
 40
0.2173913043478261
 40
0.2173913043478261
 40
0.2608695652173913
 40
0.2608695652173913
 40
0.2608695652173913
 40
0.2608695652173913
 40
0.3043478260869565
 40
0.3043478260869565
 40
0.3043478260869565
 40
0.3043478260869565
 40
0.3478260869565217
 40
0.3478260869565217
 40
0.3478260869565217
 40
0.3478260869565217
 40
0.391304347826087
 40
0.391304347826087
 40
0.391304347826087
 40
0.391304347826087
 40
0.4347826086956522
 40
0.4347826086956522
 40
0.4347826086956522
 40
0.4347826086956522
 40
0.4782608695652174
 40
0.4782608695652174
 40
0.4782608695652174
 40
0.4782608695652174
 40
0.5217391304347826
 40
0.5217391304347826
 40
0.5217391304347826
 40
0.5217391304347826
 40
0.5652173913043478
 40
0.5652173913043478
 40
0.5652173913043478
 40
0.5652173913043478
 40
0.6086956521739131
 40
0.6086956521739131
 40
0.6086956521739131
 40
0.6086956521739131
 40
0.6521739130434783
 40
0.6521739130434783
 40
0.6521739130434783
 40
0.6521739130434783
 40
0.6956521739130435
 40
0.6956521739130435
 40
0.6956521739130435
 40
0.6956521739130435
 40
0.7391304347826086
 40
0.7391304347826086
 40
0.7391304347826086
 40
0.7391304347826086
 40
0.782608695652174
 40
0.782608695652174
 40
0.782608695652174
 40
0.782608695652174
 40
0.8260869565217391
 40
0.8260869565217391
 40
0.8260869565217391
 40
0.8260869565217391
 40
0.8695652173913043
 40
0.8695652173913043
 40
0.8695652173913043
 40
0.8695652173913043
 40
0.9130434782608695
 40
0.9130434782608695
 40
0.9130434782608695
 40
0.9130434782608695
 40
1.0
 40
1.0
 40
1.0
 40
1.0
 10
-36.2323
 20
6.2609
 30
0.0
 10
-36.2323
 20
6.2609
 30
0.0
 10
-35.9938
 20
6.2609
 30
0.0
 10
-35.9938
 20
6.2609
 30
0.0
 10
-35.9938
 20
6.2609
 30
0.0
 10
-35.9938
 20
6.2609
 30
0.0
 10
-35.9938
 20
4.9255
 30
0.0
 10
-35.9938
 20
4.9255
 30
0.0
 10
-35.9938
 20
4.9255
 30
0.0
 10
-36.0536
 20
4.9237
 30
0.0
 10
-36.1109
 20
4.9331
 30
0.0
 10
-36.1659
 20
4.9543
 30
0.0
 10
-36.1659
 20
4.9543
 30
0.0
 10
-36.2572
 20
4.9882
 30
0.0
 10
-36.3466
 20
5.0427
 30
0.0
 10
-36.435
 20
5.1174
 30
0.0
 10
-36.435
 20
5.1174
 30
0.0
 10
-36.523
 20
5.1928
 30
0.0
 10
-36.6251
 20
5.3009
 30
0.0
 10
-36.7408
 20
5.4421
 30
0.0
 10
-36.7408
 20
5.4421
 30
0.0
 10
-36.9209
 20
5.6617
 30
0.0
 10
-37.0634
 20
5.8104
 30
0.0
 10
-37.1688
 20
5.8874
 30
0.0
 10
-37.1688
 20
5.8874
 30
0.0
 10
-37.2737
 20
5.9647
 30
0.0
 10
-37.3734
 20
6.0033
 30
0.0
 10
-37.4671
 20
6.0033
 30
0.0
 10
-37.4671
 20
6.0033
 30
0.0
 10
-37.5653
 20
6.0033
 30
0.0
 10
-37.6481
 20
5.9679
 30
0.0
 10
-37.7159
 20
5.8978
 30
0.0
 10
-37.7159
 20
5.8978
 30
0.0
 10
-37.7831
 20
5.8273
 30
0.0
 10
-37.817
 20
5.7355
 30
0.0
 10
-37.817
 20
5.6227
 30
0.0
 10
-37.817
 20
5.6227
 30
0.0
 10
-37.817
 20
5.5032
 30
0.0
 10
-37.7813
 20
5.4077
 30
0.0
 10
-37.7093
 20
5.3362
 30
0.0
 10
-37.7093
 20
5.3362
 30
0.0
 10
-37.6378
 20
5.2643
 30
0.0
 10
-37.5386
 20
5.228
 30
0.0
 10
-37.412
 20
5.227
 30
0.0
 10
-37.412
 20
5.227
 30
0.0
 10
-37.412
 20
5.227
 30
0.0
 10
-37.4378
 20
4.9721
 30
0.0
 10
-37.4378
 20
4.9721
 30
0.0
 10
-37.4378
 20
4.9721
 30
0.0
 10
-37.6283
 20
4.9895
 30
0.0
 10
-37.7732
 20
5.0554
 30
0.0
 10
-37.8729
 20
5.1692
 30
0.0
 10
-37.8729
 20
5.1692
 30
0.0
 10
-37.9727
 20
5.2831
 30
0.0
 10
-38.0225
 20
5.4364
 30
0.0
 10
-38.0225
 20
5.6283
 30
0.0
 10
-38.0225
 20
5.6283
 30
0.0
 10
-38.0225
 20
5.8221
 30
0.0
 10
-37.9685
 20
5.9755
 30
0.0
 10
-37.8612
 20
6.0883
 30
0.0
 10
-37.8612
 20
6.0883
 30
0.0
 10
-37.7535
 20
6.2016
 30
0.0
 10
-37.6204
 20
6.2582
 30
0.0
 10
-37.4613
 20
6.2582
 30
0.0
 10
-37.4613
 20
6.2582
 30
0.0
 10
-37.3805
 20
6.2582
 30
0.0
 10
-37.3009
 20
6.2416
 30
0.0
 10
-37.2229
 20
6.2082
 30
0.0
 10
-37.2229
 20
6.2082
 30
0.0
 10
-37.1448
 20
6.1754
 30
0.0
 10
-37.0624
 20
6.1203
 30
0.0
 10
-36.9764
 20
6.0436
 30
0.0
 10
-36.9764
 20
6.0436
 30
0.0
 10
-36.8898
 20
5.967
 30
0.0
 10
-36.7713
 20
5.8395
 30
0.0
 10
-36.6208
 20
5.6613
 30
0.0
 10
-36.6208
 20
5.6613
 30
0.0
 10
-36.4957
 20
5.5126
 30
0.0
 10
-36.411
 20
5.4171
 30
0.0
 10
-36.3663
 20
5.3747
 30
0.0
 10
-36.3663
 20
5.3747
 30
0.0
 10
-36.3221
 20
5.3325
 30
0.0
 10
-36.2775
 20
5.2976
 30
0.0
 10
-36.2323
 20
5.2699
 30
0.0
 10
-36.2323
 20
5.2699
 30
0.0
 10
-36.2323
 20
5.2699
 30
0.0
 10
-36.2323
 20
6.2609
 30
0.0
 10
-36.2323
 20
6.2609
 30
0.0
  0
SPLINE
  5
115
330
1F
100
AcDbEntity
  8
DEFAULT_1
 62
   250
100
AcDbSpline
210
0.0
220
0.0
230
1.0
 70
    11
 71
     3
 72
    92
 73
    88
 74
     0
 42
0.0000000001
 43
0.0000000001
 40
0.0
 40
0.0
 40
0.0
 40
0.0
 40
0.0434782608695652
 40
0.0434782608695652
 40
0.0434782608695652
 40
0.0434782608695652
 40
0.0869565217391304
 40
0.0869565217391304
 40
0.0869565217391304
 40
0.0869565217391304
 40
0.1304347826086956
 40
0.1304347826086956
 40
0.1304347826086956
 40
0.1304347826086956
 40
0.1739130434782609
 40
0.1739130434782609
 40
0.1739130434782609
 40
0.1739130434782609
 40
0.2173913043478261
 40
0.2173913043478261
 40
0.2173913043478261
 40
0.2173913043478261
 40
0.2608695652173913
 40
0.2608695652173913
 40
0.2608695652173913
 40
0.2608695652173913
 40
0.3043478260869565
 40
0.3043478260869565
 40
0.3043478260869565
 40
0.3043478260869565
 40
0.3478260869565217
 40
0.3478260869565217
 40
0.3478260869565217
 40
0.3478260869565217
 40
0.391304347826087
 40
0.391304347826087
 40
0.391304347826087
 40
0.391304347826087
 40
0.4347826086956522
 40
0.4347826086956522
 40
0.4347826086956522
 40
0.4347826086956522
 40
0.4782608695652174
 40
0.4782608695652174
 40
0.4782608695652174
 40
0.4782608695652174
 40
0.5217391304347826
 40
0.5217391304347826
 40
0.5217391304347826
 40
0.5217391304347826
 40
0.5652173913043478
 40
0.5652173913043478
 40
0.5652173913043478
 40
0.5652173913043478
 40
0.6086956521739131
 40
0.6086956521739131
 40
0.6086956521739131
 40
0.6086956521739131
 40
0.6521739130434783
 40
0.6521739130434783
 40
0.6521739130434783
 40
0.6521739130434783
 40
0.6956521739130435
 40
0.6956521739130435
 40
0.6956521739130435
 40
0.6956521739130435
 40
0.7391304347826086
 40
0.7391304347826086
 40
0.7391304347826086
 40
0.7391304347826086
 40
0.782608695652174
 40
0.782608695652174
 40
0.782608695652174
 40
0.782608695652174
 40
0.8260869565217391
 40
0.8260869565217391
 40
0.8260869565217391
 40
0.8260869565217391
 40
0.8695652173913043
 40
0.8695652173913043
 40
0.8695652173913043
 40
0.8695652173913043
 40
0.9130434782608695
 40
0.9130434782608695
 40
0.9130434782608695
 40
0.9130434782608695
 40
1.0
 40
1.0
 40
1.0
 40
1.0
 10
-36.523
 20
6.5267
 30
0.0
 10
-36.523
 20
6.5267
 30
0.0
 10
-36.5451
 20
6.7873
 30
0.0
 10
-36.5451
 20
6.7873
 30
0.0
 10
-36.5451
 20
6.7873
 30
0.0
 10
-36.4181
 20
6.8066
 30
0.0
 10
-36.3231
 20
6.8514
 30
0.0
 10
-36.2591
 20
6.9213
 30
0.0
 10
-36.2591
 20
6.9213
 30
0.0
 10
-36.1952
 20
6.992
 30
0.0
 10
-36.1632
 20
7.0766
 30
0.0
 10
-36.1632
 20
7.1759
 30
0.0
 10
-36.1632
 20
7.1759
 30
0.0
 10
-36.1632
 20
7.2953
 30
0.0
 10
-36.2083
 20
7.3965
 30
0.0
 10
-36.2982
 20
7.4788
 30
0.0
 10
-36.2982
 20
7.4788
 30
0.0
 10
-36.3885
 20
7.5616
 30
0.0
 10
-36.5079
 20
7.6029
 30
0.0
 10
-36.6566
 20
7.6029
 30
0.0
 10
-36.6566
 20
7.6029
 30
0.0
 10
-36.7982
 20
7.6029
 30
0.0
 10
-36.9096
 20
7.5635
 30
0.0
 10
-36.9915
 20
7.484
 30
0.0
 10
-36.9915
 20
7.484
 30
0.0
 10
-37.0733
 20
7.4044
 30
0.0
 10
-37.1143
 20
7.3006
 30
0.0
 10
-37.1143
 20
7.1717
 30
0.0
 10
-37.1143
 20
7.1717
 30
0.0
 10
-37.1143
 20
7.0917
 30
0.0
 10
-37.0959
 20
7.0197
 30
0.0
 10
-37.0597
 20
6.9552
 30
0.0
 10
-37.0597
 20
6.9552
 30
0.0
 10
-37.0235
 20
6.8908
 30
0.0
 10
-36.9764
 20
6.8405
 30
0.0
 10
-36.9186
 20
6.8038
 30
0.0
 10
-36.9186
 20
6.8038
 30
0.0
 10
-36.9186
 20
6.8038
 30
0.0
 10
-36.9486
 20
6.571
 30
0.0
 10
-36.9486
 20
6.571
 30
0.0
 10
-36.9486
 20
6.571
 30
0.0
 10
-36.9486
 20
6.571
 30
0.0
 10
-37.9863
 20
6.7667
 30
0.0
 10
-37.9863
 20
6.7667
 30
0.0
 10
-37.9863
 20
6.7667
 30
0.0
 10
-37.9863
 20
6.7667
 30
0.0
 10
-37.9863
 20
7.7713
 30
0.0
 10
-37.9863
 20
7.7713
 30
0.0
 10
-37.9863
 20
7.7713
 30
0.0
 10
-37.9863
 20
7.7713
 30
0.0
 10
-37.7493
 20
7.7713
 30
0.0
 10
-37.7493
 20
7.7713
 30
0.0
 10
-37.7493
 20
7.7713
 30
0.0
 10
-37.7493
 20
7.7713
 30
0.0
 10
-37.7493
 20
6.9652
 30
0.0
 10
-37.7493
 20
6.9652
 30
0.0
 10
-37.7493
 20
6.9652
 30
0.0
 10
-37.7493
 20
6.9652
 30
0.0
 10
-37.2064
 20
6.856
 30
0.0
 10
-37.2064
 20
6.856
 30
0.0
 10
-37.2064
 20
6.856
 30
0.0
 10
-37.2911
 20
6.9774
 30
0.0
 10
-37.3334
 20
7.1048
 30
0.0
 10
-37.3334
 20
7.2379
 30
0.0
 10
-37.3334
 20
7.2379
 30
0.0
 10
-37.3334
 20
7.4144
 30
0.0
 10
-37.2723
 20
7.563
 30
0.0
 10
-37.15
 20
7.6844
 30
0.0
 10
-37.15
 20
7.6844
 30
0.0
 10
-37.0277
 20
7.8057
 30
0.0
 10
-36.8705
 20
7.8663
 30
0.0
 10
-36.6786
 20
7.8663
 30
0.0
 10
-36.6786
 20
7.8663
 30
0.0
 10
-36.4957
 20
7.8663
 30
0.0
 10
-36.3376
 20
7.8128
 30
0.0
 10
-36.2045
 20
7.7064
 30
0.0
 10
-36.2045
 20
7.7064
 30
0.0
 10
-36.0412
 20
7.5767
 30
0.0
 10
-35.9594
 20
7.3998
 30
0.0
 10
-35.9594
 20
7.1759
 30
0.0
 10
-35.9594
 20
7.1759
 30
0.0
 10
-35.9594
 20
6.992
 30
0.0
 10
-36.0107
 20
6.8419
 30
0.0
 10
-36.1137
 20
6.7257
 30
0.0
 10
-36.1137
 20
6.7257
 30
0.0
 10
-36.2167
 20
6.6095
 30
0.0
 10
-36.3532
 20
6.5433
 30
0.0
 10
-36.523
 20
6.5267
 30
0.0
  0
SPLINE
  5
116
330
1F
100
AcDbEntity
  8
DEFAULT_1
 62
   250
100
AcDbSpline
210
0.0
220
0.0
230
1.0
 70
    11
 71
     3
 72
    20
 73
    16
 74
     0
 42
0.0000000001
 43
0.0000000001
 40
0.0
 40
0.0
 40
0.0
 40
0.0
 40
0.2
 40
0.2
 40
0.2
 40
0.2
 40
0.4
 40
0.4
 40
0.4
 40
0.4
 40
0.6
 40
0.6
 40
0.6
 40
0.6
 40
1.0
 40
1.0
 40
1.0
 40
1.0
 10
-36.6002
 20
8.8528
 30
0.0
 10
-36.6002
 20
8.8528
 30
0.0
 10
-36.8494
 20
8.8528
 30
0.0
 10
-36.8494
 20
8.8528
 30
0.0
 10
-36.8494
 20
8.8528
 30
0.0
 10
-36.8494
 20
8.8528
 30
0.0
 10
-36.8494
 20
9.6152
 30
0.0
 10
-36.8494
 20
9.6152
 30
0.0
 10
-36.8494
 20
9.6152
 30
0.0
 10
-36.8494
 20
9.6152
 30
0.0
 10
-36.6002
 20
9.6152
 30
0.0
 10
-36.6002
 20
9.6152
 30
0.0
 10
-36.6002
 20
9.6152
 30
0.0
 10
-36.6002
 20
9.6152
 30
0.0
 10
-36.6002
 20
8.8528
 30
0.0
 10
-36.6002
 20
8.8528
 30
0.0
  0
SPLINE
  5
117
330
1F
100
AcDbEntity
  8
DEFAULT_1
 62
   250
100
AcDbSpline
210
0.0
220
0.0
230
1.0
 70
    11
 71
     3
 72
    40
 73
    36
 74
     0
 42
0.0000000001
 43
0.0000000001
 40
0.0
 40
0.0
 40
0.0
 40
0.0
 40
0.1
 40
0.1
 40
0.1
 40
0.1
 40
0.2
 40
0.2
 40
0.2
 40
0.2
 40
0.3
 40
0.3
 40
0.3
 40
0.3
 40
0.4
 40
0.4
 40
0.4
 40
0.4
 40
0.5
 40
0.5
 40
0.5
 40
0.5
 40
0.6
 40
0.6
 40
0.6
 40
0.6
 40
0.7
 40
0.7
 40
0.7
 40
0.7
 40
0.8
 40
0.8
 40
0.8
 40
0.8
 40
1.0
 40
1.0
 40
1.0
 40
1.0
 10
-35.9938
 20
11.5385
 30
0.0
 10
-35.9938
 20
11.5385
 30
0.0
 10
-35.9938
 20
11.2906
 30
0.0
 10
-35.9938
 20
11.2906
 30
0.0
 10
-35.9938
 20
11.2906
 30
0.0
 10
-35.9938
 20
11.2906
 30
0.0
 10
-37.5743
 20
11.2906
 30
0.0
 10
-37.5743
 20
11.2906
 30
0.0
 10
-37.5743
 20
11.2906
 30
0.0
 10
-37.5174
 20
11.2308
 30
0.0
 10
-37.4605
 20
11.1527
 30
0.0
 10
-37.4036
 20
11.0558
 30
0.0
 10
-37.4036
 20
11.0558
 30
0.0
 10
-37.3466
 20
10.9586
 30
0.0
 10
-37.3038
 20
10.8715
 30
0.0
 10
-37.2755
 20
10.7943
 30
0.0
 10
-37.2755
 20
10.7943
 30
0.0
 10
-37.2755
 20
10.7943
 30
0.0
 10
-37.515
 20
10.7943
 30
0.0
 10
-37.515
 20
10.7943
 30
0.0
 10
-37.515
 20
10.7943
 30
0.0
 10
-37.5804
 20
10.9332
 30
0.0
 10
-37.6594
 20
11.0545
 30
0.0
 10
-37.752
 20
11.1585
 30
0.0
 10
-37.752
 20
11.1585
 30
0.0
 10
-37.8452
 20
11.2619
 30
0.0
 10
-37.9351
 20
11.3358
 30
0.0
 10
-38.0225
 20
11.379
 30
0.0
 10
-38.0225
 20
11.379
 30
0.0
 10
-38.0225
 20
11.379
 30
0.0
 10
-38.0225
 20
11.5385
 30
0.0
 10
-38.0225
 20
11.5385
 30
0.0
 10
-38.0225
 20
11.5385
 30
0.0
 10
-38.0225
 20
11.5385
 30
0.0
 10
-35.9938
 20
11.5385
 30
0.0
 10
-35.9938
 20
11.5385
 30
0.0
  0
SPLINE
  5
118
330
1F
100
AcDbEntity
  8
DEFAULT_1
 62
   250
100
AcDbSpline
210
0.0
220
0.0
230
1.0
 70
    11
 71
     3
 72
    80
 73
    76
 74
     0
 42
0.0000000001
 43
0.0000000001
 40
0.0
 40
0.0
 40
0.0
 40
0.0
 40
0.05
 40
0.05
 40
0.05
 40
0.05
 40
0.1
 40
0.1
 40
0.1
 40
0.1
 40
0.15
 40
0.15
 40
0.15
 40
0.15
 40
0.2
 40
0.2
 40
0.2
 40
0.2
 40
0.25
 40
0.25
 40
0.25
 40
0.25
 40
0.3
 40
0.3
 40
0.3
 40
0.3
 40
0.35
 40
0.35
 40
0.35
 40
0.35
 40
0.4
 40
0.4
 40
0.4
 40
0.4
 40
0.45
 40
0.45
 40
0.45
 40
0.45
 40
0.5
 40
0.5
 40
0.5
 40
0.5
 40
0.55
 40
0.55
 40
0.55
 40
0.55
 40
0.6
 40
0.6
 40
0.6
 40
0.6
 40
0.65
 40
0.65
 40
0.65
 40
0.65
 40
0.7
 40
0.7
 40
0.7
 40
0.7
 40
0.75
 40
0.75
 40
0.75
 40
0.75
 40
0.8
 40
0.8
 40
0.8
 40
0.8
 40
0.85
 40
0.85
 40
0.85
 40
0.85
 40
0.9
 40
0.9
 40
0.9
 40
0.9
 40
1.0
 40
1.0
 40
1.0
 40
1.0
 10
-37.5192
 20
13.4609
 30
0.0
 10
-37.5192
 20
13.4609
 30
0.0
 10
-37.4999
 20
13.2144
 30
0.0
 10
-37.4999
 20
13.2144
 30
0.0
 10
-37.4999
 20
13.2144
 30
0.0
 10
-37.5973
 20
13.1924
 30
0.0
 10
-37.6683
 20
13.1613
 30
0.0
 10
-37.712
 20
13.1209
 30
0.0
 10
-37.712
 20
13.1209
 30
0.0
 10
-37.7831
 20
13.0535
 30
0.0
 10
-37.8184
 20
12.9708
 30
0.0
 10
-37.8184
 20
12.8725
 30
0.0
 10
-37.8184
 20
12.8725
 30
0.0
 10
-37.8184
 20
12.7935
 30
0.0
 10
-37.7962
 20
12.7244
 30
0.0
 10
-37.752
 20
12.6646
 30
0.0
 10
-37.752
 20
12.6646
 30
0.0
 10
-37.6951
 20
12.5865
 30
0.0
 10
-37.6119
 20
12.5249
 30
0.0
 10
-37.5028
 20
12.4798
 30
0.0
 10
-37.5028
 20
12.4798
 30
0.0
 10
-37.3936
 20
12.4351
 30
0.0
 10
-37.2379
 20
12.4115
 30
0.0
 10
-37.0357
 20
12.4097
 30
0.0
 10
-37.0357
 20
12.4097
 30
0.0
 10
-37.1265
 20
12.4693
 30
0.0
 10
-37.1942
 20
12.5423
 30
0.0
 10
-37.2384
 20
12.6289
 30
0.0
 10
-37.2384
 20
12.6289
 30
0.0
 10
-37.2821
 20
12.7149
 30
0.0
 10
-37.3043
 20
12.8057
 30
0.0
 10
-37.3043
 20
12.9002
 30
0.0
 10
-37.3043
 20
12.9002
 30
0.0
 10
-37.3043
 20
13.0659
 30
0.0
 10
-37.2435
 20
13.2065
 30
0.0
 10
-37.1217
 20
13.3227
 30
0.0
 10
-37.1217
 20
13.3227
 30
0.0
 10
-36.9999
 20
13.4389
 30
0.0
 10
-36.8428
 20
13.4971
 30
0.0
 10
-36.65
 20
13.4971
 30
0.0
 10
-36.65
 20
13.4971
 30
0.0
 10
-36.523
 20
13.4971
 30
0.0
 10
-36.4054
 20
13.4694
 30
0.0
 10
-36.2963
 20
13.4148
 30
0.0
 10
-36.2963
 20
13.4148
 30
0.0
 10
-36.1876
 20
13.3603
 30
0.0
 10
-36.1039
 20
13.285
 30
0.0
 10
-36.046
 20
13.1895
 30
0.0
 10
-36.046
 20
13.1895
 30
0.0
 10
-35.9882
 20
13.094
 30
0.0
 10
-35.9594
 20
12.9859
 30
0.0
 10
-35.9594
 20
12.8645
 30
0.0
 10
-35.9594
 20
12.8645
 30
0.0
 10
-35.9594
 20
12.6575
 30
0.0
 10
-36.0351
 20
12.4891
 30
0.0
 10
-36.1876
 20
12.3589
 30
0.0
 10
-36.1876
 20
12.3589
 30
0.0
 10
-36.3395
 20
12.2281
 30
0.0
 10
-36.5902
 20
12.1632
 30
0.0
 10
-36.9393
 20
12.1632
 30
0.0
 10
-36.9393
 20
12.1632
 30
0.0
 10
-37.3297
 20
12.1632
 30
0.0
 10
-37.6133
 20
12.2351
 30
0.0
 10
-37.7906
 20
12.3795
 30
0.0
 10
-37.7906
 20
12.3795
 30
0.0
 10
-37.9449
 20
12.5051
 30
0.0
 10
-38.0225
 20
12.6744
 30
0.0
 10
-38.0225
 20
12.888
 30
0.0
 10
-38.0225
 20
12.888
 30
0.0
 10
-38.0225
 20
13.0466
 30
0.0
 10
-37.9778
 20
13.1768
 30
0.0
 10
-37.8885
 20
13.2784
 30
0.0
 10
-37.8885
 20
13.2784
 30
0.0
 10
-37.7996
 20
13.3801
 30
0.0
 10
-37.6763
 20
13.4407
 30
0.0
 10
-37.5192
 20
13.4609
 30
0.0
  0
SPLINE
  5
119
330
1F
100
AcDbEntity
  8
DEFAULT_1
 62
   250
100
AcDbSpline
210
0.0
220
0.0
230
1.0
 70
    11
 71
     3
 72
    40
 73
    36
 74
     0
 42
0.0000000001
 43
0.0000000001
 40
0.0
 40
0.0
 40
0.0
 40
0.0
 40
0.1
 40
0.1
 40
0.1
 40
0.1
 40
0.2
 40
0.2
 40
0.2
 40
0.2
 40
0.3
 40
0.3
 40
0.3
 40
0.3
 40
0.4
 40
0.4
 40
0.4
 40
0.4
 40
0.5
 40
0.5
 40
0.5
 40
0.5
 40
0.6
 40
0.6
 40
0.6
 40
0.6
 40
0.7
 40
0.7
 40
0.7
 40
0.7
 40
0.8
 40
0.8
 40
0.8
 40
0.8
 40
1.0
 40
1.0
 40
1.0
 40
1.0
 10
-36.6486
 20
12.4482
 30
0.0
 10
-36.5629
 20
12.4482
 30
0.0
 10
-36.4811
 20
12.4666
 30
0.0
 10
-36.403
 20
12.5028
 30
0.0
 10
-36.403
 20
12.5028
 30
0.0
 10
-36.3249
 20
12.5389
 30
0.0
 10
-36.2657
 20
12.5898
 30
0.0
 10
-36.2248
 20
12.6548
 30
0.0
 10
-36.2248
 20
12.6548
 30
0.0
 10
-36.1838
 20
12.7201
 30
0.0
 10
-36.1632
 20
12.7888
 30
0.0
 10
-36.1632
 20
12.8603
 30
0.0
 10
-36.1632
 20
12.8603
 30
0.0
 10
-36.1632
 20
12.9651
 30
0.0
 10
-36.2055
 20
13.055
 30
0.0
 10
-36.2902
 20
13.1302
 30
0.0
 10
-36.2902
 20
13.1302
 30
0.0
 10
-36.3748
 20
13.2055
 30
0.0
 10
-36.4896
 20
13.2432
 30
0.0
 10
-36.6344
 20
13.2432
 30
0.0
 10
-36.6344
 20
13.2432
 30
0.0
 10
-36.7741
 20
13.2432
 30
0.0
 10
-36.8842
 20
13.206
 30
0.0
 10
-36.9647
 20
13.1316
 30
0.0
 10
-36.9647
 20
13.1316
 30
0.0
 10
-37.0451
 20
13.0574
 30
0.0
 10
-37.0851
 20
12.9637
 30
0.0
 10
-37.0851
 20
12.8509
 30
0.0
 10
-37.0851
 20
12.8509
 30
0.0
 10
-37.0851
 20
12.7385
 30
0.0
 10
-37.0451
 20
12.6434
 30
0.0
 10
-36.9647
 20
12.5654
 30
0.0
 10
-36.9647
 20
12.5654
 30
0.0
 10
-36.8842
 20
12.4873
 30
0.0
 10
-36.7789
 20
12.4482
 30
0.0
 10
-36.6486
 20
12.4482
 30
0.0
  0
SPLINE
  5
11A
330
1F
100
AcDbEntity
  8
DEFAULT_1
 62
   250
100
AcDbSpline
210
0.0
220
0.0
230
1.0
 70
    11
 71
     3
 72
    52
 73
    48
 74
     0
 42
0.0000000001
 43
0.0000000001
 40
0.0
 40
0.0
 40
0.0
 40
0.0
 40
0.0769230769230769
 40
0.0769230769230769
 40
0.0769230769230769
 40
0.0769230769230769
 40
0.1538461538461539
 40
0.1538461538461539
 40
0.1538461538461539
 40
0.1538461538461539
 40
0.2307692307692308
 40
0.2307692307692308
 40
0.2307692307692308
 40
0.2307692307692308
 40
0.3076923076923077
 40
0.3076923076923077
 40
0.3076923076923077
 40
0.3076923076923077
 40
0.3846153846153846
 40
0.3846153846153846
 40
0.3846153846153846
 40
0.3846153846153846
 40
0.4615384615384616
 40
0.4615384615384616
 40
0.4615384615384616
 40
0.4615384615384616
 40
0.5384615384615384
 40
0.5384615384615384
 40
0.5384615384615384
 40
0.5384615384615384
 40
0.6153846153846154
 40
0.6153846153846154
 40
0.6153846153846154
 40
0.6153846153846154
 40
0.6923076923076923
 40
0.6923076923076923
 40
0.6923076923076923
 40
0.6923076923076923
 40
0.7692307692307693
 40
0.7692307692307693
 40
0.7692307692307693
 40
0.7692307692307693
 40
0.8461538461538461
 40
0.8461538461538461
 40
0.8461538461538461
 40
0.8461538461538461
 40
1.0
 40
1.0
 40
1.0
 40
1.0
 10
-36.9901
 20
13.7436
 30
0.0
 10
-37.229
 20
13.7436
 30
0.0
 10
-37.4214
 20
13.7681
 30
0.0
 10
-37.5667
 20
13.8174
 30
0.0
 10
-37.5667
 20
13.8174
 30
0.0
 10
-37.7125
 20
13.8664
 30
0.0
 10
-37.825
 20
13.9397
 30
0.0
 10
-37.9039
 20
14.0368
 30
0.0
 10
-37.9039
 20
14.0368
 30
0.0
 10
-37.983
 20
14.1336
 30
0.0
 10
-38.0225
 20
14.2554
 30
0.0
 10
-38.0225
 20
14.4021
 30
0.0
 10
-38.0225
 20
14.4021
 30
0.0
 10
-38.0225
 20
14.5109
 30
0.0
 10
-38.0005
 20
14.6059
 30
0.0
 10
-37.9566
 20
14.6877
 30
0.0
 10
-37.9566
 20
14.6877
 30
0.0
 10
-37.9134
 20
14.7695
 30
0.0
 10
-37.8504
 20
14.8368
 30
0.0
 10
-37.7681
 20
14.8905
 30
0.0
 10
-37.7681
 20
14.8905
 30
0.0
 10
-37.6858
 20
14.9436
 30
0.0
 10
-37.5855
 20
14.9855
 30
0.0
 10
-37.4674
 20
15.0155
 30
0.0
 10
-37.4674
 20
15.0155
 30
0.0
 10
-37.3494
 20
15.0461
 30
0.0
 10
-37.1905
 20
15.0612
 30
0.0
 10
-36.9901
 20
15.0612
 30
0.0
 10
-36.9901
 20
15.0612
 30
0.0
 10
-36.753
 20
15.0612
 30
0.0
 10
-36.5621
 20
15.0367
 30
0.0
 10
-36.4162
 20
14.9882
 30
0.0
 10
-36.4162
 20
14.9882
 30
0.0
 10
-36.2704
 20
14.9394
 30
0.0
 10
-36.1579
 20
14.8664
 30
0.0
 10
-36.0785
 20
14.7695
 30
0.0
 10
-36.0785
 20
14.7695
 30
0.0
 10
-35.999
 20
14.6726
 30
0.0
 10
-35.9594
 20
14.5503
 30
0.0
 10
-35.9594
 20
14.4021
 30
0.0
 10
-35.9594
 20
14.4021
 30
0.0
 10
-35.9594
 20
14.2075
 30
0.0
 10
-36.029
 20
14.0546
 30
0.0
 10
-36.1688
 20
13.9436
 30
0.0
 10
-36.1688
 20
13.9436
 30
0.0
 10
-36.3366
 20
13.8105
 30
0.0
 10
-36.6109
 20
13.7436
 30
0.0
 10
-36.9901
 20
13.7436
 30
0.0
  0
SPLINE
  5
11B
330
1F
100
AcDbEntity
  8
DEFAULT_1
 62
   250
100
AcDbSpline
210
0.0
220
0.0
230
1.0
 70
    11
 71
     3
 72
    36
 73
    32
 74
     0
 42
0.0000000001
 43
0.0000000001
 40
0.0
 40
0.0
 40
0.0
 40
0.0
 40
0.1111111111111111
 40
0.1111111111111111
 40
0.1111111111111111
 40
0.1111111111111111
 40
0.2222222222222222
 40
0.2222222222222222
 40
0.2222222222222222
 40
0.2222222222222222
 40
0.3333333333333333
 40
0.3333333333333333
 40
0.3333333333333333
 40
0.3333333333333333
 40
0.4444444444444444
 40
0.4444444444444444
 40
0.4444444444444444
 40
0.4444444444444444
 40
0.5555555555555556
 40
0.5555555555555556
 40
0.5555555555555556
 40
0.5555555555555556
 40
0.6666666666666666
 40
0.6666666666666666
 40
0.6666666666666666
 40
0.6666666666666666
 40
0.7777777777777778
 40
0.7777777777777778
 40
0.7777777777777778
 40
0.7777777777777778
 40
1.0
 40
1.0
 40
1.0
 40
1.0
 10
-36.9901
 20
13.9986
 30
0.0
 10
-36.6585
 20
13.9986
 30
0.0
 10
-36.4378
 20
14.0376
 30
0.0
 10
-36.3278
 20
14.1152
 30
0.0
 10
-36.3278
 20
14.1152
 30
0.0
 10
-36.2182
 20
14.1929
 30
0.0
 10
-36.1632
 20
14.2883
 30
0.0
 10
-36.1632
 20
14.4021
 30
0.0
 10
-36.1632
 20
14.4021
 30
0.0
 10
-36.1632
 20
14.5165
 30
0.0
 10
-36.2186
 20
14.612
 30
0.0
 10
-36.3287
 20
14.6896
 30
0.0
 10
-36.3287
 20
14.6896
 30
0.0
 10
-36.4388
 20
14.7672
 30
0.0
 10
-36.6593
 20
14.8063
 30
0.0
 10
-36.9901
 20
14.8063
 30
0.0
 10
-36.9901
 20
14.8063
 30
0.0
 10
-37.3226
 20
14.8063
 30
0.0
 10
-37.5437
 20
14.7672
 30
0.0
 10
-37.6528
 20
14.6896
 30
0.0
 10
-37.6528
 20
14.6896
 30
0.0
 10
-37.7625
 20
14.612
 30
0.0
 10
-37.817
 20
14.5156
 30
0.0
 10
-37.817
 20
14.3998
 30
0.0
 10
-37.817
 20
14.3998
 30
0.0
 10
-37.817
 20
14.2856
 30
0.0
 10
-37.7686
 20
14.1948
 30
0.0
 10
-37.6721
 20
14.1265
 30
0.0
 10
-37.6721
 20
14.1265
 30
0.0
 10
-37.5494
 20
14.0414
 30
0.0
 10
-37.3216
 20
13.9986
 30
0.0
 10
-36.9901
 20
13.9986
 30
0.0
  0
SPLINE
  5
11C
330
1F
100
AcDbEntity
  8
DEFAULT_1
 62
   250
100
AcDbSpline
210
0.0
220
0.0
230
1.0
 70
    11
 71
     3
 72
    20
 73
    16
 74
     0
 42
0.0000000001
 43
0.0000000001
 40
0.0
 40
0.0
 40
0.0
 40
0.0
 40
0.2
 40
0.2
 40
0.2
 40
0.2
 40
0.4
 40
0.4
 40
0.4
 40
0.4
 40
0.6
 40
0.6
 40
0.6
 40
0.6
 40
1.0
 40
1.0
 40
1.0
 40
1.0
 10
-35.7465
 20
22.0789
 30
0.0
 10
-35.7465
 20
22.0789
 30
0.0
 10
-35.2449
 20
25.6328
 30
0.0
 10
-35.2449
 20
25.6328
 30
0.0
 10
-35.2449
 20
25.6328
 30
0.0
 10
-35.2449
 20
25.6328
 30
0.0
 10
-35.1335
 20
25.6328
 30
0.0
 10
-35.1335
 20
25.6328
 30
0.0
 10
-35.1335
 20
25.6328
 30
0.0
 10
-35.1335
 20
25.6328
 30
0.0
 10
-34.5986
 20
22.0789
 30
0.0
 10
-34.5986
 20
22.0789
 30
0.0
 10
-34.5986
 20
22.0789
 30
0.0
 10
-34.5986
 20
22.0789
 30
0.0
 10
-35.7465
 20
22.0789
 30
0.0
 10
-35.7465
 20
22.0789
 30
0.0
  0
SPLINE
  5
11D
330
1F
100
AcDbEntity
  8
DEFAULT_1
 62
   250
100
AcDbSpline
210
0.0
220
0.0
230
1.0
 70
    11
 71
     3
 72
    20
 73
    16
 74
     0
 42
0.0000000001
 43
0.0000000001
 40
0.0
 40
0.0
 40
0.0
 40
0.0
 40
0.2
 40
0.2
 40
0.2
 40
0.2
 40
0.4
 40
0.4
 40
0.4
 40
0.4
 40
0.6
 40
0.6
 40
0.6
 40
0.6
 40
1.0
 40
1.0
 40
1.0
 40
1.0
 10
-34.646
 20
-3.5528
 30
0.0
 10
-34.646
 20
-3.5528
 30
0.0
 10
-35.1475
 20
-7.1067
 30
0.0
 10
-35.1475
 20
-7.1067
 30
0.0
 10
-35.1475
 20
-7.1067
 30
0.0
 10
-35.1475
 20
-7.1067
 30
0.0
 10
-35.2589
 20
-7.1067
 30
0.0
 10
-35.2589
 20
-7.1067
 30
0.0
 10
-35.2589
 20
-7.1067
 30
0.0
 10
-35.2589
 20
-7.1067
 30
0.0
 10
-35.7938
 20
-3.5528
 30
0.0
 10
-35.7938
 20
-3.5528
 30
0.0
 10
-35.7938
 20
-3.5528
 30
0.0
 10
-35.7938
 20
-3.5528
 30
0.0
 10
-34.646
 20
-3.5528
 30
0.0
 10
-34.646
 20
-3.5528
 30
0.0
  0
SPLINE
  5
11E
330
1F
100
AcDbEntity
  8
DEFAULT_1
 62
   250
100
AcDbSpline
210
0.0
220
0.0
230
1.0
 70
    11
 71
     3
 72
    40
 73
    36
 74
     0
 42
0.0000000001
 43
0.0000000001
 40
0.0
 40
0.0
 40
0.0
 40
0.0
 40
0.1
 40
0.1
 40
0.1
 40
0.1
 40
0.2
 40
0.2
 40
0.2
 40
0.2
 40
0.3
 40
0.3
 40
0.3
 40
0.3
 40
0.4
 40
0.4
 40
0.4
 40
0.4
 40
0.5
 40
0.5
 40
0.5
 40
0.5
 40
0.6
 40
0.6
 40
0.6
 40
0.6
 40
0.7
 40
0.7
 40
0.7
 40
0.7
 40
0.8
 40
0.8
 40
0.8
 40
0.8
 40
1.0
 40
1.0
 40
1.0
 40
1.0
 10
-35.7493
 20
-20.4115
 30
0.0
 10
-35.7493
 20
-20.4115
 30
0.0
 10
-35.7493
 20
-20.6594
 30
0.0
 10
-35.7493
 20
-20.6594
 30
0.0
 10
-35.7493
 20
-20.6594
 30
0.0
 10
-35.7493
 20
-20.6594
 30
0.0
 10
-37.3298
 20
-20.6594
 30
0.0
 10
-37.3298
 20
-20.6594
 30
0.0
 10
-37.3298
 20
-20.6594
 30
0.0
 10
-37.2729
 20
-20.7192
 30
0.0
 10
-37.216
 20
-20.7973
 30
0.0
 10
-37.1591
 20
-20.8942
 30
0.0
 10
-37.1591
 20
-20.8942
 30
0.0
 10
-37.1021
 20
-20.9914
 30
0.0
 10
-37.0593
 20
-21.0785
 30
0.0
 10
-37.031
 20
-21.1557
 30
0.0
 10
-37.031
 20
-21.1557
 30
0.0
 10
-37.031
 20
-21.1557
 30
0.0
 10
-37.2705
 20
-21.1557
 30
0.0
 10
-37.2705
 20
-21.1557
 30
0.0
 10
-37.2705
 20
-21.1557
 30
0.0
 10
-37.3359
 20
-21.0168
 30
0.0
 10
-37.4149
 20
-20.8955
 30
0.0
 10
-37.5075
 20
-20.7915
 30
0.0
 10
-37.5075
 20
-20.7915
 30
0.0
 10
-37.6007
 20
-20.6881
 30
0.0
 10
-37.6906
 20
-20.6142
 30
0.0
 10
-37.778
 20
-20.571
 30
0.0
 10
-37.778
 20
-20.571
 30
0.0
 10
-37.778
 20
-20.571
 30
0.0
 10
-37.778
 20
-20.4115
 30
0.0
 10
-37.778
 20
-20.4115
 30
0.0
 10
-37.778
 20
-20.4115
 30
0.0
 10
-37.778
 20
-20.4115
 30
0.0
 10
-35.7493
 20
-20.4115
 30
0.0
 10
-35.7493
 20
-20.4115
 30
0.0
  0
SPLINE
  5
11F
330
1F
100
AcDbEntity
  8
DEFAULT_1
 62
   250
100
AcDbSpline
210
0.0
220
0.0
230
1.0
 70
    11
 71
     3
 72
   124
 73
   120
 74
     0
 42
0.0000000001
 43
0.0000000001
 40
0.0
 40
0.0
 40
0.0
 40
0.0
 40
0.032258064516129
 40
0.032258064516129
 40
0.032258064516129
 40
0.032258064516129
 40
0.0645161290322581
 40
0.0645161290322581
 40
0.0645161290322581
 40
0.0645161290322581
 40
0.0967741935483871
 40
0.0967741935483871
 40
0.0967741935483871
 40
0.0967741935483871
 40
0.1290322580645161
 40
0.1290322580645161
 40
0.1290322580645161
 40
0.1290322580645161
 40
0.1612903225806452
 40
0.1612903225806452
 40
0.1612903225806452
 40
0.1612903225806452
 40
0.1935483870967742
 40
0.1935483870967742
 40
0.1935483870967742
 40
0.1935483870967742
 40
0.2258064516129032
 40
0.2258064516129032
 40
0.2258064516129032
 40
0.2258064516129032
 40
0.2580645161290323
 40
0.2580645161290323
 40
0.2580645161290323
 40
0.2580645161290323
 40
0.2903225806451613
 40
0.2903225806451613
 40
0.2903225806451613
 40
0.2903225806451613
 40
0.3225806451612903
 40
0.3225806451612903
 40
0.3225806451612903
 40
0.3225806451612903
 40
0.3548387096774194
 40
0.3548387096774194
 40
0.3548387096774194
 40
0.3548387096774194
 40
0.3870967741935484
 40
0.3870967741935484
 40
0.3870967741935484
 40
0.3870967741935484
 40
0.4193548387096774
 40
0.4193548387096774
 40
0.4193548387096774
 40
0.4193548387096774
 40
0.4516129032258064
 40
0.4516129032258064
 40
0.4516129032258064
 40
0.4516129032258064
 40
0.4838709677419355
 40
0.4838709677419355
 40
0.4838709677419355
 40
0.4838709677419355
 40
0.5161290322580645
 40
0.5161290322580645
 40
0.5161290322580645
 40
0.5161290322580645
 40
0.5483870967741935
 40
0.5483870967741935
 40
0.5483870967741935
 40
0.5483870967741935
 40
0.5806451612903226
 40
0.5806451612903226
 40
0.5806451612903226
 40
0.5806451612903226
 40
0.6129032258064516
 40
0.6129032258064516
 40
0.6129032258064516
 40
0.6129032258064516
 40
0.6451612903225806
 40
0.6451612903225806
 40
0.6451612903225806
 40
0.6451612903225806
 40
0.6774193548387096
 40
0.6774193548387096
 40
0.6774193548387096
 40
0.6774193548387096
 40
0.7096774193548387
 40
0.7096774193548387
 40
0.7096774193548387
 40
0.7096774193548387
 40
0.7419354838709677
 40
0.7419354838709677
 40
0.7419354838709677
 40
0.7419354838709677
 40
0.7741935483870968
 40
0.7741935483870968
 40
0.7741935483870968
 40
0.7741935483870968
 40
0.8064516129032258
 40
0.8064516129032258
 40
0.8064516129032258
 40
0.8064516129032258
 40
0.8387096774193549
 40
0.8387096774193549
 40
0.8387096774193549
 40
0.8387096774193549
 40
0.8709677419354839
 40
0.8709677419354839
 40
0.8709677419354839
 40
0.8709677419354839
 40
0.9032258064516129
 40
0.9032258064516129
 40
0.9032258064516129
 40
0.9032258064516129
 40
0.9354838709677419
 40
0.9354838709677419
 40
0.9354838709677419
 40
0.9354838709677419
 40
1.0
 40
1.0
 40
1.0
 40
1.0
 10
-36.2827
 20
-19.7746
 30
0.0
 10
-36.2827
 20
-19.7746
 30
0.0
 10
-36.3157
 20
-19.5268
 30
0.0
 10
-36.3157
 20
-19.5268
 30
0.0
 10
-36.3157
 20
-19.5268
 30
0.0
 10
-36.175
 20
-19.498
 30
0.0
 10
-36.0738
 20
-19.4495
 30
0.0
 10
-36.0118
 20
-19.3814
 30
0.0
 10
-36.0118
 20
-19.3814
 30
0.0
 10
-35.9497
 20
-19.3127
 30
0.0
 10
-35.9187
 20
-19.2295
 30
0.0
 10
-35.9187
 20
-19.1311
 30
0.0
 10
-35.9187
 20
-19.1311
 30
0.0
 10
-35.9187
 20
-19.0145
 30
0.0
 10
-35.9591
 20
-18.9156
 30
0.0
 10
-36.04
 20
-18.8353
 30
0.0
 10
-36.04
 20
-18.8353
 30
0.0
 10
-36.1209
 20
-18.7552
 30
0.0
 10
-36.221
 20
-18.7149
 30
0.0
 10
-36.3406
 20
-18.7149
 30
0.0
 10
-36.3406
 20
-18.7149
 30
0.0
 10
-36.4544
 20
-18.7149
 30
0.0
 10
-36.5485
 20
-18.752
 30
0.0
 10
-36.6223
 20
-18.8264
 30
0.0
 10
-36.6223
 20
-18.8264
 30
0.0
 10
-36.6962
 20
-18.9011
 30
0.0
 10
-36.7333
 20
-18.9956
 30
0.0
 10
-36.7333
 20
-19.1104
 30
0.0
 10
-36.7333
 20
-19.1104
 30
0.0
 10
-36.7333
 20
-19.1575
 30
0.0
 10
-36.7239
 20
-19.2158
 30
0.0
 10
-36.7056
 20
-19.2854
 30
0.0
 10
-36.7056
 20
-19.2854
 30
0.0
 10
-36.7056
 20
-19.2854
 30
0.0
 10
-36.9233
 20
-19.2576
 30
0.0
 10
-36.9233
 20
-19.2576
 30
0.0
 10
-36.9233
 20
-19.2576
 30
0.0
 10
-36.9214
 20
-19.2412
 30
0.0
 10
-36.9206
 20
-19.228
 30
0.0
 10
-36.9206
 20
-19.2177
 30
0.0
 10
-36.9206
 20
-19.2177
 30
0.0
 10
-36.9206
 20
-19.1123
 30
0.0
 10
-36.9483
 20
-19.0173
 30
0.0
 10
-37.0033
 20
-18.9326
 30
0.0
 10
-37.0033
 20
-18.9326
 30
0.0
 10
-37.0583
 20
-18.848
 30
0.0
 10
-37.1435
 20
-18.8057
 30
0.0
 10
-37.2583
 20
-18.8057
 30
0.0
 10
-37.2583
 20
-18.8057
 30
0.0
 10
-37.3491
 20
-18.8057
 30
0.0
 10
-37.4248
 20
-18.8367
 30
0.0
 10
-37.4841
 20
-18.8983
 30
0.0
 10
-37.4841
 20
-18.8983
 30
0.0
 10
-37.5437
 20
-18.9599
 30
0.0
 10
-37.5739
 20
-19.0394
 30
0.0
 10
-37.5739
 20
-19.1368
 30
0.0
 10
-37.5739
 20
-19.1368
 30
0.0
 10
-37.5739
 20
-19.2332
 30
0.0
 10
-37.5433
 20
-19.3137
 30
0.0
 10
-37.4831
 20
-19.3776
 30
0.0
 10
-37.4831
 20
-19.3776
 30
0.0
 10
-37.4225
 20
-19.4421
 30
0.0
 10
-37.3312
 20
-19.4834
 30
0.0
 10
-37.2099
 20
-19.5018
 30
0.0
 10
-37.2099
 20
-19.5018
 30
0.0
 10
-37.2099
 20
-19.5018
 30
0.0
 10
-37.2541
 20
-19.7497
 30
0.0
 10
-37.2541
 20
-19.7497
 30
0.0
 10
-37.2541
 20
-19.7497
 30
0.0
 10
-37.4206
 20
-19.7195
 30
0.0
 10
-37.5495
 20
-19.6504
 30
0.0
 10
-37.6406
 20
-19.5432
 30
0.0
 10
-37.6406
 20
-19.5432
 30
0.0
 10
-37.7319
 20
-19.4355
 30
0.0
 10
-37.778
 20
-19.3018
 30
0.0
 10
-37.778
 20
-19.1419
 30
0.0
 10
-37.778
 20
-19.1419
 30
0.0
 10
-37.778
 20
-19.0318
 30
0.0
 10
-37.7541
 20
-18.9302
 30
0.0
 10
-37.707
 20
-18.8376
 30
0.0
 10
-37.707
 20
-18.8376
 30
0.0
 10
-37.6594
 20
-18.7449
 30
0.0
 10
-37.5951
 20
-18.6739
 30
0.0
 10
-37.5132
 20
-18.6245
 30
0.0
 10
-37.5132
 20
-18.6245
 30
0.0
 10
-37.4314
 20
-18.5757
 30
0.0
 10
-37.3449
 20
-18.5506
 30
0.0
 10
-37.2526
 20
-18.5506
 30
0.0
 10
-37.2526
 20
-18.5506
 30
0.0
 10
-37.1657
 20
-18.5506
 30
0.0
 10
-37.0861
 20
-18.5742
 30
0.0
 10
-37.0141
 20
-18.6212
 30
0.0
 10
-37.0141
 20
-18.6212
 30
0.0
 10
-36.9426
 20
-18.6683
 30
0.0
 10
-36.8857
 20
-18.7374
 30
0.0
 10
-36.8434
 20
-18.8291
 30
0.0
 10
-36.8434
 20
-18.8291
 30
0.0
 10
-36.8161
 20
-18.7097
 30
0.0
 10
-36.7587
 20
-18.617
 30
0.0
 10
-36.6717
 20
-18.5506
 30
0.0
 10
-36.6717
 20
-18.5506
 30
0.0
 10
-36.5852
 20
-18.4849
 30
0.0
 10
-36.4765
 20
-18.4519
 30
0.0
 10
-36.3462
 20
-18.4519
 30
0.0
 10
-36.3462
 20
-18.4519
 30
0.0
 10
-36.1699
 20
-18.4519
 30
0.0
 10
-36.0203
 20
-18.5159
 30
0.0
 10
-35.8975
 20
-18.6448
 30
0.0
 10
-35.8975
 20
-18.6448
 30
0.0
 10
-35.7747
 20
-18.7732
 30
0.0
 10
-35.7136
 20
-18.9359
 30
0.0
 10
-35.7136
 20
-19.1326
 30
0.0
 10
-35.7136
 20
-19.1326
 30
0.0
 10
-35.7136
 20
-19.3099
 30
0.0
 10
-35.7662
 20
-19.4571
 30
0.0
 10
-35.8721
 20
-19.5742
 30
0.0
 10
-35.8721
 20
-19.5742
 30
0.0
 10
-35.9775
 20
-19.6914
 30
0.0
 10
-36.1143
 20
-19.7581
 30
0.0
 10
-36.2827
 20
-19.7746
 30
0.0
  0
SPLINE
  5
120
330
1F
100
AcDbEntity
  8
DEFAULT_1
 62
   250
100
AcDbSpline
210
0.0
220
0.0
230
1.0
 70
    11
 71
     3
 72
    52
 73
    48
 74
     0
 42
0.0000000001
 43
0.0000000001
 40
0.0
 40
0.0
 40
0.0
 40
0.0
 40
0.0769230769230769
 40
0.0769230769230769
 40
0.0769230769230769
 40
0.0769230769230769
 40
0.1538461538461539
 40
0.1538461538461539
 40
0.1538461538461539
 40
0.1538461538461539
 40
0.2307692307692308
 40
0.2307692307692308
 40
0.2307692307692308
 40
0.2307692307692308
 40
0.3076923076923077
 40
0.3076923076923077
 40
0.3076923076923077
 40
0.3076923076923077
 40
0.3846153846153846
 40
0.3846153846153846
 40
0.3846153846153846
 40
0.3846153846153846
 40
0.4615384615384616
 40
0.4615384615384616
 40
0.4615384615384616
 40
0.4615384615384616
 40
0.5384615384615384
 40
0.5384615384615384
 40
0.5384615384615384
 40
0.5384615384615384
 40
0.6153846153846154
 40
0.6153846153846154
 40
0.6153846153846154
 40
0.6153846153846154
 40
0.6923076923076923
 40
0.6923076923076923
 40
0.6923076923076923
 40
0.6923076923076923
 40
0.7692307692307693
 40
0.7692307692307693
 40
0.7692307692307693
 40
0.7692307692307693
 40
0.8461538461538461
 40
0.8461538461538461
 40
0.8461538461538461
 40
0.8461538461538461
 40
1.0
 40
1.0
 40
1.0
 40
1.0
 10
-36.7456
 20
-18.2064
 30
0.0
 10
-36.9845
 20
-18.2064
 30
0.0
 10
-37.1769
 20
-18.1819
 30
0.0
 10
-37.3222
 20
-18.1326
 30
0.0
 10
-37.3222
 20
-18.1326
 30
0.0
 10
-37.468
 20
-18.0836
 30
0.0
 10
-37.5805
 20
-18.0103
 30
0.0
 10
-37.6594
 20
-17.9133
 30
0.0
 10
-37.6594
 20
-17.9133
 30
0.0
 10
-37.7385
 20
-17.8164
 30
0.0
 10
-37.778
 20
-17.6946
 30
0.0
 10
-37.778
 20
-17.5479
 30
0.0
 10
-37.778
 20
-17.5479
 30
0.0
 10
-37.778
 20
-17.4391
 30
0.0
 10
-37.756
 20
-17.3441
 30
0.0
 10
-37.7121
 20
-17.2623
 30
0.0
 10
-37.7121
 20
-17.2623
 30
0.0
 10
-37.6689
 20
-17.1805
 30
0.0
 10
-37.6059
 20
-17.1132
 30
0.0
 10
-37.5236
 20
-17.0596
 30
0.0
 10
-37.5236
 20
-17.0596
 30
0.0
 10
-37.4413
 20
-17.0064
 30
0.0
 10
-37.341
 20
-16.9645
 30
0.0
 10
-37.2229
 20
-16.9345
 30
0.0
 10
-37.2229
 20
-16.9345
 30
0.0
 10
-37.1049
 20
-16.9039
 30
0.0
 10
-36.946
 20
-16.8888
 30
0.0
 10
-36.7456
 20
-16.8888
 30
0.0
 10
-36.7456
 20
-16.8888
 30
0.0
 10
-36.5085
 20
-16.8888
 30
0.0
 10
-36.3176
 20
-16.9133
 30
0.0
 10
-36.1717
 20
-16.9618
 30
0.0
 10
-36.1717
 20
-16.9618
 30
0.0
 10
-36.0259
 20
-17.0106
 30
0.0
 10
-35.9134
 20
-17.0836
 30
0.0
 10
-35.834
 20
-17.1805
 30
0.0
 10
-35.834
 20
-17.1805
 30
0.0
 10
-35.7545
 20
-17.2774
 30
0.0
 10
-35.7149
 20
-17.3997
 30
0.0
 10
-35.7149
 20
-17.5479
 30
0.0
 10
-35.7149
 20
-17.5479
 30
0.0
 10
-35.7149
 20
-17.7425
 30
0.0
 10
-35.7845
 20
-17.8954
 30
0.0
 10
-35.9243
 20
-18.0064
 30
0.0
 10
-35.9243
 20
-18.0064
 30
0.0
 10
-36.0921
 20
-18.1395
 30
0.0
 10
-36.3664
 20
-18.2064
 30
0.0
 10
-36.7456
 20
-18.2064
 30
0.0
  0
SPLINE
  5
121
330
1F
100
AcDbEntity
  8
DEFAULT_1
 62
   250
100
AcDbSpline
210
0.0
220
0.0
230
1.0
 70
    11
 71
     3
 72
    36
 73
    32
 74
     0
 42
0.0000000001
 43
0.0000000001
 40
0.0
 40
0.0
 40
0.0
 40
0.0
 40
0.1111111111111111
 40
0.1111111111111111
 40
0.1111111111111111
 40
0.1111111111111111
 40
0.2222222222222222
 40
0.2222222222222222
 40
0.2222222222222222
 40
0.2222222222222222
 40
0.3333333333333333
 40
0.3333333333333333
 40
0.3333333333333333
 40
0.3333333333333333
 40
0.4444444444444444
 40
0.4444444444444444
 40
0.4444444444444444
 40
0.4444444444444444
 40
0.5555555555555556
 40
0.5555555555555556
 40
0.5555555555555556
 40
0.5555555555555556
 40
0.6666666666666666
 40
0.6666666666666666
 40
0.6666666666666666
 40
0.6666666666666666
 40
0.7777777777777778
 40
0.7777777777777778
 40
0.7777777777777778
 40
0.7777777777777778
 40
1.0
 40
1.0
 40
1.0
 40
1.0
 10
-36.7456
 20
-17.9514
 30
0.0
 10
-36.414
 20
-17.9514
 30
0.0
 10
-36.1933
 20
-17.9124
 30
0.0
 10
-36.0833
 20
-17.8348
 30
0.0
 10
-36.0833
 20
-17.8348
 30
0.0
 10
-35.9737
 20
-17.7571
 30
0.0
 10
-35.9187
 20
-17.6617
 30
0.0
 10
-35.9187
 20
-17.5479
 30
0.0
 10
-35.9187
 20
-17.5479
 30
0.0
 10
-35.9187
 20
-17.4335
 30
0.0
 10
-35.9741
 20
-17.338
 30
0.0
 10
-36.0842
 20
-17.2604
 30
0.0
 10
-36.0842
 20
-17.2604
 30
0.0
 10
-36.1943
 20
-17.1828
 30
0.0
 10
-36.4148
 20
-17.1437
 30
0.0
 10
-36.7456
 20
-17.1437
 30
0.0
 10
-36.7456
 20
-17.1437
 30
0.0
 10
-37.0781
 20
-17.1437
 30
0.0
 10
-37.2992
 20
-17.1828
 30
0.0
 10
-37.4083
 20
-17.2604
 30
0.0
 10
-37.4083
 20
-17.2604
 30
0.0
 10
-37.518
 20
-17.338
 30
0.0
 10
-37.5725
 20
-17.4344
 30
0.0
 10
-37.5725
 20
-17.5502
 30
0.0
 10
-37.5725
 20
-17.5502
 30
0.0
 10
-37.5725
 20
-17.6644
 30
0.0
 10
-37.5241
 20
-17.7552
 30
0.0
 10
-37.4276
 20
-17.8235
 30
0.0
 10
-37.4276
 20
-17.8235
 30
0.0
 10
-37.3049
 20
-17.9086
 30
0.0
 10
-37.0771
 20
-17.9514
 30
0.0
 10
-36.7456
 20
-17.9514
 30
0.0
  0
SPLINE
  5
122
330
1F
100
AcDbEntity
  8
DEFAULT_1
 62
   250
100
AcDbSpline
210
0.0
220
0.0
230
1.0
 70
    11
 71
     3
 72
    20
 73
    16
 74
     0
 42
0.0000000001
 43
0.0000000001
 40
0.0
 40
0.0
 40
0.0
 40
0.0
 40
0.2
 40
0.2
 40
0.2
 40
0.2
 40
0.4
 40
0.4
 40
0.4
 40
0.4
 40
0.6
 40
0.6
 40
0.6
 40
0.6
 40
1.0
 40
1.0
 40
1.0
 40
1.0
 10
-35.7751
 20
-10.9023
 30
0.0
 10
-35.7751
 20
-10.9023
 30
0.0
 10
-35.2735
 20
-7.3484
 30
0.0
 10
-35.2735
 20
-7.3484
 30
0.0
 10
-35.2735
 20
-7.3484
 30
0.0
 10
-35.2735
 20
-7.3484
 30
0.0
 10
-35.1621
 20
-7.3484
 30
0.0
 10
-35.1621
 20
-7.3484
 30
0.0
 10
-35.1621
 20
-7.3484
 30
0.0
 10
-35.1621
 20
-7.3484
 30
0.0
 10
-34.6272
 20
-10.9023
 30
0.0
 10
-34.6272
 20
-10.9023
 30
0.0
 10
-34.6272
 20
-10.9023
 30
0.0
 10
-34.6272
 20
-10.9023
 30
0.0
 10
-35.7751
 20
-10.9023
 30
0.0
 10
-35.7751
 20
-10.9023
 30
0.0
  0
SPLINE
  5
123
330
1F
100
AcDbEntity
  8
DEFAULT_1
 62
   250
100
AcDbSpline
210
0.0
220
0.0
230
1.0
 70
    11
 71
     3
 72
    20
 73
    16
 74
     0
 42
0.0000000001
 43
0.0000000001
 40
0.0
 40
0.0
 40
0.0
 40
0.0
 40
0.2
 40
0.2
 40
0.2
 40
0.2
 40
0.4
 40
0.4
 40
0.4
 40
0.4
 40
0.6
 40
0.6
 40
0.6
 40
0.6
 40
1.0
 40
1.0
 40
1.0
 40
1.0
 10
-34.659
 20
-28.1015
 30
0.0
 10
-34.659
 20
-28.1015
 30
0.0
 10
-35.1605
 20
-31.6554
 30
0.0
 10
-35.1605
 20
-31.6554
 30
0.0
 10
-35.1605
 20
-31.6554
 30
0.0
 10
-35.1605
 20
-31.6554
 30
0.0
 10
-35.2719
 20
-31.6554
 30
0.0
 10
-35.2719
 20
-31.6554
 30
0.0
 10
-35.2719
 20
-31.6554
 30
0.0
 10
-35.2719
 20
-31.6554
 30
0.0
 10
-35.8068
 20
-28.1015
 30
0.0
 10
-35.8068
 20
-28.1015
 30
0.0
 10
-35.8068
 20
-28.1015
 30
0.0
 10
-35.8068
 20
-28.1015
 30
0.0
 10
-34.659
 20
-28.1015
 30
0.0
 10
-34.659
 20
-28.1015
 30
0.0
  0
ENDSEC
  0
SECTION
  2
OBJECTS
  0
DICTIONARY
  5
C
330
0
100
AcDbDictionary
  3
ACAD_GROUP
350
D
  3
ACAD_LAYOUT
350
1A
  3
ACAD_MATERIAL
350
3B
  3
ACAD_MLEADERSTYLE
350
146
  3
ACAD_MLINESTYLE
350
17
  3
ACAD_PLOTSETTINGS
350
19
  3
ACAD_VISUALSTYLE
350
2A
  3
ACDBHEADERROUNDTRIPXREC
350
124
  3
ACDBVARIABLEDICTIONARY
350
144
  0
DICTIONARY
  5
D
102
{ACAD_REACTORS
330
C
102
}
330
C
100
AcDbDictionary
  0
DICTIONARY
  5
1A
102
{ACAD_REACTORS
330
C
102
}
330
C
100
AcDbDictionary
  0
DICTIONARY
  5
3B
102
{ACAD_REACTORS
330
C
102
}
330
C
100
AcDbDictionary
  3
BYBLOCK
350
3D
  3
BYLAYER
350
3C
  3
GLOBAL
350
3E
  0
DICTIONARY
  5
146
102
{ACAD_REACTORS
330
C
102
}
330
C
100
AcDbDictionary
  0
DICTIONARY
  5
17
102
{ACAD_REACTORS
330
C
102
}
330
C
100
AcDbDictionary
  3
STANDARD
350
18
  0
DICTIONARY
  5
19
102
{ACAD_REACTORS
330
C
102
}
330
C
100
AcDbDictionary
  0
DICTIONARY
  5
2A
102
{ACAD_REACTORS
330
C
102
}
330
C
100
AcDbDictionary
  3
2DWIREFRAME
350
2F
  3
3D_HIDDEN
350
31
  3
3DWIREFRAME
350
30
  3
BASIC
350
32
  3
BRIGHTEN
350
36
  3
COLORCHANGE
350
3A
  3
CONCEPTUAL
350
34
  3
DIM
350
35
  3
FACEPATTERN
350
39
  3
FLAT
350
2B
  3
FLATWITHEDGES
350
2C
  3
GOURAUD
350
2D
  3
GOURAUDWITHEDGES
350
2E
  3
LINEPATTERN
350
38
  3
REALISTIC
350
33
  3
THICKEN
350
37
  0
DICTIONARY
  5
124
102
{ACAD_REACTORS
330
C
102
}
330
C
100
AcDbDictionary
  3
CEPSNTYPE
350
12D
  3
DIMSTYLEDATA
350
143
  3
FINGERPRINTGUID
350
12E
  3
HYPERLINKBASE
350
127
  3
INSUNITS
350
12C
  3
LAYOUTDICT
350
129
  3
LWETCUNION
350
12B
  3
PLOTSETDICT
350
12A
  3
PSVPSCALE
350
130
  3
PUCSBASE
350
133
  3
PUCSORGBACK
350
139
  3
PUCSORGBOTTOM
350
135
  3
PUCSORGFRONT
350
138
  3
PUCSORGLEFT
350
136
  3
PUCSORGRIGHT
350
137
  3
PUCSORGTOP
350
134
  3
PUCSORTHOREF
350
131
  3
PUCSORTHOVIEW
350
132
  3
STYLESHEET
350
128
  3
TSTACKALIGN
350
125
  3
TSTACKSIZE
350
126
  3
UCSBASE
350
13C
  3
UCSORGBACK
350
142
  3
UCSORGBOTTOM
350
13E
  3
UCSORGFRONT
350
141
  3
UCSORGLEFT
350
13F
  3
UCSORGRIGHT
350
140
  3
UCSORGTOP
350
13D
  3
UCSORTHOREF
350
13A
  3
UCSORTHOVIEW
350
13B
  3
VERSIONGUID
350
12F
  0
DICTIONARY
  5
144
102
{ACAD_REACTORS
330
C
102
}
330
C
100
AcDbDictionary
  3
DIMASSOC
350
147
  3
HIDETEXT
350
148
  0
MATERIAL
  5
3D
102
{ACAD_REACTORS
330
3B
102
}
102
{ACAD_XDICTIONARY
360
14B
102
}
330
3B
100
AcDbMaterial
  1
ByBlock
  0
MATERIAL
  5
3C
102
{ACAD_REACTORS
330
3B
102
}
102
{ACAD_XDICTIONARY
360
149
102
}
330
3B
100
AcDbMaterial
  1
ByLayer
  0
MATERIAL
  5
3E
102
{ACAD_REACTORS
330
3B
102
}
102
{ACAD_XDICTIONARY
360
14D
102
}
330
3B
100
AcDbMaterial
  1
Global
  0
MLINESTYLE
  5
18
102
{ACAD_REACTORS
330
17
102
}
330
17
100
AcDbMlineStyle
  2
Standard
 70
     0
  3

 62
   256
 51
90.0
 52
90.0
 71
     2
 49
0.5
 62
   256
  6
BYLAYER
 49
-0.5
 62
   256
  6
BYLAYER
  0
ACAD_PROXY_OBJECT
  5
2F
102
{ACAD_REACTORS
330
2A
102
}
330
2A
100
AcDbProxyObject
 90
      499
 91
      501
 93
      436
310
42CC9915DA5C99599C985B595049028333333333333E3BF0000000000000FB0107901411070040501600405405064090741402480A0340
1001
ACAD
1000
AcDbSavedByObjectVersion
1070
     0
  0
ACAD_PROXY_OBJECT
  5
31
102
{ACAD_REACTORS
330
2A
102
}
330
2A
100
AcDbProxyObject
 90
      499
 91
      501
 93
      500
310
424CD108121A5919195B90640502408333333333333E3BF0000000000000FB01079024090700405020000000000001110200405405064090740C02480A0340
1001
ACAD
1000
AcDbSavedByObjectVersion
1070
     0
  0
ACAD_PROXY_OBJECT
  5
30
102
{ACAD_REACTORS
330
2A
102
}
330
2A
100
AcDbProxyObject
 90
      499
 91
      501
 93
      436
310
42CCD915DA5C99599C985B595059028333333333333E3BF0000000000000FB0107901411070040501600405405064090741402480A0340
1001
ACAD
1000
AcDbSavedByObjectVersion
1070
     0
  0
ACAD_PROXY_OBJECT
  5
32
102
{ACAD_REACTORS
330
2A
102
}
330
2A
100
AcDbProxyObject
 90
      499
 91
      501
 93
      388
310
4150985CDA58D07406404333333333333E3BF0000000000000FB0107A41107004050150841D405064090741402480A0350
1001
ACAD
1000
AcDbSavedByObjectVersion
1070
     0
  0
ACAD_PROXY_OBJECT
  5
36
102
{ACAD_REACTORS
330
2A
102
}
330
2A
100
AcDbProxyObject
 90
      499
 91
      501
 93
      428
310
42109C9A59DA1D195B90C409028333333333333E3BF0000000000000FB010790141107004050150841D405064090741402480A029950
1001
ACAD
1000
AcDbSavedByObjectVersion
1070
     0
  0
ACAD_PROXY_OBJECT
  5
3A
102
{ACAD_REACTORS
330
2A
102
}
330
2A
100
AcDbProxyObject
 90
      499
 91
      501
 93
      452
310
42D0DBDB1BDC90DA185B99D95104090240C333333333333E3BF0000000000000FB0108901411070040501508421405064090741402480A0350
1001
ACAD
1000
AcDbSavedByObjectVersion
1070
     0
  0
ACAD_PROXY_OBJECT
  5
34
102
{ACAD_REACTORS
330
2A
102
}
330
2A
100
AcDbProxyObject
 90
      499
 91
      501
 93
      500
310
4290DBDB98D95C1D1D585B10940D028333333333333E3BF0000000000000FB0107902409070040501000000000000111010841D405064090740C02480A0340
1001
ACAD
1000
AcDbSavedByObjectVersion
1070
     0
  0
ACAD_PROXY_OBJECT
  5
35
102
{ACAD_REACTORS
330
2A
102
}
330
2A
100
AcDbProxyObject
 90
      499
 91
      501
 93
      412
310
40D11A5B50B409028333333333333E3BF0000000000000FB010790141107004050150841D405064090741402480A02677FFFFFD0
1001
ACAD
1000
AcDbSavedByObjectVersion
1070
     0
  0
ACAD_PROXY_OBJECT
  5
39
102
{ACAD_REACTORS
330
2A
102
}
330
2A
100
AcDbProxyObject
 90
      499
 91
      501
 93
      444
310
42D19858D95C185D1D195C9B90F409028333333333333E3BF0000000000000FB010790141107004050150841D405064090741402480A0350
1001
ACAD
1000
AcDbSavedByObjectVersion
1070
     0
  0
ACAD_PROXY_OBJECT
  5
2B
102
{ACAD_REACTORS
330
2A
102
}
330
2A
100
AcDbProxyObject
 90
      499
 91
      501
 93
      388
310
41119B185D240901404333333333333E3BF0000000000000F9010740A41107004050150841D405064090741402480A1B50
1001
ACAD
1000
AcDbSavedByObjectVersion
1070
     0
  0
ACAD_PROXY_OBJECT
  5
2C
102
{ACAD_REACTORS
330
2A
102
}
330
2A
100
AcDbProxyObject
 90
      499
 91
      501
 93
      476
310
43519B185D15DA5D1A115919D95CD0140901404333333333333E3BF0000000000000F9010740901411070040501600405405064090741402480A1B50
1001
ACAD
1000
AcDbSavedByObjectVersion
1070
     0
  0
ACAD_PROXY_OBJECT
  5
2D
102
{ACAD_REACTORS
330
2A
102
}
330
2A
100
AcDbProxyObject
 90
      499
 91
      501
 93
      412
310
41D1DBDD5C985D5910240902404333333333333E3BF0000000000000F9010740A411070040501641D405064090741402480A1B50
1001
ACAD
1000
AcDbSavedByObjectVersion
1070
     0
  0
ACAD_PROXY_OBJECT
  5
2E
102
{ACAD_REACTORS
330
2A
102
}
330
2A
100
AcDbProxyObject
 90
      499
 91
      501
 93
      500
310
4411DBDD5C985D5915DA5D1A115919D95CD0340902404333333333333E3BF0000000000000F9010740901411070040501600405405064090741402480A1B50
1001
ACAD
1000
AcDbSavedByObjectVersion
1070
     0
  0
ACAD_PROXY_OBJECT
  5
38
102
{ACAD_REACTORS
330
2A
102
}
330
2A
100
AcDbProxyObject
 90
      499
 91
      501
 93
      444
310
42D31A5B995C185D1D195C9B90E409028333333333333E3BF0000000000000FB010790141107004050750841D405064090741402483A0350
1001
ACAD
1000
AcDbSavedByObjectVersion
1070
     0
  0
ACAD_PROXY_OBJECT
  5
33
102
{ACAD_REACTORS
330
2A
102
}
330
2A
100
AcDbProxyObject
 90
      499
 91
      501
 93
      420
310
425499585B1A5CDD1A58D08409028333333333333E3BF0000000000000FB01079019070040501508421405064090741402480A1B40
1001
ACAD
1000
AcDbSavedByObjectVersion
1070
     0
  0
ACAD_PROXY_OBJECT
  5
37
102
{ACAD_REACTORS
330
2A
102
}
330
2A
100
AcDbProxyObject
 90
      499
 91
      501
 93
      412
310
41D51A1A58DAD95B90D409028333333333333E3BF0000000000000FB010790141107004050150C41D405064090741402480A0350
1001
ACAD
1000
AcDbSavedByObjectVersion
1070
     0
  0
XRECORD
  5
12D
102
{ACAD_REACTORS
330
124
102
}
330
124
100
AcDbXrecord
 90
        0
  0
XRECORD
  5
143
102
{ACAD_REACTORS
330
124
102
}
330
124
100
AcDbXrecord
1000
DSTYLE
1002
{
1070
   340
340
11
1002
}
  0
XRECORD
  5
12E
102
{ACAD_REACTORS
330
124
102
}
330
124
100
AcDbXrecord
  1
{0A50F36D-509D-444C-9E64-D5B45D8C0E48}
  0
XRECORD
  5
127
102
{ACAD_REACTORS
330
124
102
}
330
124
100
AcDbXrecord
  1

  0
XRECORD
  5
12C
102
{ACAD_REACTORS
330
124
102
}
330
124
100
AcDbXrecord
 90
        4
  0
XRECORD
  5
129
102
{ACAD_REACTORS
330
124
102
}
330
124
100
AcDbXrecord
340
1A
  0
XRECORD
  5
12B
102
{ACAD_REACTORS
330
124
102
}
330
124
100
AcDbXrecord
 90
    10781
  0
XRECORD
  5
12A
102
{ACAD_REACTORS
330
124
102
}
330
124
100
AcDbXrecord
340
19
  0
XRECORD
  5
130
102
{ACAD_REACTORS
330
124
102
}
330
124
100
AcDbXrecord
 40
0.0
  0
XRECORD
  5
133
102
{ACAD_REACTORS
330
124
102
}
330
124
100
AcDbXrecord
340
0
  0
XRECORD
  5
139
102
{ACAD_REACTORS
330
124
102
}
330
124
100
AcDbXrecord
 10
0.0
 20
0.0
 30
0.0
  0
XRECORD
  5
135
102
{ACAD_REACTORS
330
124
102
}
330
124
100
AcDbXrecord
 10
0.0
 20
0.0
 30
0.0
  0
XRECORD
  5
138
102
{ACAD_REACTORS
330
124
102
}
330
124
100
AcDbXrecord
 10
0.0
 20
0.0
 30
0.0
  0
XRECORD
  5
136
102
{ACAD_REACTORS
330
124
102
}
330
124
100
AcDbXrecord
 10
0.0
 20
0.0
 30
0.0
  0
XRECORD
  5
137
102
{ACAD_REACTORS
330
124
102
}
330
124
100
AcDbXrecord
 10
0.0
 20
0.0
 30
0.0
  0
XRECORD
  5
134
102
{ACAD_REACTORS
330
124
102
}
330
124
100
AcDbXrecord
 10
0.0
 20
0.0
 30
0.0
  0
XRECORD
  5
131
102
{ACAD_REACTORS
330
124
102
}
330
124
100
AcDbXrecord
340
0
  0
XRECORD
  5
132
102
{ACAD_REACTORS
330
124
102
}
330
124
100
AcDbXrecord
 70
     0
  0
XRECORD
  5
128
102
{ACAD_REACTORS
330
124
102
}
330
124
100
AcDbXrecord
  1

  0
XRECORD
  5
125
102
{ACAD_REACTORS
330
124
102
}
330
124
100
AcDbXrecord
 90
        1
  0
XRECORD
  5
126
102
{ACAD_REACTORS
330
124
102
}
330
124
100
AcDbXrecord
 90
       70
  0
XRECORD
  5
13C
102
{ACAD_REACTORS
330
124
102
}
330
124
100
AcDbXrecord
340
0
  0
XRECORD
  5
142
102
{ACAD_REACTORS
330
124
102
}
330
124
100
AcDbXrecord
 10
0.0
 20
0.0
 30
0.0
  0
XRECORD
  5
13E
102
{ACAD_REACTORS
330
124
102
}
330
124
100
AcDbXrecord
 10
0.0
 20
0.0
 30
0.0
  0
XRECORD
  5
141
102
{ACAD_REACTORS
330
124
102
}
330
124
100
AcDbXrecord
 10
0.0
 20
0.0
 30
0.0
  0
XRECORD
  5
13F
102
{ACAD_REACTORS
330
124
102
}
330
124
100
AcDbXrecord
 10
0.0
 20
0.0
 30
0.0
  0
XRECORD
  5
140
102
{ACAD_REACTORS
330
124
102
}
330
124
100
AcDbXrecord
 10
0.0
 20
0.0
 30
0.0
  0
XRECORD
  5
13D
102
{ACAD_REACTORS
330
124
102
}
330
124
100
AcDbXrecord
 10
0.0
 20
0.0
 30
0.0
  0
XRECORD
  5
13A
102
{ACAD_REACTORS
330
124
102
}
330
124
100
AcDbXrecord
340
0
  0
XRECORD
  5
13B
102
{ACAD_REACTORS
330
124
102
}
330
124
100
AcDbXrecord
 70
     0
  0
XRECORD
  5
12F
102
{ACAD_REACTORS
330
124
102
}
330
124
100
AcDbXrecord
  1
{FAEB1C32-E019-11D5-929B-00C0DF256EC4}
  0
DICTIONARYVAR
  5
147
102
{ACAD_REACTORS
330
144
102
}
330
144
100
DictionaryVariables
280
     0
  1
2
  0
DICTIONARYVAR
  5
148
102
{ACAD_REACTORS
330
144
102
}
330
144
100
DictionaryVariables
280
     0
  1
1
  0
DICTIONARY
  5
14B
330
3D
100
AcDbDictionary
280
     1
  3
ACAD_XREC_ROUNDTRIP
360
14C
  0
DICTIONARY
  5
149
330
3C
100
AcDbDictionary
280
     1
  3
ACAD_XREC_ROUNDTRIP
360
14A
  0
DICTIONARY
  5
14D
330
3E
100
AcDbDictionary
280
     1
  3
ACAD_XREC_ROUNDTRIP
360
14E
  0
XRECORD
  5
14C
102
{ACAD_REACTORS
330
14B
102
}
330
14B
100
AcDbXrecord
102
MATERIAL
148
0.0
149
0.0
149
0.0
 93
        0
 94
      127
282
     0
 72
     1
 77
     1
171
     1
175
     1
179
     1
273
     0
  0
XRECORD
  5
14A
102
{ACAD_REACTORS
330
149
102
}
330
149
100
AcDbXrecord
102
MATERIAL
148
0.0
149
0.0
149
0.0
 93
        0
 94
      127
282
     0
 72
     1
 77
     1
171
     1
175
     1
179
     1
273
     0
  0
XRECORD
  5
14E
102
{ACAD_REACTORS
330
14D
102
}
330
14D
100
AcDbXrecord
102
MATERIAL
148
0.0
149
0.0
149
0.0
 93
        0
 94
      127
282
     0
 72
     1
 77
     1
171
     1
175
     1
179
     1
273
     0
  0
ENDSEC
  0
EOF
