  0
SECTION
  2
HEADER
  9
$ACADVER
  1
AC1014
  9
$ACADMAINTVER
 70
     9
  9
$DWGCODEPAGE
  3
ANSI_1250
  9
$INSBASE
 10
0.0
 20
0.0
 30
0.0
  9
$EXTMIN
 10
-16.0817
 20
-32.0639
 30
0.0
  9
$EXTMAX
 10
16.2228
 20
32.0636
 30
0.0
  9
$LIMMIN
 10
0.0
 20
0.0
  9
$LIMMAX
 10
12.0
 20
9.0
  9
$ORTHOMODE
 70
     0
  9
$REGENMODE
 70
     1
  9
$FILLMODE
 70
     1
  9
$QTEXTMODE
 70
     0
  9
$MIRRTEXT
 70
     1
  9
$DRAGMODE
 70
     2
  9
$LTSCALE
 40
1.0
  9
$OSMODE
 70
    37
  9
$ATTMODE
 70
     1
  9
$TEXTSIZE
 40
0.2
  9
$TRACEWID
 40
0.05
  9
$TEXTSTYLE
  7
STANDARD
  9
$CLAYER
  8
0
  9
$CELTYPE
  6
BYLAYER
  9
$CECOLOR
 62
   256
  9
$CELTSCALE
 40
1.0
  9
$DELOBJ
 70
     1
  9
$DISPSILH
 70
     0
  9
$DIMSCALE
 40
1.0
  9
$DIMASZ
 40
0.18
  9
$DIMEXO
 40
0.0625
  9
$DIMDLI
 40
0.38
  9
$DIMRND
 40
0.0
  9
$DIMDLE
 40
0.0
  9
$DIMEXE
 40
0.18
  9
$DIMTP
 40
0.0
  9
$DIMTM
 40
0.0
  9
$DIMTXT
 40
0.18
  9
$DIMCEN
 40
0.09
  9
$DIMTSZ
 40
0.0
  9
$DIMTOL
 70
     0
  9
$DIMLIM
 70
     0
  9
$DIMTIH
 70
     1
  9
$DIMTOH
 70
     1
  9
$DIMSE1
 70
     0
  9
$DIMSE2
 70
     0
  9
$DIMTAD
 70
     0
  9
$DIMZIN
 70
     0
  9
$DIMBLK
  1

  9
$DIMASO
 70
     1
  9
$DIMSHO
 70
     1
  9
$DIMPOST
  1

  9
$DIMAPOST
  1

  9
$DIMALT
 70
     0
  9
$DIMALTD
 70
     2
  9
$DIMALTF
 40
25.4
  9
$DIMLFAC
 40
1.0
  9
$DIMTOFL
 70
     0
  9
$DIMTVP
 40
0.0
  9
$DIMTIX
 70
     0
  9
$DIMSOXD
 70
     0
  9
$DIMSAH
 70
     0
  9
$DIMBLK1
  1

  9
$DIMBLK2
  1

  9
$DIMSTYLE
  2
STANDARD
  9
$DIMCLRD
 70
     0
  9
$DIMCLRE
 70
     0
  9
$DIMCLRT
 70
     0
  9
$DIMTFAC
 40
1.0
  9
$DIMGAP
 40
0.09
  9
$DIMJUST
 70
     0
  9
$DIMSD1
 70
     0
  9
$DIMSD2
 70
     0
  9
$DIMTOLJ
 70
     1
  9
$DIMTZIN
 70
     0
  9
$DIMALTZ
 70
     0
  9
$DIMALTTZ
 70
     0
  9
$DIMFIT
 70
     3
  9
$DIMUPT
 70
     0
  9
$DIMUNIT
 70
     2
  9
$DIMDEC
 70
     4
  9
$DIMTDEC
 70
     4
  9
$DIMALTU
 70
     2
  9
$DIMALTTD
 70
     2
  9
$DIMTXSTY
  7
STANDARD
  9
$DIMAUNIT
 70
     0
  9
$LUNITS
 70
     2
  9
$LUPREC
 70
     4
  9
$SKETCHINC
 40
0.1
  9
$FILLETRAD
 40
0.5
  9
$AUNITS
 70
     0
  9
$AUPREC
 70
     0
  9
$MENU
  1
.
  9
$ELEVATION
 40
0.0
  9
$PELEVATION
 40
0.0
  9
$THICKNESS
 40
0.0
  9
$LIMCHECK
 70
     0
  9
$CHAMFERA
 40
0.5
  9
$CHAMFERB
 40
0.5
  9
$CHAMFERC
 40
1.0
  9
$CHAMFERD
 40
0.0
  9
$SKPOLY
 70
     0
  9
$TDCREATE
 40
2456247.444347222
  9
$TDUPDATE
 40
2456247.444347234
  9
$TDINDWG
 40
0.0000000116
  9
$TDUSRTIMER
 40
0.0000000116
  9
$USRTIMER
 70
     1
  9
$ANGBASE
 50
0.0
  9
$ANGDIR
 70
     0
  9
$PDMODE
 70
     0
  9
$PDSIZE
 40
0.0
  9
$PLINEWID
 40
0.0
  9
$COORDS
 70
     1
  9
$SPLFRAME
 70
     0
  9
$SPLINETYPE
 70
     6
  9
$SPLINESEGS
 70
     8
  9
$ATTDIA
 70
     0
  9
$ATTREQ
 70
     1
  9
$HANDLING
 70
     1
  9
$HANDSEED
  5
D7
  9
$SURFTAB1
 70
     6
  9
$SURFTAB2
 70
     6
  9
$SURFTYPE
 70
     6
  9
$SURFU
 70
     6
  9
$SURFV
 70
     6
  9
$UCSNAME
  2

  9
$UCSORG
 10
0.0
 20
0.0
 30
0.0
  9
$UCSXDIR
 10
1.0
 20
0.0
 30
0.0
  9
$UCSYDIR
 10
0.0
 20
1.0
 30
0.0
  9
$PUCSNAME
  2

  9
$PUCSORG
 10
0.0
 20
0.0
 30
0.0
  9
$PUCSXDIR
 10
1.0
 20
0.0
 30
0.0
  9
$PUCSYDIR
 10
0.0
 20
1.0
 30
0.0
  9
$USERI1
 70
     0
  9
$USERI2
 70
     0
  9
$USERI3
 70
     0
  9
$USERI4
 70
     0
  9
$USERI5
 70
     0
  9
$USERR1
 40
0.0
  9
$USERR2
 40
0.0
  9
$USERR3
 40
0.0
  9
$USERR4
 40
0.0
  9
$USERR5
 40
0.0
  9
$WORLDVIEW
 70
     1
  9
$SHADEDGE
 70
     3
  9
$SHADEDIF
 70
    70
  9
$TILEMODE
 70
     1
  9
$MAXACTVP
 70
    64
  9
$PINSBASE
 10
0.0
 20
0.0
 30
0.0
  9
$PLIMCHECK
 70
     0
  9
$PEXTMIN
 10
1.000000000000000E+20
 20
1.000000000000000E+20
 30
1.000000000000000E+20
  9
$PEXTMAX
 10
-1.000000000000000E+20
 20
-1.000000000000000E+20
 30
-1.000000000000000E+20
  9
$PLIMMIN
 10
0.0
 20
0.0
  9
$PLIMMAX
 10
12.0
 20
9.0
  9
$UNITMODE
 70
     0
  9
$VISRETAIN
 70
     1
  9
$PLINEGEN
 70
     0
  9
$PSLTSCALE
 70
     1
  9
$TREEDEPTH
 70
  3020
  9
$PICKSTYLE
 70
     1
  9
$CMLSTYLE
  2
STANDARD
  9
$CMLJUST
 70
     0
  9
$CMLSCALE
 40
1.0
  9
$PROXYGRAPHICS
 70
     1
  9
$MEASUREMENT
 70
     0
  0
ENDSEC
  0
SECTION
  2
CLASSES
  0
CLASS
  1
ACDBDICTIONARYWDFLT
  2
AcDbDictionaryWithDefault
  3
ObjectDBX Classes
 90
        0
280
     0
281
     0
  0
CLASS
  1
VISUALSTYLE
  2
AcDbVisualStyle
  3
ObjectDBX Classes
 90
     4095
280
     0
281
     0
  0
CLASS
  1
MATERIAL
  2
AcDbMaterial
  3
ObjectDBX Classes
 90
     1153
280
     0
281
     0
  0
CLASS
  1
DICTIONARYVAR
  2
AcDbDictionaryVar
  3
ObjectDBX Classes
 90
        0
280
     0
281
     0
  0
CLASS
  1
XRECORD
  2
AcDbXrecord
  3
AutoCAD 2000
 90
        0
280
     0
281
     0
  0
CLASS
  1
LWPOLYLINE
  2
AcDbPolyline
  3
AutoCAD 2000
 90
        0
280
     0
281
     1
  0
CLASS
  1
HATCH
  2
AcDbHatch
  3
AutoCAD 2000
 90
        0
280
     0
281
     1
  0
CLASS
  1
ACDBPLACEHOLDER
  2
AcDbPlaceHolder
  3
ObjectDBX Classes
 90
        0
280
     0
281
     0
  0
CLASS
  1
LAYOUT
  2
AcDbLayout
  3
ObjectDBX Classes
 90
        0
280
     0
281
     0
  0
ENDSEC
  0
SECTION
  2
TABLES
  0
TABLE
  2
VPORT
  5
8
330
0
100
AcDbSymbolTable
 70
     1
  0
VPORT
  5
29
330
8
100
AcDbSymbolTableRecord
100
AcDbViewportTableRecord
  2
*ACTIVE
 70
     0
 10
0.0
 20
0.0
 11
1.0
 21
1.0
 12
10.42990654205607
 22
4.5
 13
0.0
 23
0.0
 14
0.5
 24
0.5
 15
0.5
 25
0.5
 16
0.0
 26
0.0
 36
1.0
 17
0.0
 27
0.0
 37
0.0
 40
9.0
 41
1.972972972850329
 42
50.0
 43
0.0
 44
0.0
 50
0.0
 51
0.0
 71
     0
 72
   100
 73
     1
 74
     3
 75
     0
 76
     0
 77
     0
 78
     0
  0
ENDTAB
  0
TABLE
  2
LTYPE
  5
5
330
0
100
AcDbSymbolTable
 70
     2
  0
LTYPE
  5
14
330
5
100
AcDbSymbolTableRecord
100
AcDbLinetypeTableRecord
  2
BYBLOCK
 70
     0
  3

 72
    65
 73
     0
 40
0.0
  0
LTYPE
  5
15
330
5
100
AcDbSymbolTableRecord
100
AcDbLinetypeTableRecord
  2
BYLAYER
 70
     0
  3

 72
    65
 73
     0
 40
0.0
  0
LTYPE
  5
16
330
5
100
AcDbSymbolTableRecord
100
AcDbLinetypeTableRecord
  2
CONTINUOUS
 70
     0
  3
Solid line
 72
    65
 73
     0
 40
0.0
  0
LTYPE
  5
50
330
5
100
AcDbSymbolTableRecord
100
AcDbLinetypeTableRecord
  2
NEW_LINE1
 70
     0
  3

 72
    65
 73
     4
 40
1.2
 49
0.5
 74
     4
 75
     0
340
0
 46
1.0
 50
0.0
 44
0.0
 45
0.0
 49
-0.3
 74
     4
 75
     0
340
0
 46
1.0
 50
0.0
 44
0.0
 45
0.0
 49
0.1
 74
     4
 75
     0
340
0
 46
1.0
 50
0.0
 44
0.0
 45
0.0
 49
-0.3
 74
     4
 75
     0
340
0
 46
1.0
 50
0.0
 44
0.0
 45
0.0
  0
ENDTAB
  0
TABLE
  2
LAYER
  5
2
330
0
100
AcDbSymbolTable
 70
     2
  0
LAYER
  5
10
330
2
100
AcDbSymbolTableRecord
100
AcDbLayerTableRecord
  2
0
 70
     0
 62
     7
  6
CONTINUOUS
  0
LAYER
  5
40
330
2
100
AcDbSymbolTableRecord
100
AcDbLayerTableRecord
  2
DEFAULT_1
 70
     0
 62
     7
  6
CONTINUOUS
  0
ENDTAB
  0
TABLE
  2
STYLE
  5
3
330
0
100
AcDbSymbolTable
 70
     1
  0
STYLE
  5
11
330
3
100
AcDbSymbolTableRecord
100
AcDbTextStyleTableRecord
  2
STANDARD
 70
     0
 40
0.0
 41
1.0
 50
0.0
 71
     0
 42
0.2
  3
txt
  4

  0
ENDTAB
  0
TABLE
  2
VIEW
  5
6
330
0
100
AcDbSymbolTable
 70
     0
  0
ENDTAB
  0
TABLE
  2
UCS
  5
7
330
0
100
AcDbSymbolTable
 70
     0
  0
ENDTAB
  0
TABLE
  2
APPID
  5
9
330
0
100
AcDbSymbolTable
 70
     2
  0
APPID
  5
12
330
9
100
AcDbSymbolTableRecord
100
AcDbRegAppTableRecord
  2
ACAD
 70
     0
  0
APPID
  5
3F
330
9
100
AcDbSymbolTableRecord
100
AcDbRegAppTableRecord
  2
ODA
 70
     0
  0
ENDTAB
  0
TABLE
  2
DIMSTYLE
  5
A
330
0
100
AcDbSymbolTable
 70
     1
  0
DIMSTYLE
105
27
330
A
100
AcDbSymbolTableRecord
100
AcDbDimStyleTableRecord
  2
STANDARD
 70
     0
  3

  4

  5

  6

  7

 40
1.0
 41
0.18
 42
0.0625
 43
0.38
 44
0.18
 45
0.0
 46
0.0
 47
0.0
 48
0.0
140
0.18
141
0.09
142
0.0
143
25.4
144
1.0
145
0.0
146
1.0
147
0.09
 71
     0
 72
     0
 73
     1
 74
     1
 75
     0
 76
     0
 77
     0
 78
     0
170
     0
171
     2
172
     0
173
     0
174
     0
175
     0
176
     0
177
     0
178
     0
270
     2
271
     4
272
     4
273
     2
274
     2
340
11
275
     0
280
     0
281
     0
282
     0
283
     1
284
     0
285
     0
286
     0
287
     3
288
     0
  0
ENDTAB
  0
TABLE
  2
BLOCK_RECORD
  5
1
330
0
100
AcDbSymbolTable
 70
     1
  0
BLOCK_RECORD
  5
1F
330
1
100
AcDbSymbolTableRecord
100
AcDbBlockTableRecord
  2
*MODEL_SPACE
  0
BLOCK_RECORD
  5
1B
330
1
100
AcDbSymbolTableRecord
100
AcDbBlockTableRecord
  2
*PAPER_SPACE
  0
ENDTAB
  0
ENDSEC
  0
SECTION
  2
BLOCKS
  0
BLOCK
  5
20
330
1F
100
AcDbEntity
  8
0
100
AcDbBlockBegin
  2
*MODEL_SPACE
 70
     0
 10
0.0
 20
0.0
 30
0.0
  3
*MODEL_SPACE
  1

  0
ENDBLK
  5
21
330
1F
100
AcDbEntity
  8
0
100
AcDbBlockEnd
  0
BLOCK
  5
1C
330
1B
100
AcDbEntity
 67
     1
  8
0
100
AcDbBlockBegin
  2
*PAPER_SPACE
 70
     0
 10
0.0
 20
0.0
 30
0.0
  3
*PAPER_SPACE
  1

  0
ENDBLK
  5
1D
330
1B
100
AcDbEntity
 67
     1
  8
0
100
AcDbBlockEnd
  0
ENDSEC
  0
SECTION
  2
ENTITIES
  0
SPLINE
  5
41
330
1F
100
AcDbEntity
  8
DEFAULT_1
 62
   250
100
AcDbSpline
210
0.0
220
0.0
230
1.0
 70
    24
 71
     3
 72
     8
 73
     4
 74
     0
 42
0.0000000001
 43
0.0000000001
 40
0.0
 40
0.0
 40
0.0
 40
0.0
 40
1.0
 40
1.0
 40
1.0
 40
1.0
 10
-3.2782
 20
-21.8047
 30
0.0
 10
-3.2782
 20
-21.8047
 30
0.0
 10
-3.2782
 20
-27.1675
 30
0.0
 10
-3.2782
 20
-27.1675
 30
0.0
  0
SPLINE
  5
42
330
1F
100
AcDbEntity
  8
DEFAULT_1
 62
   250
100
AcDbSpline
210
0.0
220
0.0
230
1.0
 70
    24
 71
     3
 72
     8
 73
     4
 74
     0
 42
0.0000000001
 43
0.0000000001
 40
0.0
 40
0.0
 40
0.0
 40
0.0
 40
1.0
 40
1.0
 40
1.0
 40
1.0
 10
12.1373
 20
-21.9452
 30
0.0
 10
12.1373
 20
-21.9452
 30
0.0
 10
12.1373
 20
-27.1675
 30
0.0
 10
12.1373
 20
-27.1675
 30
0.0
  0
SPLINE
  5
43
330
1F
100
AcDbEntity
  8
DEFAULT_1
 62
   250
100
AcDbSpline
210
0.0
220
0.0
230
1.0
 70
    24
 71
     3
 72
     8
 73
     4
 74
     0
 42
0.0000000001
 43
0.0000000001
 40
0.0
 40
0.0
 40
0.0
 40
0.0
 40
1.0
 40
1.0
 40
1.0
 40
1.0
 10
-3.0111
 20
-26.4143
 30
0.0
 10
-3.0111
 20
-26.4143
 30
0.0
 10
11.9606
 20
-26.4143
 30
0.0
 10
11.9606
 20
-26.4143
 30
0.0
  0
SPLINE
  5
44
330
1F
100
AcDbEntity
  8
DEFAULT_1
 62
   250
100
AcDbSpline
210
0.0
220
0.0
230
1.0
 70
    24
 71
     3
 72
     8
 73
     4
 74
     0
 42
0.0000000001
 43
0.0000000001
 40
0.0
 40
0.0
 40
0.0
 40
0.0
 40
1.0
 40
1.0
 40
1.0
 40
1.0
 10
-3.7417
 20
-21.2943
 30
0.0
 10
-3.7417
 20
-21.2943
 30
0.0
 10
-13.8638
 20
-21.2943
 30
0.0
 10
-13.8638
 20
-21.2943
 30
0.0
  0
SPLINE
  5
45
330
1F
100
AcDbEntity
  8
DEFAULT_1
 62
   250
100
AcDbSpline
210
0.0
220
0.0
230
1.0
 70
    24
 71
     3
 72
     8
 73
     4
 74
     0
 42
0.0000000001
 43
0.0000000001
 40
0.0
 40
0.0
 40
0.0
 40
0.0
 40
1.0
 40
1.0
 40
1.0
 40
1.0
 10
-4.356
 20
-17.1311
 30
0.0
 10
-4.356
 20
-17.1311
 30
0.0
 10
-8.2175
 20
-17.1311
 30
0.0
 10
-8.2175
 20
-17.1311
 30
0.0
  0
SPLINE
  5
46
330
1F
100
AcDbEntity
  8
DEFAULT_1
 62
   250
100
AcDbSpline
210
0.0
220
0.0
230
1.0
 70
    24
 71
     3
 72
     8
 73
     4
 74
     0
 42
0.0000000001
 43
0.0000000001
 40
0.0
 40
0.0
 40
0.0
 40
0.0
 40
1.0
 40
1.0
 40
1.0
 40
1.0
 10
-7.7167
 20
-25.5937
 30
0.0
 10
-7.7167
 20
-25.5937
 30
0.0
 10
-7.7167
 20
-12.5834
 30
0.0
 10
-7.7167
 20
-12.5834
 30
0.0
  0
SPLINE
  5
47
330
1F
100
AcDbEntity
  8
DEFAULT_1
 62
   250
100
AcDbSpline
210
0.0
220
0.0
230
1.0
 70
    24
 71
     3
 72
     8
 73
     4
 74
     0
 42
0.0000000001
 43
0.0000000001
 40
0.0
 40
0.0
 40
0.0
 40
0.0
 40
1.0
 40
1.0
 40
1.0
 40
1.0
 10
-7.8829
 20
4.8099
 30
0.0
 10
-7.8829
 20
4.8099
 30
0.0
 10
-13.6662
 20
4.8099
 30
0.0
 10
-13.6662
 20
4.8099
 30
0.0
  0
SPLINE
  5
48
330
1F
100
AcDbEntity
  8
DEFAULT_1
 62
   250
100
AcDbSpline
210
0.0
220
0.0
230
1.0
 70
    24
 71
     3
 72
     8
 73
     4
 74
     0
 42
0.0000000001
 43
0.0000000001
 40
0.0
 40
0.0
 40
0.0
 40
0.0
 40
1.0
 40
1.0
 40
1.0
 40
1.0
 10
-12.9995
 20
-21.0773
 30
0.0
 10
-12.9995
 20
-21.0773
 30
0.0
 10
-12.9995
 20
5.1843
 30
0.0
 10
-12.9995
 20
5.1843
 30
0.0
  0
SPLINE
  5
49
330
1F
100
AcDbEntity
  8
DEFAULT_1
 62
   250
100
AcDbSpline
210
0.0
220
0.0
230
1.0
 70
    24
 71
     3
 72
     8
 73
     4
 74
     0
 42
0.0000000001
 43
0.0000000001
 40
0.0
 40
0.0
 40
0.0
 40
0.0
 40
1.0
 40
1.0
 40
1.0
 40
1.0
 10
-12.9994
 20
16.3835
 30
0.0
 10
-12.9994
 20
16.3835
 30
0.0
 10
-12.9994
 20
5.1843
 30
0.0
 10
-12.9994
 20
5.1843
 30
0.0
  0
SPLINE
  5
4A
330
1F
100
AcDbEntity
  8
DEFAULT_1
 62
   250
100
AcDbSpline
210
0.0
220
0.0
230
1.0
 70
    24
 71
     3
 72
     8
 73
     4
 74
     0
 42
0.0000000001
 43
0.0000000001
 40
0.0
 40
0.0
 40
0.0
 40
0.0
 40
1.0
 40
1.0
 40
1.0
 40
1.0
 10
-8.4637
 20
16.7988
 30
0.0
 10
-8.4637
 20
16.7988
 30
0.0
 10
-13.4761
 20
16.7988
 30
0.0
 10
-13.4761
 20
16.7988
 30
0.0
  0
SPLINE
  5
4B
330
1F
100
AcDbEntity
  8
DEFAULT_1
 62
   250
100
AcDbSpline
210
0.0
220
0.0
230
1.0
 70
    24
 71
     3
 72
     8
 73
     4
 74
     0
 42
0.0000000001
 43
0.0000000001
 40
0.0
 40
0.0
 40
0.0
 40
0.0
 40
1.0
 40
1.0
 40
1.0
 40
1.0
 10
-12.9986
 20
15.3525
 30
0.0
 10
-12.9986
 20
15.3525
 30
0.0
 10
-12.9986
 20
16.367
 30
0.0
 10
-12.9986
 20
16.367
 30
0.0
  0
SPLINE
  5
4C
330
1F
100
AcDbEntity
  8
DEFAULT_1
 62
   250
100
AcDbSpline
210
0.0
220
0.0
230
1.0
 70
    24
 71
     3
 72
     8
 73
     4
 74
     0
 42
0.0000000001
 43
0.0000000001
 40
0.0
 40
0.0
 40
0.0
 40
0.0
 40
1.0
 40
1.0
 40
1.0
 40
1.0
 10
-4.1326
 20
-18.0416
 30
0.0
 10
-4.1326
 20
-18.0416
 30
0.0
 10
-4.1326
 20
-31.9625
 30
0.0
 10
-4.1326
 20
-31.9625
 30
0.0
  0
SPLINE
  5
4D
330
1F
100
AcDbEntity
  8
DEFAULT_1
 62
   250
100
AcDbSpline
210
0.0
220
0.0
230
1.0
 70
    24
 71
     3
 72
     8
 73
     4
 74
     0
 42
0.0000000001
 43
0.0000000001
 40
0.0
 40
0.0
 40
0.0
 40
0.0
 40
1.0
 40
1.0
 40
1.0
 40
1.0
 10
12.9646
 20
-17.7888
 30
0.0
 10
12.9646
 20
-17.7888
 30
0.0
 10
12.9646
 20
-32.0639
 30
0.0
 10
12.9646
 20
-32.0639
 30
0.0
  0
SPLINE
  5
4E
330
1F
100
AcDbEntity
  8
DEFAULT_1
 62
   250
100
AcDbSpline
210
0.0
220
0.0
230
1.0
 70
    24
 71
     3
 72
     8
 73
     4
 74
     0
 42
0.0000000001
 43
0.0000000001
 40
0.0
 40
0.0
 40
0.0
 40
0.0
 40
1.0
 40
1.0
 40
1.0
 40
1.0
 10
-3.3836
 20
-31.3461
 30
0.0
 10
-3.3836
 20
-31.3461
 30
0.0
 10
12.0877
 20
-31.3461
 30
0.0
 10
12.0877
 20
-31.3461
 30
0.0
  0
SPLINE
  5
4F
330
1F
100
AcDbEntity
  8
DEFAULT_1
  6
NEW_LINE1
 62
   250
100
AcDbSpline
210
0.0
220
0.0
230
1.0
 70
    24
 71
     3
 72
     8
 73
     4
 74
     0
 42
0.0000000001
 43
0.0000000001
 40
0.0
 40
0.0
 40
0.0
 40
0.0
 40
1.0
 40
1.0
 40
1.0
 40
1.0
 10
4.4299
 20
-21.8991
 30
0.0
 10
4.4299
 20
-21.8991
 30
0.0
 10
4.4299
 20
22.3638
 30
0.0
 10
4.4299
 20
22.3638
 30
0.0
  0
SPLINE
  5
51
330
1F
100
AcDbEntity
  8
DEFAULT_1
 62
   250
100
AcDbSpline
210
0.0
220
0.0
230
1.0
 70
    24
 71
     3
 72
     8
 73
     4
 74
     0
 42
0.0000000001
 43
0.0000000001
 40
0.0
 40
0.0
 40
0.0
 40
0.0
 40
1.0
 40
1.0
 40
1.0
 40
1.0
 10
11.3506
 20
21.3364
 30
0.0
 10
11.3506
 20
21.3364
 30
0.0
 10
11.3506
 20
25.2492
 30
0.0
 10
11.3506
 20
25.2492
 30
0.0
  0
SPLINE
  5
52
330
1F
100
AcDbEntity
  8
DEFAULT_1
 62
   250
100
AcDbSpline
210
0.0
220
0.0
230
1.0
 70
    24
 71
     3
 72
     8
 73
     4
 74
     0
 42
0.0000000001
 43
0.0000000001
 40
0.0
 40
0.0
 40
0.0
 40
0.0
 40
1.0
 40
1.0
 40
1.0
 40
1.0
 10
-2.5913
 20
21.091
 30
0.0
 10
-2.5913
 20
21.091
 30
0.0
 10
-2.5913
 20
25.1394
 30
0.0
 10
-2.5913
 20
25.1394
 30
0.0
  0
SPLINE
  5
53
330
1F
100
AcDbEntity
  8
DEFAULT_1
 62
   250
100
AcDbSpline
210
0.0
220
0.0
230
1.0
 70
    24
 71
     3
 72
     8
 73
     4
 74
     0
 42
0.0000000001
 43
0.0000000001
 40
0.0
 40
0.0
 40
0.0
 40
0.0
 40
1.0
 40
1.0
 40
1.0
 40
1.0
 10
-2.0916
 20
24.7887
 30
0.0
 10
-2.0916
 20
24.7887
 30
0.0
 10
10.2211
 20
24.7887
 30
0.0
 10
10.2211
 20
24.7887
 30
0.0
  0
SPLINE
  5
54
330
1F
100
AcDbEntity
  8
DEFAULT_1
 62
   250
100
AcDbSpline
210
0.0
220
0.0
230
1.0
 70
    11
 71
     3
 72
    48
 73
    44
 74
     0
 42
0.0000000001
 43
0.0000000001
 40
0.0
 40
0.0
 40
0.0
 40
0.0
 40
0.0833333333333333
 40
0.0833333333333333
 40
0.0833333333333333
 40
0.0833333333333333
 40
0.1666666666666667
 40
0.1666666666666667
 40
0.1666666666666667
 40
0.1666666666666667
 40
0.25
 40
0.25
 40
0.25
 40
0.25
 40
0.3333333333333333
 40
0.3333333333333333
 40
0.3333333333333333
 40
0.3333333333333333
 40
0.4166666666666667
 40
0.4166666666666667
 40
0.4166666666666667
 40
0.4166666666666667
 40
0.5
 40
0.5
 40
0.5
 40
0.5
 40
0.5833333333333334
 40
0.5833333333333334
 40
0.5833333333333334
 40
0.5833333333333334
 40
0.6666666666666666
 40
0.6666666666666666
 40
0.6666666666666666
 40
0.6666666666666666
 40
0.75
 40
0.75
 40
0.75
 40
0.75
 40
0.8333333333333334
 40
0.8333333333333334
 40
0.8333333333333334
 40
0.8333333333333334
 40
1.0
 40
1.0
 40
1.0
 40
1.0
 10
-1.9319
 20
18.9887
 30
0.0
 10
-1.9319
 20
18.9887
 30
0.0
 10
-2.802
 20
19.1302
 30
0.0
 10
-2.802
 20
19.1302
 30
0.0
 10
-2.802
 20
19.1302
 30
0.0
 10
-2.802
 20
19.1302
 30
0.0
 10
-2.8875
 20
19.2328
 30
0.0
 10
-2.8875
 20
19.2328
 30
0.0
 10
-2.8875
 20
19.2328
 30
0.0
 10
-2.8875
 20
19.2328
 30
0.0
 10
-2.8704
 20
19.3525
 30
0.0
 10
-2.8704
 20
19.3525
 30
0.0
 10
-2.8704
 20
19.3525
 30
0.0
 10
-2.8704
 20
19.3525
 30
0.0
 10
-2.7678
 20
19.4209
 30
0.0
 10
-2.7678
 20
19.4209
 30
0.0
 10
-2.7678
 20
19.4209
 30
0.0
 10
-2.7678
 20
19.4209
 30
0.0
 10
-1.8957
 20
19.5235
 30
0.0
 10
-1.8957
 20
19.5235
 30
0.0
 10
-1.8957
 20
19.5235
 30
0.0
 10
-1.8957
 20
19.5235
 30
0.0
 10
10.7241
 20
19.5235
 30
0.0
 10
10.7241
 20
19.5235
 30
0.0
 10
10.7241
 20
19.5235
 30
0.0
 10
10.7241
 20
19.5235
 30
0.0
 10
11.6304
 20
19.3867
 30
0.0
 10
11.6304
 20
19.3867
 30
0.0
 10
11.6304
 20
19.3867
 30
0.0
 10
11.6304
 20
19.3867
 30
0.0
 10
11.6817
 20
19.267
 30
0.0
 10
11.6817
 20
19.267
 30
0.0
 10
11.6817
 20
19.267
 30
0.0
 10
11.6817
 20
19.267
 30
0.0
 10
11.6304
 20
19.1302
 30
0.0
 10
11.6304
 20
19.1302
 30
0.0
 10
11.6304
 20
19.1302
 30
0.0
 10
11.6304
 20
19.1302
 30
0.0
 10
10.7018
 20
18.9887
 30
0.0
 10
10.7018
 20
18.9887
 30
0.0
 10
10.7018
 20
18.9887
 30
0.0
 10
10.7018
 20
18.9887
 30
0.0
 10
-1.9319
 20
18.9887
 30
0.0
 10
-1.9319
 20
18.9887
 30
0.0
  0
SPLINE
  5
55
330
1F
100
AcDbEntity
  8
DEFAULT_1
 62
   250
100
AcDbSpline
210
0.0
220
0.0
230
1.0
 70
    11
 71
     3
 72
    84
 73
    80
 74
     0
 42
0.0000000001
 43
0.0000000001
 40
0.0
 40
0.0
 40
0.0
 40
0.0
 40
0.0476190476190476
 40
0.0476190476190476
 40
0.0476190476190476
 40
0.0476190476190476
 40
0.0952380952380952
 40
0.0952380952380952
 40
0.0952380952380952
 40
0.0952380952380952
 40
0.1428571428571428
 40
0.1428571428571428
 40
0.1428571428571428
 40
0.1428571428571428
 40
0.1904761904761905
 40
0.1904761904761905
 40
0.1904761904761905
 40
0.1904761904761905
 40
0.2380952380952381
 40
0.2380952380952381
 40
0.2380952380952381
 40
0.2380952380952381
 40
0.2857142857142857
 40
0.2857142857142857
 40
0.2857142857142857
 40
0.2857142857142857
 40
0.3333333333333333
 40
0.3333333333333333
 40
0.3333333333333333
 40
0.3333333333333333
 40
0.3809523809523809
 40
0.3809523809523809
 40
0.3809523809523809
 40
0.3809523809523809
 40
0.4285714285714285
 40
0.4285714285714285
 40
0.4285714285714285
 40
0.4285714285714285
 40
0.4761904761904762
 40
0.4761904761904762
 40
0.4761904761904762
 40
0.4761904761904762
 40
0.5238095238095238
 40
0.5238095238095238
 40
0.5238095238095238
 40
0.5238095238095238
 40
0.5714285714285714
 40
0.5714285714285714
 40
0.5714285714285714
 40
0.5714285714285714
 40
0.6190476190476191
 40
0.6190476190476191
 40
0.6190476190476191
 40
0.6190476190476191
 40
0.6666666666666666
 40
0.6666666666666666
 40
0.6666666666666666
 40
0.6666666666666666
 40
0.7142857142857143
 40
0.7142857142857143
 40
0.7142857142857143
 40
0.7142857142857143
 40
0.7619047619047619
 40
0.7619047619047619
 40
0.7619047619047619
 40
0.7619047619047619
 40
0.8095238095238095
 40
0.8095238095238095
 40
0.8095238095238095
 40
0.8095238095238095
 40
0.8571428571428571
 40
0.8571428571428571
 40
0.8571428571428571
 40
0.8571428571428571
 40
0.9047619047619048
 40
0.9047619047619048
 40
0.9047619047619048
 40
0.9047619047619048
 40
1.0
 40
1.0
 40
1.0
 40
1.0
 10
3.4661
 20
31.8045
 30
0.0
 10
3.4661
 20
31.8045
 30
0.0
 10
3.6975
 20
32.0636
 30
0.0
 10
3.6975
 20
32.0636
 30
0.0
 10
3.6975
 20
32.0636
 30
0.0
 10
3.6975
 20
32.0636
 30
0.0
 10
3.8339
 20
31.9479
 30
0.0
 10
3.8339
 20
31.9479
 30
0.0
 10
3.8339
 20
31.9479
 30
0.0
 10
3.8339
 20
31.9479
 30
0.0
 10
3.5917
 20
31.6751
 30
0.0
 10
3.5917
 20
31.6751
 30
0.0
 10
3.5917
 20
31.6751
 30
0.0
 10
3.6707
 20
31.5575
 30
0.0
 10
3.7238
 20
31.4545
 30
0.0
 10
3.7516
 20
31.3666
 30
0.0
 10
3.7516
 20
31.3666
 30
0.0
 10
3.7883
 20
31.2508
 30
0.0
 10
3.8066
 20
31.121
 30
0.0
 10
3.8066
 20
30.978
 30
0.0
 10
3.8066
 20
30.978
 30
0.0
 10
3.8066
 20
30.7711
 30
0.0
 10
3.7648
 20
30.5867
 30
0.0
 10
3.681
 20
30.4254
 30
0.0
 10
3.681
 20
30.4254
 30
0.0
 10
3.5973
 20
30.2635
 30
0.0
 10
3.4802
 20
30.1413
 30
0.0
 10
3.3292
 20
30.0585
 30
0.0
 10
3.3292
 20
30.0585
 30
0.0
 10
3.1777
 20
29.9762
 30
0.0
 10
3.0174
 20
29.9348
 30
0.0
 10
2.8476
 20
29.9348
 30
0.0
 10
2.8476
 20
29.9348
 30
0.0
 10
2.7206
 20
29.9348
 30
0.0
 10
2.6058
 20
29.9526
 30
0.0
 10
2.5028
 20
29.9884
 30
0.0
 10
2.5028
 20
29.9884
 30
0.0
 10
2.4238
 20
30.0161
 30
0.0
 10
2.3316
 20
30.0688
 30
0.0
 10
2.2257
 20
30.1469
 30
0.0
 10
2.2257
 20
30.1469
 30
0.0
 10
2.2257
 20
30.1469
 30
0.0
 10
1.9943
 20
29.8877
 30
0.0
 10
1.9943
 20
29.8877
 30
0.0
 10
1.9943
 20
29.8877
 30
0.0
 10
1.9943
 20
29.8877
 30
0.0
 10
1.8579
 20
30.0034
 30
0.0
 10
1.8579
 20
30.0034
 30
0.0
 10
1.8579
 20
30.0034
 30
0.0
 10
1.8579
 20
30.0034
 30
0.0
 10
2.1006
 20
30.2748
 30
0.0
 10
2.1006
 20
30.2748
 30
0.0
 10
2.1006
 20
30.2748
 30
0.0
 10
2.0103
 20
30.4117
 30
0.0
 10
1.9501
 20
30.5288
 30
0.0
 10
1.92
 20
30.6257
 30
0.0
 10
1.92
 20
30.6257
 30
0.0
 10
1.8899
 20
30.7226
 30
0.0
 10
1.8744
 20
30.8393
 30
0.0
 10
1.8744
 20
30.9752
 30
0.0
 10
1.8744
 20
30.9752
 30
0.0
 10
1.8744
 20
31.1826
 30
0.0
 10
1.9158
 20
31.3675
 30
0.0
 10
1.9985
 20
31.5298
 30
0.0
 10
1.9985
 20
31.5298
 30
0.0
 10
2.0813
 20
31.6921
 30
0.0
 10
2.197
 20
31.8148
 30
0.0
 10
2.3466
 20
31.8985
 30
0.0
 10
2.3466
 20
31.8985
 30
0.0
 10
2.4957
 20
31.9818
 30
0.0
 10
2.6618
 20
32.0237
 30
0.0
 10
2.8447
 20
32.0237
 30
0.0
 10
2.8447
 20
32.0237
 30
0.0
 10
2.968
 20
32.0237
 30
0.0
 10
3.0757
 20
32.0077
 30
0.0
 10
3.1679
 20
31.9747
 30
0.0
 10
3.1679
 20
31.9747
 30
0.0
 10
3.2601
 20
31.9423
 30
0.0
 10
3.3598
 20
31.8854
 30
0.0
 10
3.4661
 20
31.8045
 30
0.0
  0
SPLINE
  5
56
330
1F
100
AcDbEntity
  8
DEFAULT_1
 62
   250
100
AcDbSpline
210
0.0
220
0.0
230
1.0
 70
    11
 71
     3
 72
    32
 73
    28
 74
     0
 42
0.0000000001
 43
0.0000000001
 40
0.0
 40
0.0
 40
0.0
 40
0.0
 40
0.125
 40
0.125
 40
0.125
 40
0.125
 40
0.25
 40
0.25
 40
0.25
 40
0.25
 40
0.375
 40
0.375
 40
0.375
 40
0.375
 40
0.5
 40
0.5
 40
0.5
 40
0.5
 40
0.625
 40
0.625
 40
0.625
 40
0.625
 40
0.75
 40
0.75
 40
0.75
 40
0.75
 40
1.0
 40
1.0
 40
1.0
 40
1.0
 10
3.301
 20
31.6187
 30
0.0
 10
3.2144
 20
31.6864
 30
0.0
 10
3.1387
 20
31.733
 30
0.0
 10
3.0743
 20
31.7579
 30
0.0
 10
3.0743
 20
31.7579
 30
0.0
 10
3.0094
 20
31.7824
 30
0.0
 10
2.9332
 20
31.7951
 30
0.0
 10
2.8461
 20
31.7951
 30
0.0
 10
2.8461
 20
31.7951
 30
0.0
 10
2.6448
 20
31.7951
 30
0.0
 10
2.4788
 20
31.7269
 30
0.0
 10
2.3471
 20
31.5905
 30
0.0
 10
2.3471
 20
31.5905
 30
0.0
 10
2.2158
 20
31.454
 30
0.0
 10
2.15
 20
31.2504
 30
0.0
 10
2.15
 20
30.979
 30
0.0
 10
2.15
 20
30.979
 30
0.0
 10
2.15
 20
30.8727
 30
0.0
 10
2.1603
 20
30.7781
 30
0.0
 10
2.1806
 20
30.6953
 30
0.0
 10
2.1806
 20
30.6953
 30
0.0
 10
2.1952
 20
30.6337
 30
0.0
 10
2.2257
 20
30.558
 30
0.0
 10
2.2728
 20
30.4682
 30
0.0
 10
2.2728
 20
30.4682
 30
0.0
 10
2.2728
 20
30.4682
 30
0.0
 10
3.301
 20
31.6187
 30
0.0
 10
3.301
 20
31.6187
 30
0.0
  0
SPLINE
  5
57
330
1F
100
AcDbEntity
  8
DEFAULT_1
 62
   250
100
AcDbSpline
210
0.0
220
0.0
230
1.0
 70
    11
 71
     3
 72
    28
 73
    24
 74
     0
 42
0.0000000001
 43
0.0000000001
 40
0.0
 40
0.0
 40
0.0
 40
0.0
 40
0.1428571428571428
 40
0.1428571428571428
 40
0.1428571428571428
 40
0.1428571428571428
 40
0.2857142857142857
 40
0.2857142857142857
 40
0.2857142857142857
 40
0.2857142857142857
 40
0.4285714285714285
 40
0.4285714285714285
 40
0.4285714285714285
 40
0.4285714285714285
 40
0.5714285714285714
 40
0.5714285714285714
 40
0.5714285714285714
 40
0.5714285714285714
 40
0.7142857142857143
 40
0.7142857142857143
 40
0.7142857142857143
 40
0.7142857142857143
 40
1.0
 40
1.0
 40
1.0
 40
1.0
 10
3.4139
 20
31.4766
 30
0.0
 10
3.4139
 20
31.4766
 30
0.0
 10
2.3899
 20
30.3303
 30
0.0
 10
2.3899
 20
30.3303
 30
0.0
 10
2.3899
 20
30.3303
 30
0.0
 10
2.4604
 20
30.2725
 30
0.0
 10
2.5258
 20
30.232
 30
0.0
 10
2.5856
 20
30.209
 30
0.0
 10
2.5856
 20
30.209
 30
0.0
 10
2.6636
 20
30.1784
 30
0.0
 10
2.7483
 20
30.1634
 30
0.0
 10
2.8391
 20
30.1634
 30
0.0
 10
2.8391
 20
30.1634
 30
0.0
 10
3.0395
 20
30.1634
 30
0.0
 10
3.2046
 20
30.2339
 30
0.0
 10
3.3353
 20
30.3755
 30
0.0
 10
3.3353
 20
30.3755
 30
0.0
 10
3.4656
 20
30.5171
 30
0.0
 10
3.531
 20
30.7156
 30
0.0
 10
3.531
 20
30.971
 30
0.0
 10
3.531
 20
30.971
 30
0.0
 10
3.531
 20
31.1619
 30
0.0
 10
3.492
 20
31.3308
 30
0.0
 10
3.4139
 20
31.4766
 30
0.0
  0
SPLINE
  5
58
330
1F
100
AcDbEntity
  8
DEFAULT_1
 62
   250
100
AcDbSpline
210
0.0
220
0.0
230
1.0
 70
    11
 71
     3
 72
    80
 73
    76
 74
     0
 42
0.0000000001
 43
0.0000000001
 40
0.0
 40
0.0
 40
0.0
 40
0.0
 40
0.05
 40
0.05
 40
0.05
 40
0.05
 40
0.1
 40
0.1
 40
0.1
 40
0.1
 40
0.15
 40
0.15
 40
0.15
 40
0.15
 40
0.2
 40
0.2
 40
0.2
 40
0.2
 40
0.25
 40
0.25
 40
0.25
 40
0.25
 40
0.3
 40
0.3
 40
0.3
 40
0.3
 40
0.35
 40
0.35
 40
0.35
 40
0.35
 40
0.4
 40
0.4
 40
0.4
 40
0.4
 40
0.45
 40
0.45
 40
0.45
 40
0.45
 40
0.5
 40
0.5
 40
0.5
 40
0.5
 40
0.55
 40
0.55
 40
0.55
 40
0.55
 40
0.6
 40
0.6
 40
0.6
 40
0.6
 40
0.65
 40
0.65
 40
0.65
 40
0.65
 40
0.7
 40
0.7
 40
0.7
 40
0.7
 40
0.75
 40
0.75
 40
0.75
 40
0.75
 40
0.8
 40
0.8
 40
0.8
 40
0.8
 40
0.85
 40
0.85
 40
0.85
 40
0.85
 40
0.9
 40
0.9
 40
0.9
 40
0.9
 40
1.0
 40
1.0
 40
1.0
 40
1.0
 10
5.3428
 20
31.4945
 30
0.0
 10
5.3428
 20
31.4945
 30
0.0
 10
5.0964
 20
31.4752
 30
0.0
 10
5.0964
 20
31.4752
 30
0.0
 10
5.0964
 20
31.4752
 30
0.0
 10
5.0743
 20
31.5726
 30
0.0
 10
5.0432
 20
31.6436
 30
0.0
 10
5.0028
 20
31.6873
 30
0.0
 10
5.0028
 20
31.6873
 30
0.0
 10
4.9355
 20
31.7584
 30
0.0
 10
4.8527
 20
31.7937
 30
0.0
 10
4.7544
 20
31.7937
 30
0.0
 10
4.7544
 20
31.7937
 30
0.0
 10
4.6754
 20
31.7937
 30
0.0
 10
4.6063
 20
31.7715
 30
0.0
 10
4.5465
 20
31.7273
 30
0.0
 10
4.5465
 20
31.7273
 30
0.0
 10
4.4684
 20
31.6704
 30
0.0
 10
4.4068
 20
31.5872
 30
0.0
 10
4.3617
 20
31.478
 30
0.0
 10
4.3617
 20
31.478
 30
0.0
 10
4.317
 20
31.3689
 30
0.0
 10
4.2935
 20
31.2132
 30
0.0
 10
4.2916
 20
31.011
 30
0.0
 10
4.2916
 20
31.011
 30
0.0
 10
4.3513
 20
31.1017
 30
0.0
 10
4.4242
 20
31.1695
 30
0.0
 10
4.5108
 20
31.2137
 30
0.0
 10
4.5108
 20
31.2137
 30
0.0
 10
4.5968
 20
31.2574
 30
0.0
 10
4.6876
 20
31.2795
 30
0.0
 10
4.7822
 20
31.2795
 30
0.0
 10
4.7822
 20
31.2795
 30
0.0
 10
4.9477
 20
31.2795
 30
0.0
 10
5.0884
 20
31.2189
 30
0.0
 10
5.2046
 20
31.097
 30
0.0
 10
5.2046
 20
31.097
 30
0.0
 10
5.3207
 20
30.9752
 30
0.0
 10
5.3791
 20
30.8181
 30
0.0
 10
5.3791
 20
30.6253
 30
0.0
 10
5.3791
 20
30.6253
 30
0.0
 10
5.3791
 20
30.4983
 30
0.0
 10
5.3513
 20
30.3807
 30
0.0
 10
5.2967
 20
30.2715
 30
0.0
 10
5.2967
 20
30.2715
 30
0.0
 10
5.2422
 20
30.1629
 30
0.0
 10
5.1669
 20
30.0792
 30
0.0
 10
5.0714
 20
30.0213
 30
0.0
 10
5.0714
 20
30.0213
 30
0.0
 10
4.976
 20
29.9635
 30
0.0
 10
4.8678
 20
29.9348
 30
0.0
 10
4.7464
 20
29.9348
 30
0.0
 10
4.7464
 20
29.9348
 30
0.0
 10
4.5395
 20
29.9348
 30
0.0
 10
4.3711
 20
30.0105
 30
0.0
 10
4.2408
 20
30.1629
 30
0.0
 10
4.2408
 20
30.1629
 30
0.0
 10
4.11
 20
30.3148
 30
0.0
 10
4.0451
 20
30.5655
 30
0.0
 10
4.0451
 20
30.9145
 30
0.0
 10
4.0451
 20
30.9145
 30
0.0
 10
4.0451
 20
31.3049
 30
0.0
 10
4.1171
 20
31.5886
 30
0.0
 10
4.2615
 20
31.7659
 30
0.0
 10
4.2615
 20
31.7659
 30
0.0
 10
4.3871
 20
31.9202
 30
0.0
 10
4.5564
 20
31.9978
 30
0.0
 10
4.7699
 20
31.9978
 30
0.0
 10
4.7699
 20
31.9978
 30
0.0
 10
4.9285
 20
31.9978
 30
0.0
 10
5.0587
 20
31.9531
 30
0.0
 10
5.1603
 20
31.8637
 30
0.0
 10
5.1603
 20
31.8637
 30
0.0
 10
5.2619
 20
31.7748
 30
0.0
 10
5.3226
 20
31.6516
 30
0.0
 10
5.3428
 20
31.4945
 30
0.0
  0
SPLINE
  5
59
330
1F
100
AcDbEntity
  8
DEFAULT_1
 62
   250
100
AcDbSpline
210
0.0
220
0.0
230
1.0
 70
    11
 71
     3
 72
    40
 73
    36
 74
     0
 42
0.0000000001
 43
0.0000000001
 40
0.0
 40
0.0
 40
0.0
 40
0.0
 40
0.1
 40
0.1
 40
0.1
 40
0.1
 40
0.2
 40
0.2
 40
0.2
 40
0.2
 40
0.3
 40
0.3
 40
0.3
 40
0.3
 40
0.4
 40
0.4
 40
0.4
 40
0.4
 40
0.5
 40
0.5
 40
0.5
 40
0.5
 40
0.6
 40
0.6
 40
0.6
 40
0.6
 40
0.7
 40
0.7
 40
0.7
 40
0.7
 40
0.8
 40
0.8
 40
0.8
 40
0.8
 40
1.0
 40
1.0
 40
1.0
 40
1.0
 10
4.3301
 20
30.6239
 30
0.0
 10
4.3301
 20
30.5382
 30
0.0
 10
4.3485
 20
30.4564
 30
0.0
 10
4.3847
 20
30.3783
 30
0.0
 10
4.3847
 20
30.3783
 30
0.0
 10
4.4209
 20
30.3002
 30
0.0
 10
4.4717
 20
30.241
 30
0.0
 10
4.5366
 20
30.2001
 30
0.0
 10
4.5366
 20
30.2001
 30
0.0
 10
4.602
 20
30.1591
 30
0.0
 10
4.6707
 20
30.1384
 30
0.0
 10
4.7422
 20
30.1384
 30
0.0
 10
4.7422
 20
30.1384
 30
0.0
 10
4.8471
 20
30.1384
 30
0.0
 10
4.9369
 20
30.1808
 30
0.0
 10
5.0122
 20
30.2654
 30
0.0
 10
5.0122
 20
30.2654
 30
0.0
 10
5.0874
 20
30.3501
 30
0.0
 10
5.1251
 20
30.4649
 30
0.0
 10
5.1251
 20
30.6097
 30
0.0
 10
5.1251
 20
30.6097
 30
0.0
 10
5.1251
 20
30.7494
 30
0.0
 10
5.0879
 20
30.8595
 30
0.0
 10
5.0136
 20
30.9399
 30
0.0
 10
5.0136
 20
30.9399
 30
0.0
 10
4.9393
 20
31.0204
 30
0.0
 10
4.8457
 20
31.0604
 30
0.0
 10
4.7328
 20
31.0604
 30
0.0
 10
4.7328
 20
31.0604
 30
0.0
 10
4.6204
 20
31.0604
 30
0.0
 10
4.5253
 20
31.0204
 30
0.0
 10
4.4473
 20
30.9399
 30
0.0
 10
4.4473
 20
30.9399
 30
0.0
 10
4.3692
 20
30.8595
 30
0.0
 10
4.3301
 20
30.7541
 30
0.0
 10
4.3301
 20
30.6239
 30
0.0
  0
SPLINE
  5
5A
330
1F
100
AcDbEntity
  8
DEFAULT_1
 62
   250
100
AcDbSpline
210
0.0
220
0.0
230
1.0
 70
    11
 71
     3
 72
    92
 73
    88
 74
     0
 42
0.0000000001
 43
0.0000000001
 40
0.0
 40
0.0
 40
0.0
 40
0.0
 40
0.0434782608695652
 40
0.0434782608695652
 40
0.0434782608695652
 40
0.0434782608695652
 40
0.0869565217391304
 40
0.0869565217391304
 40
0.0869565217391304
 40
0.0869565217391304
 40
0.1304347826086956
 40
0.1304347826086956
 40
0.1304347826086956
 40
0.1304347826086956
 40
0.1739130434782609
 40
0.1739130434782609
 40
0.1739130434782609
 40
0.1739130434782609
 40
0.2173913043478261
 40
0.2173913043478261
 40
0.2173913043478261
 40
0.2173913043478261
 40
0.2608695652173913
 40
0.2608695652173913
 40
0.2608695652173913
 40
0.2608695652173913
 40
0.3043478260869565
 40
0.3043478260869565
 40
0.3043478260869565
 40
0.3043478260869565
 40
0.3478260869565217
 40
0.3478260869565217
 40
0.3478260869565217
 40
0.3478260869565217
 40
0.391304347826087
 40
0.391304347826087
 40
0.391304347826087
 40
0.391304347826087
 40
0.4347826086956522
 40
0.4347826086956522
 40
0.4347826086956522
 40
0.4347826086956522
 40
0.4782608695652174
 40
0.4782608695652174
 40
0.4782608695652174
 40
0.4782608695652174
 40
0.5217391304347826
 40
0.5217391304347826
 40
0.5217391304347826
 40
0.5217391304347826
 40
0.5652173913043478
 40
0.5652173913043478
 40
0.5652173913043478
 40
0.5652173913043478
 40
0.6086956521739131
 40
0.6086956521739131
 40
0.6086956521739131
 40
0.6086956521739131
 40
0.6521739130434783
 40
0.6521739130434783
 40
0.6521739130434783
 40
0.6521739130434783
 40
0.6956521739130435
 40
0.6956521739130435
 40
0.6956521739130435
 40
0.6956521739130435
 40
0.7391304347826086
 40
0.7391304347826086
 40
0.7391304347826086
 40
0.7391304347826086
 40
0.782608695652174
 40
0.782608695652174
 40
0.782608695652174
 40
0.782608695652174
 40
0.8260869565217391
 40
0.8260869565217391
 40
0.8260869565217391
 40
0.8260869565217391
 40
0.8695652173913043
 40
0.8695652173913043
 40
0.8695652173913043
 40
0.8695652173913043
 40
0.9130434782608695
 40
0.9130434782608695
 40
0.9130434782608695
 40
0.9130434782608695
 40
1.0
 40
1.0
 40
1.0
 40
1.0
 10
6.9294
 20
30.2076
 30
0.0
 10
6.9294
 20
30.2076
 30
0.0
 10
6.9294
 20
29.9691
 30
0.0
 10
6.9294
 20
29.9691
 30
0.0
 10
6.9294
 20
29.9691
 30
0.0
 10
6.9294
 20
29.9691
 30
0.0
 10
5.594
 20
29.9691
 30
0.0
 10
5.594
 20
29.9691
 30
0.0
 10
5.594
 20
29.9691
 30
0.0
 10
5.5921
 20
30.0288
 30
0.0
 10
5.6015
 20
30.0862
 30
0.0
 10
5.6227
 20
30.1413
 30
0.0
 10
5.6227
 20
30.1413
 30
0.0
 10
5.6566
 20
30.2325
 30
0.0
 10
5.7111
 20
30.3219
 30
0.0
 10
5.7859
 20
30.4103
 30
0.0
 10
5.7859
 20
30.4103
 30
0.0
 10
5.8612
 20
30.4983
 30
0.0
 10
5.9694
 20
30.6003
 30
0.0
 10
6.1105
 20
30.716
 30
0.0
 10
6.1105
 20
30.716
 30
0.0
 10
6.3301
 20
30.8962
 30
0.0
 10
6.4788
 20
31.0387
 30
0.0
 10
6.5559
 20
31.1441
 30
0.0
 10
6.5559
 20
31.1441
 30
0.0
 10
6.633
 20
31.249
 30
0.0
 10
6.6716
 20
31.3487
 30
0.0
 10
6.6716
 20
31.4423
 30
0.0
 10
6.6716
 20
31.4423
 30
0.0
 10
6.6716
 20
31.5406
 30
0.0
 10
6.6363
 20
31.6234
 30
0.0
 10
6.5663
 20
31.6911
 30
0.0
 10
6.5663
 20
31.6911
 30
0.0
 10
6.4957
 20
31.7584
 30
0.0
 10
6.404
 20
31.7922
 30
0.0
 10
6.2911
 20
31.7922
 30
0.0
 10
6.2911
 20
31.7922
 30
0.0
 10
6.1716
 20
31.7922
 30
0.0
 10
6.0761
 20
31.7565
 30
0.0
 10
6.0046
 20
31.6845
 30
0.0
 10
6.0046
 20
31.6845
 30
0.0
 10
5.9327
 20
31.613
 30
0.0
 10
5.8965
 20
31.5138
 30
0.0
 10
5.8955
 20
31.3873
 30
0.0
 10
5.8955
 20
31.3873
 30
0.0
 10
5.8955
 20
31.3873
 30
0.0
 10
5.6406
 20
31.4131
 30
0.0
 10
5.6406
 20
31.4131
 30
0.0
 10
5.6406
 20
31.4131
 30
0.0
 10
5.658
 20
31.6036
 30
0.0
 10
5.7238
 20
31.7485
 30
0.0
 10
5.8377
 20
31.8482
 30
0.0
 10
5.8377
 20
31.8482
 30
0.0
 10
5.9515
 20
31.9479
 30
0.0
 10
6.1048
 20
31.9978
 30
0.0
 10
6.2967
 20
31.9978
 30
0.0
 10
6.2967
 20
31.9978
 30
0.0
 10
6.4905
 20
31.9978
 30
0.0
 10
6.6439
 20
31.9437
 30
0.0
 10
6.7568
 20
31.8365
 30
0.0
 10
6.7568
 20
31.8365
 30
0.0
 10
6.8701
 20
31.7287
 30
0.0
 10
6.9266
 20
31.5956
 30
0.0
 10
6.9266
 20
31.4366
 30
0.0
 10
6.9266
 20
31.4366
 30
0.0
 10
6.9266
 20
31.3557
 30
0.0
 10
6.9101
 20
31.2762
 30
0.0
 10
6.8767
 20
31.1982
 30
0.0
 10
6.8767
 20
31.1982
 30
0.0
 10
6.8438
 20
31.1201
 30
0.0
 10
6.7887
 20
31.0378
 30
0.0
 10
6.7121
 20
30.9517
 30
0.0
 10
6.7121
 20
30.9517
 30
0.0
 10
6.6354
 20
30.8651
 30
0.0
 10
6.5079
 20
30.7466
 30
0.0
 10
6.3297
 20
30.5961
 30
0.0
 10
6.3297
 20
30.5961
 30
0.0
 10
6.181
 20
30.471
 30
0.0
 10
6.0855
 20
30.3863
 30
0.0
 10
6.0432
 20
30.3416
 30
0.0
 10
6.0432
 20
30.3416
 30
0.0
 10
6.0009
 20
30.2974
 30
0.0
 10
5.9661
 20
30.2527
 30
0.0
 10
5.9383
 20
30.2076
 30
0.0
 10
5.9383
 20
30.2076
 30
0.0
 10
5.9383
 20
30.2076
 30
0.0
 10
6.9294
 20
30.2076
 30
0.0
 10
6.9294
 20
30.2076
 30
0.0
  0
SPLINE
  5
5B
330
1F
100
AcDbEntity
  8
DEFAULT_1
 62
   250
100
AcDbSpline
210
0.0
220
0.0
230
1.0
 70
    11
 71
     3
 72
    80
 73
    76
 74
     0
 42
0.0000000001
 43
0.0000000001
 40
0.0
 40
0.0
 40
0.0
 40
0.0
 40
0.05
 40
0.05
 40
0.05
 40
0.05
 40
0.1
 40
0.1
 40
0.1
 40
0.1
 40
0.15
 40
0.15
 40
0.15
 40
0.15
 40
0.2
 40
0.2
 40
0.2
 40
0.2
 40
0.25
 40
0.25
 40
0.25
 40
0.25
 40
0.3
 40
0.3
 40
0.3
 40
0.3
 40
0.35
 40
0.35
 40
0.35
 40
0.35
 40
0.4
 40
0.4
 40
0.4
 40
0.4
 40
0.45
 40
0.45
 40
0.45
 40
0.45
 40
0.5
 40
0.5
 40
0.5
 40
0.5
 40
0.55
 40
0.55
 40
0.55
 40
0.55
 40
0.6
 40
0.6
 40
0.6
 40
0.6
 40
0.65
 40
0.65
 40
0.65
 40
0.65
 40
0.7
 40
0.7
 40
0.7
 40
0.7
 40
0.75
 40
0.75
 40
0.75
 40
0.75
 40
0.8
 40
0.8
 40
0.8
 40
0.8
 40
0.85
 40
0.85
 40
0.85
 40
0.85
 40
0.9
 40
0.9
 40
0.9
 40
0.9
 40
1.0
 40
1.0
 40
1.0
 40
1.0
 10
-15.0464
 20
-7.8661
 30
0.0
 10
-15.0464
 20
-7.8661
 30
0.0
 10
-15.0271
 20
-8.1125
 30
0.0
 10
-15.0271
 20
-8.1125
 30
0.0
 10
-15.0271
 20
-8.1125
 30
0.0
 10
-15.1245
 20
-8.1346
 30
0.0
 10
-15.1955
 20
-8.1657
 30
0.0
 10
-15.2392
 20
-8.2061
 30
0.0
 10
-15.2392
 20
-8.2061
 30
0.0
 10
-15.3103
 20
-8.2734
 30
0.0
 10
-15.3456
 20
-8.3562
 30
0.0
 10
-15.3456
 20
-8.4545
 30
0.0
 10
-15.3456
 20
-8.4545
 30
0.0
 10
-15.3456
 20
-8.5335
 30
0.0
 10
-15.3234
 20
-8.6026
 30
0.0
 10
-15.2792
 20
-8.6624
 30
0.0
 10
-15.2792
 20
-8.6624
 30
0.0
 10
-15.2223
 20
-8.7405
 30
0.0
 10
-15.1391
 20
-8.8021
 30
0.0
 10
-15.0299
 20
-8.8472
 30
0.0
 10
-15.0299
 20
-8.8472
 30
0.0
 10
-14.9208
 20
-8.8919
 30
0.0
 10
-14.7651
 20
-8.9154
 30
0.0
 10
-14.5629
 20
-8.9173
 30
0.0
 10
-14.5629
 20
-8.9173
 30
0.0
 10
-14.6536
 20
-8.8576
 30
0.0
 10
-14.7214
 20
-8.7847
 30
0.0
 10
-14.7656
 20
-8.6981
 30
0.0
 10
-14.7656
 20
-8.6981
 30
0.0
 10
-14.8093
 20
-8.6121
 30
0.0
 10
-14.8314
 20
-8.5213
 30
0.0
 10
-14.8314
 20
-8.4267
 30
0.0
 10
-14.8314
 20
-8.4267
 30
0.0
 10
-14.8314
 20
-8.2612
 30
0.0
 10
-14.7708
 20
-8.1205
 30
0.0
 10
-14.6489
 20
-8.0043
 30
0.0
 10
-14.6489
 20
-8.0043
 30
0.0
 10
-14.5271
 20
-7.8882
 30
0.0
 10
-14.37
 20
-7.8298
 30
0.0
 10
-14.1772
 20
-7.8298
 30
0.0
 10
-14.1772
 20
-7.8298
 30
0.0
 10
-14.0502
 20
-7.8298
 30
0.0
 10
-13.9326
 20
-7.8576
 30
0.0
 10
-13.8234
 20
-7.9122
 30
0.0
 10
-13.8234
 20
-7.9122
 30
0.0
 10
-13.7148
 20
-7.9667
 30
0.0
 10
-13.6311
 20
-8.042
 30
0.0
 10
-13.5732
 20
-8.1375
 30
0.0
 10
-13.5732
 20
-8.1375
 30
0.0
 10
-13.5154
 20
-8.2329
 30
0.0
 10
-13.4867
 20
-8.3411
 30
0.0
 10
-13.4867
 20
-8.4625
 30
0.0
 10
-13.4867
 20
-8.4625
 30
0.0
 10
-13.4867
 20
-8.6694
 30
0.0
 10
-13.5624
 20
-8.8378
 30
0.0
 10
-13.7148
 20
-8.9681
 30
0.0
 10
-13.7148
 20
-8.9681
 30
0.0
 10
-13.8667
 20
-9.0989
 30
0.0
 10
-14.1174
 20
-9.1638
 30
0.0
 10
-14.4664
 20
-9.1638
 30
0.0
 10
-14.4664
 20
-9.1638
 30
0.0
 10
-14.8568
 20
-9.1638
 30
0.0
 10
-15.1405
 20
-9.0918
 30
0.0
 10
-15.3178
 20
-8.9474
 30
0.0
 10
-15.3178
 20
-8.9474
 30
0.0
 10
-15.4721
 20
-8.8218
 30
0.0
 10
-15.5497
 20
-8.6525
 30
0.0
 10
-15.5497
 20
-8.439
 30
0.0
 10
-15.5497
 20
-8.439
 30
0.0
 10
-15.5497
 20
-8.2804
 30
0.0
 10
-15.505
 20
-8.1502
 30
0.0
 10
-15.4156
 20
-8.0486
 30
0.0
 10
-15.4156
 20
-8.0486
 30
0.0
 10
-15.3267
 20
-7.947
 30
0.0
 10
-15.2035
 20
-7.8863
 30
0.0
 10
-15.0464
 20
-7.8661
 30
0.0
  0
SPLINE
  5
5C
330
1F
100
AcDbEntity
  8
DEFAULT_1
 62
   250
100
AcDbSpline
210
0.0
220
0.0
230
1.0
 70
    11
 71
     3
 72
    40
 73
    36
 74
     0
 42
0.0000000001
 43
0.0000000001
 40
0.0
 40
0.0
 40
0.0
 40
0.0
 40
0.1
 40
0.1
 40
0.1
 40
0.1
 40
0.2
 40
0.2
 40
0.2
 40
0.2
 40
0.3
 40
0.3
 40
0.3
 40
0.3
 40
0.4
 40
0.4
 40
0.4
 40
0.4
 40
0.5
 40
0.5
 40
0.5
 40
0.5
 40
0.6
 40
0.6
 40
0.6
 40
0.6
 40
0.7
 40
0.7
 40
0.7
 40
0.7
 40
0.8
 40
0.8
 40
0.8
 40
0.8
 40
1.0
 40
1.0
 40
1.0
 40
1.0
 10
-14.1758
 20
-8.8788
 30
0.0
 10
-14.0901
 20
-8.8788
 30
0.0
 10
-14.0083
 20
-8.8604
 30
0.0
 10
-13.9302
 20
-8.8242
 30
0.0
 10
-13.9302
 20
-8.8242
 30
0.0
 10
-13.8521
 20
-8.788
 30
0.0
 10
-13.7929
 20
-8.7372
 30
0.0
 10
-13.752
 20
-8.6723
 30
0.0
 10
-13.752
 20
-8.6723
 30
0.0
 10
-13.711
 20
-8.6069
 30
0.0
 10
-13.6903
 20
-8.5382
 30
0.0
 10
-13.6903
 20
-8.4667
 30
0.0
 10
-13.6903
 20
-8.4667
 30
0.0
 10
-13.6903
 20
-8.3618
 30
0.0
 10
-13.7327
 20
-8.272
 30
0.0
 10
-13.8173
 20
-8.1967
 30
0.0
 10
-13.8173
 20
-8.1967
 30
0.0
 10
-13.902
 20
-8.1215
 30
0.0
 10
-14.0168
 20
-8.0838
 30
0.0
 10
-14.1616
 20
-8.0838
 30
0.0
 10
-14.1616
 20
-8.0838
 30
0.0
 10
-14.3013
 20
-8.0838
 30
0.0
 10
-14.4114
 20
-8.121
 30
0.0
 10
-14.4918
 20
-8.1953
 30
0.0
 10
-14.4918
 20
-8.1953
 30
0.0
 10
-14.5723
 20
-8.2696
 30
0.0
 10
-14.6123
 20
-8.3632
 30
0.0
 10
-14.6123
 20
-8.4761
 30
0.0
 10
-14.6123
 20
-8.4761
 30
0.0
 10
-14.6123
 20
-8.5885
 30
0.0
 10
-14.5723
 20
-8.6836
 30
0.0
 10
-14.4918
 20
-8.7616
 30
0.0
 10
-14.4918
 20
-8.7616
 30
0.0
 10
-14.4114
 20
-8.8397
 30
0.0
 10
-14.306
 20
-8.8788
 30
0.0
 10
-14.1758
 20
-8.8788
 30
0.0
  0
SPLINE
  5
5D
330
1F
100
AcDbEntity
  8
DEFAULT_1
 62
   250
100
AcDbSpline
210
0.0
220
0.0
230
1.0
 70
    11
 71
     3
 72
    92
 73
    88
 74
     0
 42
0.0000000001
 43
0.0000000001
 40
0.0
 40
0.0
 40
0.0
 40
0.0
 40
0.0434782608695652
 40
0.0434782608695652
 40
0.0434782608695652
 40
0.0434782608695652
 40
0.0869565217391304
 40
0.0869565217391304
 40
0.0869565217391304
 40
0.0869565217391304
 40
0.1304347826086956
 40
0.1304347826086956
 40
0.1304347826086956
 40
0.1304347826086956
 40
0.1739130434782609
 40
0.1739130434782609
 40
0.1739130434782609
 40
0.1739130434782609
 40
0.2173913043478261
 40
0.2173913043478261
 40
0.2173913043478261
 40
0.2173913043478261
 40
0.2608695652173913
 40
0.2608695652173913
 40
0.2608695652173913
 40
0.2608695652173913
 40
0.3043478260869565
 40
0.3043478260869565
 40
0.3043478260869565
 40
0.3043478260869565
 40
0.3478260869565217
 40
0.3478260869565217
 40
0.3478260869565217
 40
0.3478260869565217
 40
0.391304347826087
 40
0.391304347826087
 40
0.391304347826087
 40
0.391304347826087
 40
0.4347826086956522
 40
0.4347826086956522
 40
0.4347826086956522
 40
0.4347826086956522
 40
0.4782608695652174
 40
0.4782608695652174
 40
0.4782608695652174
 40
0.4782608695652174
 40
0.5217391304347826
 40
0.5217391304347826
 40
0.5217391304347826
 40
0.5217391304347826
 40
0.5652173913043478
 40
0.5652173913043478
 40
0.5652173913043478
 40
0.5652173913043478
 40
0.6086956521739131
 40
0.6086956521739131
 40
0.6086956521739131
 40
0.6086956521739131
 40
0.6521739130434783
 40
0.6521739130434783
 40
0.6521739130434783
 40
0.6521739130434783
 40
0.6956521739130435
 40
0.6956521739130435
 40
0.6956521739130435
 40
0.6956521739130435
 40
0.7391304347826086
 40
0.7391304347826086
 40
0.7391304347826086
 40
0.7391304347826086
 40
0.782608695652174
 40
0.782608695652174
 40
0.782608695652174
 40
0.782608695652174
 40
0.8260869565217391
 40
0.8260869565217391
 40
0.8260869565217391
 40
0.8260869565217391
 40
0.8695652173913043
 40
0.8695652173913043
 40
0.8695652173913043
 40
0.8695652173913043
 40
0.9130434782608695
 40
0.9130434782608695
 40
0.9130434782608695
 40
0.9130434782608695
 40
1.0
 40
1.0
 40
1.0
 40
1.0
 10
-13.9881
 20
-7.5462
 30
0.0
 10
-13.9881
 20
-7.5462
 30
0.0
 10
-14.0102
 20
-7.3077
 30
0.0
 10
-14.0102
 20
-7.3077
 30
0.0
 10
-14.0102
 20
-7.3077
 30
0.0
 10
-13.8982
 20
-7.2875
 30
0.0
 10
-13.8169
 20
-7.2489
 30
0.0
 10
-13.7661
 20
-7.192
 30
0.0
 10
-13.7661
 20
-7.192
 30
0.0
 10
-13.7157
 20
-7.1351
 30
0.0
 10
-13.6903
 20
-7.0622
 30
0.0
 10
-13.6903
 20
-6.9728
 30
0.0
 10
-13.6903
 20
-6.9728
 30
0.0
 10
-13.6903
 20
-6.8966
 30
0.0
 10
-13.7077
 20
-6.8299
 30
0.0
 10
-13.743
 20
-6.7725
 30
0.0
 10
-13.743
 20
-6.7725
 30
0.0
 10
-13.7778
 20
-6.7151
 30
0.0
 10
-13.8244
 20
-6.668
 30
0.0
 10
-13.8827
 20
-6.6314
 30
0.0
 10
-13.8827
 20
-6.6314
 30
0.0
 10
-13.941
 20
-6.5942
 30
0.0
 10
-14.0201
 20
-6.5636
 30
0.0
 10
-14.1188
 20
-6.5387
 30
0.0
 10
-14.1188
 20
-6.5387
 30
0.0
 10
-14.2181
 20
-6.5142
 30
0.0
 10
-14.3192
 20
-6.5015
 30
0.0
 10
-14.4222
 20
-6.5015
 30
0.0
 10
-14.4222
 20
-6.5015
 30
0.0
 10
-14.433
 20
-6.5015
 30
0.0
 10
-14.45
 20
-6.502
 30
0.0
 10
-14.4716
 20
-6.5029
 30
0.0
 10
-14.4716
 20
-6.5029
 30
0.0
 10
-14.3931
 20
-6.5528
 30
0.0
 10
-14.3286
 20
-6.6205
 30
0.0
 10
-14.2797
 20
-6.7061
 30
0.0
 10
-14.2797
 20
-6.7061
 30
0.0
 10
-14.2303
 20
-6.7922
 30
0.0
 10
-14.2059
 20
-6.8854
 30
0.0
 10
-14.2059
 20
-6.9851
 30
0.0
 10
-14.2059
 20
-6.9851
 30
0.0
 10
-14.2059
 20
-7.1525
 30
0.0
 10
-14.2665
 20
-7.2941
 30
0.0
 10
-14.3879
 20
-7.4098
 30
0.0
 10
-14.3879
 20
-7.4098
 30
0.0
 10
-14.5092
 20
-7.5255
 30
0.0
 10
-14.6687
 20
-7.5834
 30
0.0
 10
-14.8672
 20
-7.5834
 30
0.0
 10
-14.8672
 20
-7.5834
 30
0.0
 10
-15.0723
 20
-7.5834
 30
0.0
 10
-15.2369
 20
-7.5232
 30
0.0
 10
-15.362
 20
-7.4023
 30
0.0
 10
-15.362
 20
-7.4023
 30
0.0
 10
-15.4871
 20
-7.2814
 30
0.0
 10
-15.5497
 20
-7.1299
 30
0.0
 10
-15.5497
 20
-6.9479
 30
0.0
 10
-15.5497
 20
-6.9479
 30
0.0
 10
-15.5497
 20
-6.8167
 30
0.0
 10
-15.5139
 20
-6.6967
 30
0.0
 10
-15.4434
 20
-6.5876
 30
0.0
 10
-15.4434
 20
-6.5876
 30
0.0
 10
-15.3728
 20
-6.479
 30
0.0
 10
-15.2717
 20
-6.3962
 30
0.0
 10
-15.1409
 20
-6.3397
 30
0.0
 10
-15.1409
 20
-6.3397
 30
0.0
 10
-15.0102
 20
-6.2833
 30
0.0
 10
-14.8206
 20
-6.2551
 30
0.0
 10
-14.5723
 20
-6.2551
 30
0.0
 10
-14.5723
 20
-6.2551
 30
0.0
 10
-14.3145
 20
-6.2551
 30
0.0
 10
-14.109
 20
-6.2828
 30
0.0
 10
-13.9556
 20
-6.3388
 30
0.0
 10
-13.9556
 20
-6.3388
 30
0.0
 10
-13.8027
 20
-6.3952
 30
0.0
 10
-13.6866
 20
-6.4785
 30
0.0
 10
-13.6066
 20
-6.589
 30
0.0
 10
-13.6066
 20
-6.589
 30
0.0
 10
-13.5266
 20
-6.7
 30
0.0
 10
-13.4867
 20
-6.8294
 30
0.0
 10
-13.4867
 20
-6.9785
 30
0.0
 10
-13.4867
 20
-6.9785
 30
0.0
 10
-13.4867
 20
-7.1365
 30
0.0
 10
-13.5304
 20
-7.2654
 30
0.0
 10
-13.6184
 20
-7.3656
 30
0.0
 10
-13.6184
 20
-7.3656
 30
0.0
 10
-13.7059
 20
-7.4658
 30
0.0
 10
-13.8291
 20
-7.526
 30
0.0
 10
-13.9881
 20
-7.5462
 30
0.0
  0
SPLINE
  5
5E
330
1F
100
AcDbEntity
  8
DEFAULT_1
 62
   250
100
AcDbSpline
210
0.0
220
0.0
230
1.0
 70
    11
 71
     3
 72
    36
 73
    32
 74
     0
 42
0.0000000001
 43
0.0000000001
 40
0.0
 40
0.0
 40
0.0
 40
0.0
 40
0.1111111111111111
 40
0.1111111111111111
 40
0.1111111111111111
 40
0.1111111111111111
 40
0.2222222222222222
 40
0.2222222222222222
 40
0.2222222222222222
 40
0.2222222222222222
 40
0.3333333333333333
 40
0.3333333333333333
 40
0.3333333333333333
 40
0.3333333333333333
 40
0.4444444444444444
 40
0.4444444444444444
 40
0.4444444444444444
 40
0.4444444444444444
 40
0.5555555555555556
 40
0.5555555555555556
 40
0.5555555555555556
 40
0.5555555555555556
 40
0.6666666666666666
 40
0.6666666666666666
 40
0.6666666666666666
 40
0.6666666666666666
 40
0.7777777777777778
 40
0.7777777777777778
 40
0.7777777777777778
 40
0.7777777777777778
 40
1.0
 40
1.0
 40
1.0
 40
1.0
 10
-14.8799
 20
-6.5307
 30
0.0
 10
-15.0219
 20
-6.5307
 30
0.0
 10
-15.1353
 20
-6.5683
 30
0.0
 10
-15.2186
 20
-6.6441
 30
0.0
 10
-15.2186
 20
-6.6441
 30
0.0
 10
-15.3023
 20
-6.7203
 30
0.0
 10
-15.3441
 20
-6.811
 30
0.0
 10
-15.3441
 20
-6.9178
 30
0.0
 10
-15.3441
 20
-6.9178
 30
0.0
 10
-15.3441
 20
-7.0279
 30
0.0
 10
-15.299
 20
-7.1238
 30
0.0
 10
-15.2091
 20
-7.2057
 30
0.0
 10
-15.2091
 20
-7.2057
 30
0.0
 10
-15.1188
 20
-7.2875
 30
0.0
 10
-15.0022
 20
-7.3284
 30
0.0
 10
-14.8592
 20
-7.3284
 30
0.0
 10
-14.8592
 20
-7.3284
 30
0.0
 10
-14.7303
 20
-7.3284
 30
0.0
 10
-14.6259
 20
-7.2894
 30
0.0
 10
-14.5455
 20
-7.2118
 30
0.0
 10
-14.5455
 20
-7.2118
 30
0.0
 10
-14.465
 20
-7.1342
 30
0.0
 10
-14.425
 20
-7.0387
 30
0.0
 10
-14.425
 20
-6.9249
 30
0.0
 10
-14.425
 20
-6.9249
 30
0.0
 10
-14.425
 20
-6.8096
 30
0.0
 10
-14.465
 20
-6.7156
 30
0.0
 10
-14.5455
 20
-6.6417
 30
0.0
 10
-14.5455
 20
-6.6417
 30
0.0
 10
-14.6259
 20
-6.5674
 30
0.0
 10
-14.7374
 20
-6.5307
 30
0.0
 10
-14.8799
 20
-6.5307
 30
0.0
  0
SPLINE
  5
5F
330
1F
100
AcDbEntity
  8
DEFAULT_1
 62
   250
100
AcDbSpline
210
0.0
220
0.0
230
1.0
 70
    11
 71
     3
 72
    20
 73
    16
 74
     0
 42
0.0000000001
 43
0.0000000001
 40
0.0
 40
0.0
 40
0.0
 40
0.0
 40
0.2
 40
0.2
 40
0.2
 40
0.2
 40
0.4
 40
0.4
 40
0.4
 40
0.4
 40
0.6
 40
0.6
 40
0.6
 40
0.6
 40
1.0
 40
1.0
 40
1.0
 40
1.0
 10
9.067
 20
-25.9775
 30
0.0
 10
9.067
 20
-25.9775
 30
0.0
 10
12.0671
 20
-26.4009
 30
0.0
 10
12.0671
 20
-26.4009
 30
0.0
 10
12.0671
 20
-26.4009
 30
0.0
 10
12.0671
 20
-26.4009
 30
0.0
 10
12.0671
 20
-26.4949
 30
0.0
 10
12.0671
 20
-26.4949
 30
0.0
 10
12.0671
 20
-26.4949
 30
0.0
 10
12.0671
 20
-26.4949
 30
0.0
 10
9.067
 20
-26.9464
 30
0.0
 10
9.067
 20
-26.9464
 30
0.0
 10
9.067
 20
-26.9464
 30
0.0
 10
9.067
 20
-26.9464
 30
0.0
 10
9.067
 20
-25.9775
 30
0.0
 10
9.067
 20
-25.9775
 30
0.0
  0
SPLINE
  5
60
330
1F
100
AcDbEntity
  8
DEFAULT_1
 62
   250
100
AcDbSpline
210
0.0
220
0.0
230
1.0
 70
    11
 71
     3
 72
    20
 73
    16
 74
     0
 42
0.0000000001
 43
0.0000000001
 40
0.0
 40
0.0
 40
0.0
 40
0.0
 40
0.2
 40
0.2
 40
0.2
 40
0.2
 40
0.4
 40
0.4
 40
0.4
 40
0.4
 40
0.6
 40
0.6
 40
0.6
 40
0.6
 40
1.0
 40
1.0
 40
1.0
 40
1.0
 10
-0.2133
 20
-26.8971
 30
0.0
 10
-0.2133
 20
-26.8971
 30
0.0
 10
-3.2133
 20
-26.4737
 30
0.0
 10
-3.2133
 20
-26.4737
 30
0.0
 10
-3.2133
 20
-26.4737
 30
0.0
 10
-3.2133
 20
-26.4737
 30
0.0
 10
-3.2133
 20
-26.3797
 30
0.0
 10
-3.2133
 20
-26.3797
 30
0.0
 10
-3.2133
 20
-26.3797
 30
0.0
 10
-3.2133
 20
-26.3797
 30
0.0
 10
-0.2133
 20
-25.9282
 30
0.0
 10
-0.2133
 20
-25.9282
 30
0.0
 10
-0.2133
 20
-25.9282
 30
0.0
 10
-0.2133
 20
-25.9282
 30
0.0
 10
-0.2133
 20
-26.8971
 30
0.0
 10
-0.2133
 20
-26.8971
 30
0.0
  0
SPLINE
  5
61
330
1F
100
AcDbEntity
  8
DEFAULT_1
 62
   250
100
AcDbSpline
210
0.0
220
0.0
230
1.0
 70
    11
 71
     3
 72
   120
 73
   116
 74
     0
 42
0.0000000001
 43
0.0000000001
 40
0.0
 40
0.0
 40
0.0
 40
0.0
 40
0.0333333333333333
 40
0.0333333333333333
 40
0.0333333333333333
 40
0.0333333333333333
 40
0.0666666666666667
 40
0.0666666666666667
 40
0.0666666666666667
 40
0.0666666666666667
 40
0.1
 40
0.1
 40
0.1
 40
0.1
 40
0.1333333333333333
 40
0.1333333333333333
 40
0.1333333333333333
 40
0.1333333333333333
 40
0.1666666666666667
 40
0.1666666666666667
 40
0.1666666666666667
 40
0.1666666666666667
 40
0.2
 40
0.2
 40
0.2
 40
0.2
 40
0.2333333333333333
 40
0.2333333333333333
 40
0.2333333333333333
 40
0.2333333333333333
 40
0.2666666666666667
 40
0.2666666666666667
 40
0.2666666666666667
 40
0.2666666666666667
 40
0.3
 40
0.3
 40
0.3
 40
0.3
 40
0.3333333333333333
 40
0.3333333333333333
 40
0.3333333333333333
 40
0.3333333333333333
 40
0.3666666666666666
 40
0.3666666666666666
 40
0.3666666666666666
 40
0.3666666666666666
 40
0.4
 40
0.4
 40
0.4
 40
0.4
 40
0.4333333333333333
 40
0.4333333333333333
 40
0.4333333333333333
 40
0.4333333333333333
 40
0.4666666666666667
 40
0.4666666666666667
 40
0.4666666666666667
 40
0.4666666666666667
 40
0.5
 40
0.5
 40
0.5
 40
0.5
 40
0.5333333333333333
 40
0.5333333333333333
 40
0.5333333333333333
 40
0.5333333333333333
 40
0.5666666666666667
 40
0.5666666666666667
 40
0.5666666666666667
 40
0.5666666666666667
 40
0.6
 40
0.6
 40
0.6
 40
0.6
 40
0.6333333333333333
 40
0.6333333333333333
 40
0.6333333333333333
 40
0.6333333333333333
 40
0.6666666666666666
 40
0.6666666666666666
 40
0.6666666666666666
 40
0.6666666666666666
 40
0.7
 40
0.7
 40
0.7
 40
0.7
 40
0.7333333333333333
 40
0.7333333333333333
 40
0.7333333333333333
 40
0.7333333333333333
 40
0.7666666666666667
 40
0.7666666666666667
 40
0.7666666666666667
 40
0.7666666666666667
 40
0.8
 40
0.8
 40
0.8
 40
0.8
 40
0.8333333333333334
 40
0.8333333333333334
 40
0.8333333333333334
 40
0.8333333333333334
 40
0.8666666666666667
 40
0.8666666666666667
 40
0.8666666666666667
 40
0.8666666666666667
 40
0.9
 40
0.9
 40
0.9
 40
0.9
 40
0.9333333333333333
 40
0.9333333333333333
 40
0.9333333333333333
 40
0.9333333333333333
 40
1.0
 40
1.0
 40
1.0
 40
1.0
 10
2.2272
 20
-24.9728
 30
0.0
 10
2.2272
 20
-24.9728
 30
0.0
 10
2.2272
 20
-24.7362
 30
0.0
 10
2.2272
 20
-24.7362
 30
0.0
 10
2.2272
 20
-24.7362
 30
0.0
 10
2.2272
 20
-24.7362
 30
0.0
 10
3.0828
 20
-24.7348
 30
0.0
 10
3.0828
 20
-24.7348
 30
0.0
 10
3.0828
 20
-24.7348
 30
0.0
 10
3.0828
 20
-24.7348
 30
0.0
 10
3.0828
 20
-25.4841
 30
0.0
 10
3.0828
 20
-25.4841
 30
0.0
 10
3.0828
 20
-25.4841
 30
0.0
 10
2.9516
 20
-25.589
 30
0.0
 10
2.8161
 20
-25.6676
 30
0.0
 10
2.6764
 20
-25.7207
 30
0.0
 10
2.6764
 20
-25.7207
 30
0.0
 10
2.5367
 20
-25.7734
 30
0.0
 10
2.3933
 20
-25.7997
 30
0.0
 10
2.2465
 20
-25.7997
 30
0.0
 10
2.2465
 20
-25.7997
 30
0.0
 10
2.048
 20
-25.7997
 30
0.0
 10
1.8674
 20
-25.7574
 30
0.0
 10
1.7056
 20
-25.6723
 30
0.0
 10
1.7056
 20
-25.6723
 30
0.0
 10
1.5433
 20
-25.5876
 30
0.0
 10
1.421
 20
-25.4644
 30
0.0
 10
1.3382
 20
-25.304
 30
0.0
 10
1.3382
 20
-25.304
 30
0.0
 10
1.2554
 20
-25.1431
 30
0.0
 10
1.214
 20
-24.9634
 30
0.0
 10
1.214
 20
-24.7649
 30
0.0
 10
1.214
 20
-24.7649
 30
0.0
 10
1.214
 20
-24.5683
 30
0.0
 10
1.2554
 20
-24.3849
 30
0.0
 10
1.3378
 20
-24.2146
 30
0.0
 10
1.3378
 20
-24.2146
 30
0.0
 10
1.4196
 20
-24.0439
 30
0.0
 10
1.5381
 20
-23.9173
 30
0.0
 10
1.6924
 20
-23.8345
 30
0.0
 10
1.6924
 20
-23.8345
 30
0.0
 10
1.8467
 20
-23.7522
 30
0.0
 10
2.0245
 20
-23.7108
 30
0.0
 10
2.2258
 20
-23.7108
 30
0.0
 10
2.2258
 20
-23.7108
 30
0.0
 10
2.3716
 20
-23.7108
 30
0.0
 10
2.5038
 20
-23.7344
 30
0.0
 10
2.6219
 20
-23.7819
 30
0.0
 10
2.6219
 20
-23.7819
 30
0.0
 10
2.7399
 20
-23.8289
 30
0.0
 10
2.8326
 20
-23.8948
 30
0.0
 10
2.8994
 20
-23.9794
 30
0.0
 10
2.8994
 20
-23.9794
 30
0.0
 10
2.9666
 20
-24.0641
 30
0.0
 10
3.0174
 20
-24.1741
 30
0.0
 10
3.0527
 20
-24.3101
 30
0.0
 10
3.0527
 20
-24.3101
 30
0.0
 10
3.0527
 20
-24.3101
 30
0.0
 10
2.8114
 20
-24.3764
 30
0.0
 10
2.8114
 20
-24.3764
 30
0.0
 10
2.8114
 20
-24.3764
 30
0.0
 10
2.7808
 20
-24.2734
 30
0.0
 10
2.7432
 20
-24.1925
 30
0.0
 10
2.6985
 20
-24.1337
 30
0.0
 10
2.6985
 20
-24.1337
 30
0.0
 10
2.6534
 20
-24.0749
 30
0.0
 10
2.5889
 20
-24.0279
 30
0.0
 10
2.5052
 20
-23.9926
 30
0.0
 10
2.5052
 20
-23.9926
 30
0.0
 10
2.4219
 20
-23.9573
 30
0.0
 10
2.3288
 20
-23.9394
 30
0.0
 10
2.2272
 20
-23.9394
 30
0.0
 10
2.2272
 20
-23.9394
 30
0.0
 10
2.1049
 20
-23.9394
 30
0.0
 10
1.9991
 20
-23.9583
 30
0.0
 10
1.9102
 20
-23.9954
 30
0.0
 10
1.9102
 20
-23.9954
 30
0.0
 10
1.8208
 20
-24.0326
 30
0.0
 10
1.7493
 20
-24.0815
 30
0.0
 10
1.6943
 20
-24.1422
 30
0.0
 10
1.6943
 20
-24.1422
 30
0.0
 10
1.6397
 20
-24.2028
 30
0.0
 10
1.5974
 20
-24.2692
 30
0.0
 10
1.5668
 20
-24.3421
 30
0.0
 10
1.5668
 20
-24.3421
 30
0.0
 10
1.5156
 20
-24.4667
 30
0.0
 10
1.4897
 20
-24.6022
 30
0.0
 10
1.4897
 20
-24.7485
 30
0.0
 10
1.4897
 20
-24.7485
 30
0.0
 10
1.4897
 20
-24.9286
 30
0.0
 10
1.5207
 20
-25.0791
 30
0.0
 10
1.5828
 20
-25.2005
 30
0.0
 10
1.5828
 20
-25.2005
 30
0.0
 10
1.6449
 20
-25.3218
 30
0.0
 10
1.7352
 20
-25.4117
 30
0.0
 10
1.8537
 20
-25.4705
 30
0.0
 10
1.8537
 20
-25.4705
 30
0.0
 10
1.9723
 20
-25.5293
 30
0.0
 10
2.0979
 20
-25.5589
 30
0.0
 10
2.231
 20
-25.5589
 30
0.0
 10
2.231
 20
-25.5589
 30
0.0
 10
2.3472
 20
-25.5589
 30
0.0
 10
2.46
 20
-25.5363
 30
0.0
 10
2.5701
 20
-25.4916
 30
0.0
 10
2.5701
 20
-25.4916
 30
0.0
 10
2.6807
 20
-25.4474
 30
0.0
 10
2.7639
 20
-25.3999
 30
0.0
 10
2.8208
 20
-25.3491
 30
0.0
 10
2.8208
 20
-25.3491
 30
0.0
 10
2.8208
 20
-25.3491
 30
0.0
 10
2.8208
 20
-24.9728
 30
0.0
 10
2.8208
 20
-24.9728
 30
0.0
 10
2.8208
 20
-24.9728
 30
0.0
 10
2.8208
 20
-24.9728
 30
0.0
 10
2.2272
 20
-24.9728
 30
0.0
 10
2.2272
 20
-24.9728
 30
0.0
  0
SPLINE
  5
62
330
1F
100
AcDbEntity
  8
DEFAULT_1
 62
   250
100
AcDbSpline
210
0.0
220
0.0
230
1.0
 70
    11
 71
     3
 72
    92
 73
    88
 74
     0
 42
0.0000000001
 43
0.0000000001
 40
0.0
 40
0.0
 40
0.0
 40
0.0
 40
0.0434782608695652
 40
0.0434782608695652
 40
0.0434782608695652
 40
0.0434782608695652
 40
0.0869565217391304
 40
0.0869565217391304
 40
0.0869565217391304
 40
0.0869565217391304
 40
0.1304347826086956
 40
0.1304347826086956
 40
0.1304347826086956
 40
0.1304347826086956
 40
0.1739130434782609
 40
0.1739130434782609
 40
0.1739130434782609
 40
0.1739130434782609
 40
0.2173913043478261
 40
0.2173913043478261
 40
0.2173913043478261
 40
0.2173913043478261
 40
0.2608695652173913
 40
0.2608695652173913
 40
0.2608695652173913
 40
0.2608695652173913
 40
0.3043478260869565
 40
0.3043478260869565
 40
0.3043478260869565
 40
0.3043478260869565
 40
0.3478260869565217
 40
0.3478260869565217
 40
0.3478260869565217
 40
0.3478260869565217
 40
0.391304347826087
 40
0.391304347826087
 40
0.391304347826087
 40
0.391304347826087
 40
0.4347826086956522
 40
0.4347826086956522
 40
0.4347826086956522
 40
0.4347826086956522
 40
0.4782608695652174
 40
0.4782608695652174
 40
0.4782608695652174
 40
0.4782608695652174
 40
0.5217391304347826
 40
0.5217391304347826
 40
0.5217391304347826
 40
0.5217391304347826
 40
0.5652173913043478
 40
0.5652173913043478
 40
0.5652173913043478
 40
0.5652173913043478
 40
0.6086956521739131
 40
0.6086956521739131
 40
0.6086956521739131
 40
0.6086956521739131
 40
0.6521739130434783
 40
0.6521739130434783
 40
0.6521739130434783
 40
0.6521739130434783
 40
0.6956521739130435
 40
0.6956521739130435
 40
0.6956521739130435
 40
0.6956521739130435
 40
0.7391304347826086
 40
0.7391304347826086
 40
0.7391304347826086
 40
0.7391304347826086
 40
0.782608695652174
 40
0.782608695652174
 40
0.782608695652174
 40
0.782608695652174
 40
0.8260869565217391
 40
0.8260869565217391
 40
0.8260869565217391
 40
0.8260869565217391
 40
0.8695652173913043
 40
0.8695652173913043
 40
0.8695652173913043
 40
0.8695652173913043
 40
0.9130434782608695
 40
0.9130434782608695
 40
0.9130434782608695
 40
0.9130434782608695
 40
1.0
 40
1.0
 40
1.0
 40
1.0
 10
4.1604
 20
-25.2362
 30
0.0
 10
4.1604
 20
-25.2362
 30
0.0
 10
4.421
 20
-25.2141
 30
0.0
 10
4.421
 20
-25.2141
 30
0.0
 10
4.421
 20
-25.2141
 30
0.0
 10
4.4403
 20
-25.3411
 30
0.0
 10
4.485
 20
-25.4361
 30
0.0
 10
4.5551
 20
-25.5001
 30
0.0
 10
4.5551
 20
-25.5001
 30
0.0
 10
4.6256
 20
-25.5641
 30
0.0
 10
4.7103
 20
-25.5961
 30
0.0
 10
4.8095
 20
-25.5961
 30
0.0
 10
4.8095
 20
-25.5961
 30
0.0
 10
4.929
 20
-25.5961
 30
0.0
 10
5.0301
 20
-25.5509
 30
0.0
 10
5.1124
 20
-25.4611
 30
0.0
 10
5.1124
 20
-25.4611
 30
0.0
 10
5.1952
 20
-25.3708
 30
0.0
 10
5.2366
 20
-25.2513
 30
0.0
 10
5.2366
 20
-25.1027
 30
0.0
 10
5.2366
 20
-25.1027
 30
0.0
 10
5.2366
 20
-24.9611
 30
0.0
 10
5.1971
 20
-24.8496
 30
0.0
 10
5.1176
 20
-24.7678
 30
0.0
 10
5.1176
 20
-24.7678
 30
0.0
 10
5.0381
 20
-24.6859
 30
0.0
 10
4.9342
 20
-24.645
 30
0.0
 10
4.8053
 20
-24.645
 30
0.0
 10
4.8053
 20
-24.645
 30
0.0
 10
4.7253
 20
-24.645
 30
0.0
 10
4.6534
 20
-24.6633
 30
0.0
 10
4.5889
 20
-24.6995
 30
0.0
 10
4.5889
 20
-24.6995
 30
0.0
 10
4.5245
 20
-24.7358
 30
0.0
 10
4.4742
 20
-24.7828
 30
0.0
 10
4.4375
 20
-24.8407
 30
0.0
 10
4.4375
 20
-24.8407
 30
0.0
 10
4.4375
 20
-24.8407
 30
0.0
 10
4.2046
 20
-24.8106
 30
0.0
 10
4.2046
 20
-24.8106
 30
0.0
 10
4.2046
 20
-24.8106
 30
0.0
 10
4.2046
 20
-24.8106
 30
0.0
 10
4.4003
 20
-23.7729
 30
0.0
 10
4.4003
 20
-23.7729
 30
0.0
 10
4.4003
 20
-23.7729
 30
0.0
 10
4.4003
 20
-23.7729
 30
0.0
 10
5.405
 20
-23.7729
 30
0.0
 10
5.405
 20
-23.7729
 30
0.0
 10
5.405
 20
-23.7729
 30
0.0
 10
5.405
 20
-23.7729
 30
0.0
 10
5.405
 20
-24.01
 30
0.0
 10
5.405
 20
-24.01
 30
0.0
 10
5.405
 20
-24.01
 30
0.0
 10
5.405
 20
-24.01
 30
0.0
 10
4.5988
 20
-24.01
 30
0.0
 10
4.5988
 20
-24.01
 30
0.0
 10
4.5988
 20
-24.01
 30
0.0
 10
4.5988
 20
-24.01
 30
0.0
 10
4.4897
 20
-24.5528
 30
0.0
 10
4.4897
 20
-24.5528
 30
0.0
 10
4.4897
 20
-24.5528
 30
0.0
 10
4.611
 20
-24.4681
 30
0.0
 10
4.7385
 20
-24.4258
 30
0.0
 10
4.8716
 20
-24.4258
 30
0.0
 10
4.8716
 20
-24.4258
 30
0.0
 10
5.048
 20
-24.4258
 30
0.0
 10
5.1966
 20
-24.4869
 30
0.0
 10
5.318
 20
-24.6092
 30
0.0
 10
5.318
 20
-24.6092
 30
0.0
 10
5.4393
 20
-24.7315
 30
0.0
 10
5.5
 20
-24.8886
 30
0.0
 10
5.5
 20
-25.0805
 30
0.0
 10
5.5
 20
-25.0805
 30
0.0
 10
5.5
 20
-25.2635
 30
0.0
 10
5.4464
 20
-25.4216
 30
0.0
 10
5.3401
 20
-25.5547
 30
0.0
 10
5.3401
 20
-25.5547
 30
0.0
 10
5.2103
 20
-25.7179
 30
0.0
 10
5.0334
 20
-25.7997
 30
0.0
 10
4.8095
 20
-25.7997
 30
0.0
 10
4.8095
 20
-25.7997
 30
0.0
 10
4.6256
 20
-25.7997
 30
0.0
 10
4.4756
 20
-25.7485
 30
0.0
 10
4.3594
 20
-25.6455
 30
0.0
 10
4.3594
 20
-25.6455
 30
0.0
 10
4.2432
 20
-25.5424
 30
0.0
 10
4.1769
 20
-25.406
 30
0.0
 10
4.1604
 20
-25.2362
 30
0.0
  0
SPLINE
  5
63
330
1F
100
AcDbEntity
  8
DEFAULT_1
 62
   250
100
AcDbSpline
210
0.0
220
0.0
230
1.0
 70
    11
 71
     3
 72
    20
 73
    16
 74
     0
 42
0.0000000001
 43
0.0000000001
 40
0.0
 40
0.0
 40
0.0
 40
0.0
 40
0.2
 40
0.2
 40
0.2
 40
0.2
 40
0.4
 40
0.4
 40
0.4
 40
0.4
 40
0.6
 40
0.6
 40
0.6
 40
0.6
 40
1.0
 40
1.0
 40
1.0
 40
1.0
 10
5.6129
 20
-25.7997
 30
0.0
 10
5.6129
 20
-25.7997
 30
0.0
 10
6.1985
 20
-23.7108
 30
0.0
 10
6.1985
 20
-23.7108
 30
0.0
 10
6.1985
 20
-23.7108
 30
0.0
 10
6.1985
 20
-23.7108
 30
0.0
 10
6.397
 20
-23.7108
 30
0.0
 10
6.397
 20
-23.7108
 30
0.0
 10
6.397
 20
-23.7108
 30
0.0
 10
6.397
 20
-23.7108
 30
0.0
 10
5.8128
 20
-25.7997
 30
0.0
 10
5.8128
 20
-25.7997
 30
0.0
 10
5.8128
 20
-25.7997
 30
0.0
 10
5.8128
 20
-25.7997
 30
0.0
 10
5.6129
 20
-25.7997
 30
0.0
 10
5.6129
 20
-25.7997
 30
0.0
  0
SPLINE
  5
64
330
1F
100
AcDbEntity
  8
DEFAULT_1
 62
   250
100
AcDbSpline
210
0.0
220
0.0
230
1.0
 70
    11
 71
     3
 72
    48
 73
    44
 74
     0
 42
0.0000000001
 43
0.0000000001
 40
0.0
 40
0.0
 40
0.0
 40
0.0
 40
0.0833333333333333
 40
0.0833333333333333
 40
0.0833333333333333
 40
0.0833333333333333
 40
0.1666666666666667
 40
0.1666666666666667
 40
0.1666666666666667
 40
0.1666666666666667
 40
0.25
 40
0.25
 40
0.25
 40
0.25
 40
0.3333333333333333
 40
0.3333333333333333
 40
0.3333333333333333
 40
0.3333333333333333
 40
0.4166666666666667
 40
0.4166666666666667
 40
0.4166666666666667
 40
0.4166666666666667
 40
0.5
 40
0.5
 40
0.5
 40
0.5
 40
0.5833333333333334
 40
0.5833333333333334
 40
0.5833333333333334
 40
0.5833333333333334
 40
0.6666666666666666
 40
0.6666666666666666
 40
0.6666666666666666
 40
0.6666666666666666
 40
0.75
 40
0.75
 40
0.75
 40
0.75
 40
0.8333333333333334
 40
0.8333333333333334
 40
0.8333333333333334
 40
0.8333333333333334
 40
1.0
 40
1.0
 40
1.0
 40
1.0
 10
7.309
 20
-25.7654
 30
0.0
 10
7.309
 20
-25.7654
 30
0.0
 10
7.309
 20
-25.2819
 30
0.0
 10
7.309
 20
-25.2819
 30
0.0
 10
7.309
 20
-25.2819
 30
0.0
 10
7.309
 20
-25.2819
 30
0.0
 10
6.4327
 20
-25.2819
 30
0.0
 10
6.4327
 20
-25.2819
 30
0.0
 10
6.4327
 20
-25.2819
 30
0.0
 10
6.4327
 20
-25.2819
 30
0.0
 10
6.4327
 20
-25.0542
 30
0.0
 10
6.4327
 20
-25.0542
 30
0.0
 10
6.4327
 20
-25.0542
 30
0.0
 10
6.4327
 20
-25.0542
 30
0.0
 10
7.3547
 20
-23.7452
 30
0.0
 10
7.3547
 20
-23.7452
 30
0.0
 10
7.3547
 20
-23.7452
 30
0.0
 10
7.3547
 20
-23.7452
 30
0.0
 10
7.5574
 20
-23.7452
 30
0.0
 10
7.5574
 20
-23.7452
 30
0.0
 10
7.5574
 20
-23.7452
 30
0.0
 10
7.5574
 20
-23.7452
 30
0.0
 10
7.5574
 20
-25.0542
 30
0.0
 10
7.5574
 20
-25.0542
 30
0.0
 10
7.5574
 20
-25.0542
 30
0.0
 10
7.5574
 20
-25.0542
 30
0.0
 10
7.8302
 20
-25.0542
 30
0.0
 10
7.8302
 20
-25.0542
 30
0.0
 10
7.8302
 20
-25.0542
 30
0.0
 10
7.8302
 20
-25.0542
 30
0.0
 10
7.8302
 20
-25.2819
 30
0.0
 10
7.8302
 20
-25.2819
 30
0.0
 10
7.8302
 20
-25.2819
 30
0.0
 10
7.8302
 20
-25.2819
 30
0.0
 10
7.5574
 20
-25.2819
 30
0.0
 10
7.5574
 20
-25.2819
 30
0.0
 10
7.5574
 20
-25.2819
 30
0.0
 10
7.5574
 20
-25.2819
 30
0.0
 10
7.5574
 20
-25.7654
 30
0.0
 10
7.5574
 20
-25.7654
 30
0.0
 10
7.5574
 20
-25.7654
 30
0.0
 10
7.5574
 20
-25.7654
 30
0.0
 10
7.309
 20
-25.7654
 30
0.0
 10
7.309
 20
-25.7654
 30
0.0
  0
SPLINE
  5
65
330
1F
100
AcDbEntity
  8
DEFAULT_1
 62
   250
100
AcDbSpline
210
0.0
220
0.0
230
1.0
 70
    11
 71
     3
 72
    16
 73
    12
 74
     0
 42
0.0000000001
 43
0.0000000001
 40
0.0
 40
0.0
 40
0.0
 40
0.0
 40
0.25
 40
0.25
 40
0.25
 40
0.25
 40
0.5
 40
0.5
 40
0.5
 40
0.5
 40
1.0
 40
1.0
 40
1.0
 40
1.0
 10
7.309
 20
-25.0542
 30
0.0
 10
7.309
 20
-25.0542
 30
0.0
 10
7.309
 20
-24.1436
 30
0.0
 10
7.309
 20
-24.1436
 30
0.0
 10
7.309
 20
-24.1436
 30
0.0
 10
7.309
 20
-24.1436
 30
0.0
 10
6.6769
 20
-25.0542
 30
0.0
 10
6.6769
 20
-25.0542
 30
0.0
 10
6.6769
 20
-25.0542
 30
0.0
 10
6.6769
 20
-25.0542
 30
0.0
 10
7.309
 20
-25.0542
 30
0.0
 10
7.309
 20
-25.0542
 30
0.0
  0
SPLINE
  5
66
330
1F
100
AcDbEntity
  8
DEFAULT_1
 62
   250
100
AcDbSpline
210
0.0
220
0.0
230
1.0
 70
    11
 71
     3
 72
    28
 73
    24
 74
     0
 42
0.0000000001
 43
0.0000000001
 40
0.0
 40
0.0
 40
0.0
 40
0.0
 40
0.1428571428571428
 40
0.1428571428571428
 40
0.1428571428571428
 40
0.1428571428571428
 40
0.2857142857142857
 40
0.2857142857142857
 40
0.2857142857142857
 40
0.2857142857142857
 40
0.4285714285714285
 40
0.4285714285714285
 40
0.4285714285714285
 40
0.4285714285714285
 40
0.5714285714285714
 40
0.5714285714285714
 40
0.5714285714285714
 40
0.5714285714285714
 40
0.7142857142857143
 40
0.7142857142857143
 40
0.7142857142857143
 40
0.7142857142857143
 40
1.0
 40
1.0
 40
1.0
 40
1.0
 10
8.1651
 20
-24.4606
 30
0.0
 10
8.1651
 20
-24.4606
 30
0.0
 10
8.096
 20
-24.0758
 30
0.0
 10
8.096
 20
-24.0758
 30
0.0
 10
8.096
 20
-24.0758
 30
0.0
 10
8.096
 20
-24.0758
 30
0.0
 10
8.096
 20
-23.7452
 30
0.0
 10
8.096
 20
-23.7452
 30
0.0
 10
8.096
 20
-23.7452
 30
0.0
 10
8.096
 20
-23.7452
 30
0.0
 10
8.3786
 20
-23.7452
 30
0.0
 10
8.3786
 20
-23.7452
 30
0.0
 10
8.3786
 20
-23.7452
 30
0.0
 10
8.3786
 20
-23.7452
 30
0.0
 10
8.3786
 20
-24.0758
 30
0.0
 10
8.3786
 20
-24.0758
 30
0.0
 10
8.3786
 20
-24.0758
 30
0.0
 10
8.3786
 20
-24.0758
 30
0.0
 10
8.3166
 20
-24.4606
 30
0.0
 10
8.3166
 20
-24.4606
 30
0.0
 10
8.3166
 20
-24.4606
 30
0.0
 10
8.3166
 20
-24.4606
 30
0.0
 10
8.1651
 20
-24.4606
 30
0.0
 10
8.1651
 20
-24.4606
 30
0.0
  0
SPLINE
  5
67
330
1F
100
AcDbEntity
  8
DEFAULT_1
 62
   250
100
AcDbSpline
210
0.0
220
0.0
230
1.0
 70
    11
 71
     3
 72
    28
 73
    24
 74
     0
 42
0.0000000001
 43
0.0000000001
 40
0.0
 40
0.0
 40
0.0
 40
0.0
 40
0.1428571428571428
 40
0.1428571428571428
 40
0.1428571428571428
 40
0.1428571428571428
 40
0.2857142857142857
 40
0.2857142857142857
 40
0.2857142857142857
 40
0.2857142857142857
 40
0.4285714285714285
 40
0.4285714285714285
 40
0.4285714285714285
 40
0.4285714285714285
 40
0.5714285714285714
 40
0.5714285714285714
 40
0.5714285714285714
 40
0.5714285714285714
 40
0.7142857142857143
 40
0.7142857142857143
 40
0.7142857142857143
 40
0.7142857142857143
 40
1.0
 40
1.0
 40
1.0
 40
1.0
 10
8.6214
 20
-24.4606
 30
0.0
 10
8.6214
 20
-24.4606
 30
0.0
 10
8.5536
 20
-24.0758
 30
0.0
 10
8.5536
 20
-24.0758
 30
0.0
 10
8.5536
 20
-24.0758
 30
0.0
 10
8.5536
 20
-24.0758
 30
0.0
 10
8.5536
 20
-23.7452
 30
0.0
 10
8.5536
 20
-23.7452
 30
0.0
 10
8.5536
 20
-23.7452
 30
0.0
 10
8.5536
 20
-23.7452
 30
0.0
 10
8.8363
 20
-23.7452
 30
0.0
 10
8.8363
 20
-23.7452
 30
0.0
 10
8.8363
 20
-23.7452
 30
0.0
 10
8.8363
 20
-23.7452
 30
0.0
 10
8.8363
 20
-24.0758
 30
0.0
 10
8.8363
 20
-24.0758
 30
0.0
 10
8.8363
 20
-24.0758
 30
0.0
 10
8.8363
 20
-24.0758
 30
0.0
 10
8.77
 20
-24.4606
 30
0.0
 10
8.77
 20
-24.4606
 30
0.0
 10
8.77
 20
-24.4606
 30
0.0
 10
8.77
 20
-24.4606
 30
0.0
 10
8.6214
 20
-24.4606
 30
0.0
 10
8.6214
 20
-24.4606
 30
0.0
  0
SPLINE
  5
68
330
1F
100
AcDbEntity
  8
DEFAULT_1
 62
   250
100
AcDbSpline
210
0.0
220
0.0
230
1.0
 70
    11
 71
     3
 72
    84
 73
    80
 74
     0
 42
0.0000000001
 43
0.0000000001
 40
0.0
 40
0.0
 40
0.0
 40
0.0
 40
0.0476190476190476
 40
0.0476190476190476
 40
0.0476190476190476
 40
0.0476190476190476
 40
0.0952380952380952
 40
0.0952380952380952
 40
0.0952380952380952
 40
0.0952380952380952
 40
0.1428571428571428
 40
0.1428571428571428
 40
0.1428571428571428
 40
0.1428571428571428
 40
0.1904761904761905
 40
0.1904761904761905
 40
0.1904761904761905
 40
0.1904761904761905
 40
0.2380952380952381
 40
0.2380952380952381
 40
0.2380952380952381
 40
0.2380952380952381
 40
0.2857142857142857
 40
0.2857142857142857
 40
0.2857142857142857
 40
0.2857142857142857
 40
0.3333333333333333
 40
0.3333333333333333
 40
0.3333333333333333
 40
0.3333333333333333
 40
0.3809523809523809
 40
0.3809523809523809
 40
0.3809523809523809
 40
0.3809523809523809
 40
0.4285714285714285
 40
0.4285714285714285
 40
0.4285714285714285
 40
0.4285714285714285
 40
0.4761904761904762
 40
0.4761904761904762
 40
0.4761904761904762
 40
0.4761904761904762
 40
0.5238095238095238
 40
0.5238095238095238
 40
0.5238095238095238
 40
0.5238095238095238
 40
0.5714285714285714
 40
0.5714285714285714
 40
0.5714285714285714
 40
0.5714285714285714
 40
0.6190476190476191
 40
0.6190476190476191
 40
0.6190476190476191
 40
0.6190476190476191
 40
0.6666666666666666
 40
0.6666666666666666
 40
0.6666666666666666
 40
0.6666666666666666
 40
0.7142857142857143
 40
0.7142857142857143
 40
0.7142857142857143
 40
0.7142857142857143
 40
0.7619047619047619
 40
0.7619047619047619
 40
0.7619047619047619
 40
0.7619047619047619
 40
0.8095238095238095
 40
0.8095238095238095
 40
0.8095238095238095
 40
0.8095238095238095
 40
0.8571428571428571
 40
0.8571428571428571
 40
0.8571428571428571
 40
0.8571428571428571
 40
0.9047619047619048
 40
0.9047619047619048
 40
0.9047619047619048
 40
0.9047619047619048
 40
1.0
 40
1.0
 40
1.0
 40
1.0
 10
3.6017
 20
-28.8909
 30
0.0
 10
3.6017
 20
-28.8909
 30
0.0
 10
3.8331
 20
-28.6318
 30
0.0
 10
3.8331
 20
-28.6318
 30
0.0
 10
3.8331
 20
-28.6318
 30
0.0
 10
3.8331
 20
-28.6318
 30
0.0
 10
3.9695
 20
-28.7475
 30
0.0
 10
3.9695
 20
-28.7475
 30
0.0
 10
3.9695
 20
-28.7475
 30
0.0
 10
3.9695
 20
-28.7475
 30
0.0
 10
3.7273
 20
-29.0203
 30
0.0
 10
3.7273
 20
-29.0203
 30
0.0
 10
3.7273
 20
-29.0203
 30
0.0
 10
3.8063
 20
-29.1379
 30
0.0
 10
3.8594
 20
-29.2409
 30
0.0
 10
3.8872
 20
-29.3288
 30
0.0
 10
3.8872
 20
-29.3288
 30
0.0
 10
3.9239
 20
-29.4446
 30
0.0
 10
3.9422
 20
-29.5744
 30
0.0
 10
3.9422
 20
-29.7174
 30
0.0
 10
3.9422
 20
-29.7174
 30
0.0
 10
3.9422
 20
-29.9243
 30
0.0
 10
3.9004
 20
-30.1087
 30
0.0
 10
3.8166
 20
-30.27
 30
0.0
 10
3.8166
 20
-30.27
 30
0.0
 10
3.7329
 20
-30.4319
 30
0.0
 10
3.6158
 20
-30.5541
 30
0.0
 10
3.4648
 20
-30.6369
 30
0.0
 10
3.4648
 20
-30.6369
 30
0.0
 10
3.3133
 20
-30.7192
 30
0.0
 10
3.153
 20
-30.7606
 30
0.0
 10
2.9832
 20
-30.7606
 30
0.0
 10
2.9832
 20
-30.7606
 30
0.0
 10
2.8562
 20
-30.7606
 30
0.0
 10
2.7414
 20
-30.7428
 30
0.0
 10
2.6384
 20
-30.707
 30
0.0
 10
2.6384
 20
-30.707
 30
0.0
 10
2.5594
 20
-30.6793
 30
0.0
 10
2.4672
 20
-30.6266
 30
0.0
 10
2.3613
 20
-30.5485
 30
0.0
 10
2.3613
 20
-30.5485
 30
0.0
 10
2.3613
 20
-30.5485
 30
0.0
 10
2.1299
 20
-30.8077
 30
0.0
 10
2.1299
 20
-30.8077
 30
0.0
 10
2.1299
 20
-30.8077
 30
0.0
 10
2.1299
 20
-30.8077
 30
0.0
 10
1.9935
 20
-30.692
 30
0.0
 10
1.9935
 20
-30.692
 30
0.0
 10
1.9935
 20
-30.692
 30
0.0
 10
1.9935
 20
-30.692
 30
0.0
 10
2.2362
 20
-30.4206
 30
0.0
 10
2.2362
 20
-30.4206
 30
0.0
 10
2.2362
 20
-30.4206
 30
0.0
 10
2.1459
 20
-30.2837
 30
0.0
 10
2.0857
 20
-30.1666
 30
0.0
 10
2.0556
 20
-30.0697
 30
0.0
 10
2.0556
 20
-30.0697
 30
0.0
 10
2.0255
 20
-29.9728
 30
0.0
 10
2.01
 20
-29.8561
 30
0.0
 10
2.01
 20
-29.7202
 30
0.0
 10
2.01
 20
-29.7202
 30
0.0
 10
2.01
 20
-29.5128
 30
0.0
 10
2.0514
 20
-29.3279
 30
0.0
 10
2.1341
 20
-29.1656
 30
0.0
 10
2.1341
 20
-29.1656
 30
0.0
 10
2.2169
 20
-29.0033
 30
0.0
 10
2.3326
 20
-28.8806
 30
0.0
 10
2.4822
 20
-28.7969
 30
0.0
 10
2.4822
 20
-28.7969
 30
0.0
 10
2.6313
 20
-28.7136
 30
0.0
 10
2.7974
 20
-28.6717
 30
0.0
 10
2.9803
 20
-28.6717
 30
0.0
 10
2.9803
 20
-28.6717
 30
0.0
 10
3.1036
 20
-28.6717
 30
0.0
 10
3.2113
 20
-28.6877
 30
0.0
 10
3.3035
 20
-28.7207
 30
0.0
 10
3.3035
 20
-28.7207
 30
0.0
 10
3.3957
 20
-28.7531
 30
0.0
 10
3.4954
 20
-28.81
 30
0.0
 10
3.6017
 20
-28.8909
 30
0.0
  0
SPLINE
  5
69
330
1F
100
AcDbEntity
  8
DEFAULT_1
 62
   250
100
AcDbSpline
210
0.0
220
0.0
230
1.0
 70
    11
 71
     3
 72
    32
 73
    28
 74
     0
 42
0.0000000001
 43
0.0000000001
 40
0.0
 40
0.0
 40
0.0
 40
0.0
 40
0.125
 40
0.125
 40
0.125
 40
0.125
 40
0.25
 40
0.25
 40
0.25
 40
0.25
 40
0.375
 40
0.375
 40
0.375
 40
0.375
 40
0.5
 40
0.5
 40
0.5
 40
0.5
 40
0.625
 40
0.625
 40
0.625
 40
0.625
 40
0.75
 40
0.75
 40
0.75
 40
0.75
 40
1.0
 40
1.0
 40
1.0
 40
1.0
 10
3.4366
 20
-29.0767
 30
0.0
 10
3.35
 20
-29.009
 30
0.0
 10
3.2743
 20
-28.9624
 30
0.0
 10
3.2099
 20
-28.9375
 30
0.0
 10
3.2099
 20
-28.9375
 30
0.0
 10
3.145
 20
-28.913
 30
0.0
 10
3.0688
 20
-28.9003
 30
0.0
 10
2.9817
 20
-28.9003
 30
0.0
 10
2.9817
 20
-28.9003
 30
0.0
 10
2.7804
 20
-28.9003
 30
0.0
 10
2.6144
 20
-28.9685
 30
0.0
 10
2.4827
 20
-29.1049
 30
0.0
 10
2.4827
 20
-29.1049
 30
0.0
 10
2.3514
 20
-29.2414
 30
0.0
 10
2.2856
 20
-29.445
 30
0.0
 10
2.2856
 20
-29.7164
 30
0.0
 10
2.2856
 20
-29.7164
 30
0.0
 10
2.2856
 20
-29.8227
 30
0.0
 10
2.2959
 20
-29.9173
 30
0.0
 10
2.3162
 20
-30.0001
 30
0.0
 10
2.3162
 20
-30.0001
 30
0.0
 10
2.3308
 20
-30.0617
 30
0.0
 10
2.3613
 20
-30.1374
 30
0.0
 10
2.4084
 20
-30.2272
 30
0.0
 10
2.4084
 20
-30.2272
 30
0.0
 10
2.4084
 20
-30.2272
 30
0.0
 10
3.4366
 20
-29.0767
 30
0.0
 10
3.4366
 20
-29.0767
 30
0.0
  0
SPLINE
  5
6A
330
1F
100
AcDbEntity
  8
DEFAULT_1
 62
   250
100
AcDbSpline
210
0.0
220
0.0
230
1.0
 70
    11
 71
     3
 72
    28
 73
    24
 74
     0
 42
0.0000000001
 43
0.0000000001
 40
0.0
 40
0.0
 40
0.0
 40
0.0
 40
0.1428571428571428
 40
0.1428571428571428
 40
0.1428571428571428
 40
0.1428571428571428
 40
0.2857142857142857
 40
0.2857142857142857
 40
0.2857142857142857
 40
0.2857142857142857
 40
0.4285714285714285
 40
0.4285714285714285
 40
0.4285714285714285
 40
0.4285714285714285
 40
0.5714285714285714
 40
0.5714285714285714
 40
0.5714285714285714
 40
0.5714285714285714
 40
0.7142857142857143
 40
0.7142857142857143
 40
0.7142857142857143
 40
0.7142857142857143
 40
1.0
 40
1.0
 40
1.0
 40
1.0
 10
3.5495
 20
-29.2188
 30
0.0
 10
3.5495
 20
-29.2188
 30
0.0
 10
2.5255
 20
-30.3651
 30
0.0
 10
2.5255
 20
-30.3651
 30
0.0
 10
2.5255
 20
-30.3651
 30
0.0
 10
2.596
 20
-30.4229
 30
0.0
 10
2.6614
 20
-30.4634
 30
0.0
 10
2.7212
 20
-30.4864
 30
0.0
 10
2.7212
 20
-30.4864
 30
0.0
 10
2.7992
 20
-30.517
 30
0.0
 10
2.8839
 20
-30.532
 30
0.0
 10
2.9747
 20
-30.532
 30
0.0
 10
2.9747
 20
-30.532
 30
0.0
 10
3.1751
 20
-30.532
 30
0.0
 10
3.3402
 20
-30.4615
 30
0.0
 10
3.4709
 20
-30.3199
 30
0.0
 10
3.4709
 20
-30.3199
 30
0.0
 10
3.6012
 20
-30.1783
 30
0.0
 10
3.6666
 20
-29.9798
 30
0.0
 10
3.6666
 20
-29.7244
 30
0.0
 10
3.6666
 20
-29.7244
 30
0.0
 10
3.6666
 20
-29.5335
 30
0.0
 10
3.6276
 20
-29.3646
 30
0.0
 10
3.5495
 20
-29.2188
 30
0.0
  0
SPLINE
  5
6B
330
1F
100
AcDbEntity
  8
DEFAULT_1
 62
   250
100
AcDbSpline
210
0.0
220
0.0
230
1.0
 70
    11
 71
     3
 72
    48
 73
    44
 74
     0
 42
0.0000000001
 43
0.0000000001
 40
0.0
 40
0.0
 40
0.0
 40
0.0
 40
0.0833333333333333
 40
0.0833333333333333
 40
0.0833333333333333
 40
0.0833333333333333
 40
0.1666666666666667
 40
0.1666666666666667
 40
0.1666666666666667
 40
0.1666666666666667
 40
0.25
 40
0.25
 40
0.25
 40
0.25
 40
0.3333333333333333
 40
0.3333333333333333
 40
0.3333333333333333
 40
0.3333333333333333
 40
0.4166666666666667
 40
0.4166666666666667
 40
0.4166666666666667
 40
0.4166666666666667
 40
0.5
 40
0.5
 40
0.5
 40
0.5
 40
0.5833333333333334
 40
0.5833333333333334
 40
0.5833333333333334
 40
0.5833333333333334
 40
0.6666666666666666
 40
0.6666666666666666
 40
0.6666666666666666
 40
0.6666666666666666
 40
0.75
 40
0.75
 40
0.75
 40
0.75
 40
0.8333333333333334
 40
0.8333333333333334
 40
0.8333333333333334
 40
0.8333333333333334
 40
1.0
 40
1.0
 40
1.0
 40
1.0
 10
4.9864
 20
-30.7263
 30
0.0
 10
4.9864
 20
-30.7263
 30
0.0
 10
4.9864
 20
-30.2428
 30
0.0
 10
4.9864
 20
-30.2428
 30
0.0
 10
4.9864
 20
-30.2428
 30
0.0
 10
4.9864
 20
-30.2428
 30
0.0
 10
4.1101
 20
-30.2428
 30
0.0
 10
4.1101
 20
-30.2428
 30
0.0
 10
4.1101
 20
-30.2428
 30
0.0
 10
4.1101
 20
-30.2428
 30
0.0
 10
4.1101
 20
-30.0151
 30
0.0
 10
4.1101
 20
-30.0151
 30
0.0
 10
4.1101
 20
-30.0151
 30
0.0
 10
4.1101
 20
-30.0151
 30
0.0
 10
5.0321
 20
-28.7061
 30
0.0
 10
5.0321
 20
-28.7061
 30
0.0
 10
5.0321
 20
-28.7061
 30
0.0
 10
5.0321
 20
-28.7061
 30
0.0
 10
5.2348
 20
-28.7061
 30
0.0
 10
5.2348
 20
-28.7061
 30
0.0
 10
5.2348
 20
-28.7061
 30
0.0
 10
5.2348
 20
-28.7061
 30
0.0
 10
5.2348
 20
-30.0151
 30
0.0
 10
5.2348
 20
-30.0151
 30
0.0
 10
5.2348
 20
-30.0151
 30
0.0
 10
5.2348
 20
-30.0151
 30
0.0
 10
5.5076
 20
-30.0151
 30
0.0
 10
5.5076
 20
-30.0151
 30
0.0
 10
5.5076
 20
-30.0151
 30
0.0
 10
5.5076
 20
-30.0151
 30
0.0
 10
5.5076
 20
-30.2428
 30
0.0
 10
5.5076
 20
-30.2428
 30
0.0
 10
5.5076
 20
-30.2428
 30
0.0
 10
5.5076
 20
-30.2428
 30
0.0
 10
5.2348
 20
-30.2428
 30
0.0
 10
5.2348
 20
-30.2428
 30
0.0
 10
5.2348
 20
-30.2428
 30
0.0
 10
5.2348
 20
-30.2428
 30
0.0
 10
5.2348
 20
-30.7263
 30
0.0
 10
5.2348
 20
-30.7263
 30
0.0
 10
5.2348
 20
-30.7263
 30
0.0
 10
5.2348
 20
-30.7263
 30
0.0
 10
4.9864
 20
-30.7263
 30
0.0
 10
4.9864
 20
-30.7263
 30
0.0
  0
SPLINE
  5
6C
330
1F
100
AcDbEntity
  8
DEFAULT_1
 62
   250
100
AcDbSpline
210
0.0
220
0.0
230
1.0
 70
    11
 71
     3
 72
    16
 73
    12
 74
     0
 42
0.0000000001
 43
0.0000000001
 40
0.0
 40
0.0
 40
0.0
 40
0.0
 40
0.25
 40
0.25
 40
0.25
 40
0.25
 40
0.5
 40
0.5
 40
0.5
 40
0.5
 40
1.0
 40
1.0
 40
1.0
 40
1.0
 10
4.9864
 20
-30.0151
 30
0.0
 10
4.9864
 20
-30.0151
 30
0.0
 10
4.9864
 20
-29.1045
 30
0.0
 10
4.9864
 20
-29.1045
 30
0.0
 10
4.9864
 20
-29.1045
 30
0.0
 10
4.9864
 20
-29.1045
 30
0.0
 10
4.3543
 20
-30.0151
 30
0.0
 10
4.3543
 20
-30.0151
 30
0.0
 10
4.3543
 20
-30.0151
 30
0.0
 10
4.3543
 20
-30.0151
 30
0.0
 10
4.9864
 20
-30.0151
 30
0.0
 10
4.9864
 20
-30.0151
 30
0.0
  0
SPLINE
  5
6D
330
1F
100
AcDbEntity
  8
DEFAULT_1
 62
   250
100
AcDbSpline
210
0.0
220
0.0
230
1.0
 70
    11
 71
     3
 72
   124
 73
   120
 74
     0
 42
0.0000000001
 43
0.0000000001
 40
0.0
 40
0.0
 40
0.0
 40
0.0
 40
0.032258064516129
 40
0.032258064516129
 40
0.032258064516129
 40
0.032258064516129
 40
0.0645161290322581
 40
0.0645161290322581
 40
0.0645161290322581
 40
0.0645161290322581
 40
0.0967741935483871
 40
0.0967741935483871
 40
0.0967741935483871
 40
0.0967741935483871
 40
0.1290322580645161
 40
0.1290322580645161
 40
0.1290322580645161
 40
0.1290322580645161
 40
0.1612903225806452
 40
0.1612903225806452
 40
0.1612903225806452
 40
0.1612903225806452
 40
0.1935483870967742
 40
0.1935483870967742
 40
0.1935483870967742
 40
0.1935483870967742
 40
0.2258064516129032
 40
0.2258064516129032
 40
0.2258064516129032
 40
0.2258064516129032
 40
0.2580645161290323
 40
0.2580645161290323
 40
0.2580645161290323
 40
0.2580645161290323
 40
0.2903225806451613
 40
0.2903225806451613
 40
0.2903225806451613
 40
0.2903225806451613
 40
0.3225806451612903
 40
0.3225806451612903
 40
0.3225806451612903
 40
0.3225806451612903
 40
0.3548387096774194
 40
0.3548387096774194
 40
0.3548387096774194
 40
0.3548387096774194
 40
0.3870967741935484
 40
0.3870967741935484
 40
0.3870967741935484
 40
0.3870967741935484
 40
0.4193548387096774
 40
0.4193548387096774
 40
0.4193548387096774
 40
0.4193548387096774
 40
0.4516129032258064
 40
0.4516129032258064
 40
0.4516129032258064
 40
0.4516129032258064
 40
0.4838709677419355
 40
0.4838709677419355
 40
0.4838709677419355
 40
0.4838709677419355
 40
0.5161290322580645
 40
0.5161290322580645
 40
0.5161290322580645
 40
0.5161290322580645
 40
0.5483870967741935
 40
0.5483870967741935
 40
0.5483870967741935
 40
0.5483870967741935
 40
0.5806451612903226
 40
0.5806451612903226
 40
0.5806451612903226
 40
0.5806451612903226
 40
0.6129032258064516
 40
0.6129032258064516
 40
0.6129032258064516
 40
0.6129032258064516
 40
0.6451612903225806
 40
0.6451612903225806
 40
0.6451612903225806
 40
0.6451612903225806
 40
0.6774193548387096
 40
0.6774193548387096
 40
0.6774193548387096
 40
0.6774193548387096
 40
0.7096774193548387
 40
0.7096774193548387
 40
0.7096774193548387
 40
0.7096774193548387
 40
0.7419354838709677
 40
0.7419354838709677
 40
0.7419354838709677
 40
0.7419354838709677
 40
0.7741935483870968
 40
0.7741935483870968
 40
0.7741935483870968
 40
0.7741935483870968
 40
0.8064516129032258
 40
0.8064516129032258
 40
0.8064516129032258
 40
0.8064516129032258
 40
0.8387096774193549
 40
0.8387096774193549
 40
0.8387096774193549
 40
0.8387096774193549
 40
0.8709677419354839
 40
0.8709677419354839
 40
0.8709677419354839
 40
0.8709677419354839
 40
0.9032258064516129
 40
0.9032258064516129
 40
0.9032258064516129
 40
0.9032258064516129
 40
0.9354838709677419
 40
0.9354838709677419
 40
0.9354838709677419
 40
0.9354838709677419
 40
1.0
 40
1.0
 40
1.0
 40
1.0
 10
5.7625
 20
-30.1929
 30
0.0
 10
5.7625
 20
-30.1929
 30
0.0
 10
6.0104
 20
-30.16
 30
0.0
 10
6.0104
 20
-30.16
 30
0.0
 10
6.0104
 20
-30.16
 30
0.0
 10
6.0391
 20
-30.3006
 30
0.0
 10
6.0876
 20
-30.4017
 30
0.0
 10
6.1558
 20
-30.4638
 30
0.0
 10
6.1558
 20
-30.4638
 30
0.0
 10
6.2244
 20
-30.5259
 30
0.0
 10
6.3077
 20
-30.557
 30
0.0
 10
6.406
 20
-30.557
 30
0.0
 10
6.406
 20
-30.557
 30
0.0
 10
6.5226
 20
-30.557
 30
0.0
 10
6.6214
 20
-30.5165
 30
0.0
 10
6.7019
 20
-30.4356
 30
0.0
 10
6.7019
 20
-30.4356
 30
0.0
 10
6.7818
 20
-30.3547
 30
0.0
 10
6.8223
 20
-30.2545
 30
0.0
 10
6.8223
 20
-30.135
 30
0.0
 10
6.8223
 20
-30.135
 30
0.0
 10
6.8223
 20
-30.0212
 30
0.0
 10
6.7851
 20
-29.9271
 30
0.0
 10
6.7108
 20
-29.8533
 30
0.0
 10
6.7108
 20
-29.8533
 30
0.0
 10
6.636
 20
-29.7795
 30
0.0
 10
6.5415
 20
-29.7423
 30
0.0
 10
6.4267
 20
-29.7423
 30
0.0
 10
6.4267
 20
-29.7423
 30
0.0
 10
6.3797
 20
-29.7423
 30
0.0
 10
6.3213
 20
-29.7517
 30
0.0
 10
6.2517
 20
-29.77
 30
0.0
 10
6.2517
 20
-29.77
 30
0.0
 10
6.2517
 20
-29.77
 30
0.0
 10
6.2795
 20
-29.5523
 30
0.0
 10
6.2795
 20
-29.5523
 30
0.0
 10
6.2795
 20
-29.5523
 30
0.0
 10
6.2959
 20
-29.5541
 30
0.0
 10
6.3091
 20
-29.5551
 30
0.0
 10
6.3194
 20
-29.5551
 30
0.0
 10
6.3194
 20
-29.5551
 30
0.0
 10
6.4248
 20
-29.5551
 30
0.0
 10
6.5198
 20
-29.5273
 30
0.0
 10
6.6045
 20
-29.4723
 30
0.0
 10
6.6045
 20
-29.4723
 30
0.0
 10
6.6892
 20
-29.4173
 30
0.0
 10
6.7315
 20
-29.3321
 30
0.0
 10
6.7315
 20
-29.2174
 30
0.0
 10
6.7315
 20
-29.2174
 30
0.0
 10
6.7315
 20
-29.1266
 30
0.0
 10
6.7004
 20
-29.0509
 30
0.0
 10
6.6388
 20
-28.9916
 30
0.0
 10
6.6388
 20
-28.9916
 30
0.0
 10
6.5772
 20
-28.9319
 30
0.0
 10
6.4977
 20
-28.9017
 30
0.0
 10
6.4003
 20
-28.9017
 30
0.0
 10
6.4003
 20
-28.9017
 30
0.0
 10
6.3039
 20
-28.9017
 30
0.0
 10
6.2235
 20
-28.9323
 30
0.0
 10
6.1595
 20
-28.9925
 30
0.0
 10
6.1595
 20
-28.9925
 30
0.0
 10
6.0951
 20
-29.0532
 30
0.0
 10
6.0537
 20
-29.1445
 30
0.0
 10
6.0353
 20
-29.2658
 30
0.0
 10
6.0353
 20
-29.2658
 30
0.0
 10
6.0353
 20
-29.2658
 30
0.0
 10
5.7875
 20
-29.2216
 30
0.0
 10
5.7875
 20
-29.2216
 30
0.0
 10
5.7875
 20
-29.2216
 30
0.0
 10
5.8176
 20
-29.0551
 30
0.0
 10
5.8867
 20
-28.9262
 30
0.0
 10
5.994
 20
-28.835
 30
0.0
 10
5.994
 20
-28.835
 30
0.0
 10
6.1017
 20
-28.7437
 30
0.0
 10
6.2353
 20
-28.6976
 30
0.0
 10
6.3952
 20
-28.6976
 30
0.0
 10
6.3952
 20
-28.6976
 30
0.0
 10
6.5052
 20
-28.6976
 30
0.0
 10
6.6068
 20
-28.7216
 30
0.0
 10
6.6995
 20
-28.7686
 30
0.0
 10
6.6995
 20
-28.7686
 30
0.0
 10
6.7922
 20
-28.8161
 30
0.0
 10
6.8632
 20
-28.8806
 30
0.0
 10
6.9126
 20
-28.9624
 30
0.0
 10
6.9126
 20
-28.9624
 30
0.0
 10
6.9615
 20
-29.0443
 30
0.0
 10
6.9864
 20
-29.1308
 30
0.0
 10
6.9864
 20
-29.223
 30
0.0
 10
6.9864
 20
-29.223
 30
0.0
 10
6.9864
 20
-29.31
 30
0.0
 10
6.9629
 20
-29.3895
 30
0.0
 10
6.9159
 20
-29.4615
 30
0.0
 10
6.9159
 20
-29.4615
 30
0.0
 10
6.8688
 20
-29.533
 30
0.0
 10
6.7997
 20
-29.5899
 30
0.0
 10
6.708
 20
-29.6322
 30
0.0
 10
6.708
 20
-29.6322
 30
0.0
 10
6.8274
 20
-29.6595
 30
0.0
 10
6.9201
 20
-29.7169
 30
0.0
 10
6.9864
 20
-29.8039
 30
0.0
 10
6.9864
 20
-29.8039
 30
0.0
 10
7.0523
 20
-29.8905
 30
0.0
 10
7.0852
 20
-29.9991
 30
0.0
 10
7.0852
 20
-30.1294
 30
0.0
 10
7.0852
 20
-30.1294
 30
0.0
 10
7.0852
 20
-30.3058
 30
0.0
 10
7.0212
 20
-30.4554
 30
0.0
 10
6.8924
 20
-30.5781
 30
0.0
 10
6.8924
 20
-30.5781
 30
0.0
 10
6.7639
 20
-30.7009
 30
0.0
 10
6.6012
 20
-30.762
 30
0.0
 10
6.4046
 20
-30.762
 30
0.0
 10
6.4046
 20
-30.762
 30
0.0
 10
6.2273
 20
-30.762
 30
0.0
 10
6.08
 20
-30.7094
 30
0.0
 10
5.9629
 20
-30.6035
 30
0.0
 10
5.9629
 20
-30.6035
 30
0.0
 10
5.8458
 20
-30.4982
 30
0.0
 10
5.779
 20
-30.3613
 30
0.0
 10
5.7625
 20
-30.1929
 30
0.0
  0
SPLINE
  5
6E
330
1F
100
AcDbEntity
  8
DEFAULT_1
 62
   250
100
AcDbSpline
210
0.0
220
0.0
230
1.0
 70
    11
 71
     3
 72
    20
 73
    16
 74
     0
 42
0.0000000001
 43
0.0000000001
 40
0.0
 40
0.0
 40
0.0
 40
0.0
 40
0.2
 40
0.2
 40
0.2
 40
0.2
 40
0.4
 40
0.4
 40
0.4
 40
0.4
 40
0.6
 40
0.6
 40
0.6
 40
0.6
 40
1.0
 40
1.0
 40
1.0
 40
1.0
 10
9.8913
 20
-30.866
 30
0.0
 10
9.8913
 20
-30.866
 30
0.0
 10
12.8914
 20
-31.2894
 30
0.0
 10
12.8914
 20
-31.2894
 30
0.0
 10
12.8914
 20
-31.2894
 30
0.0
 10
12.8914
 20
-31.2894
 30
0.0
 10
12.8914
 20
-31.3834
 30
0.0
 10
12.8914
 20
-31.3834
 30
0.0
 10
12.8914
 20
-31.3834
 30
0.0
 10
12.8914
 20
-31.3834
 30
0.0
 10
9.8913
 20
-31.8349
 30
0.0
 10
9.8913
 20
-31.8349
 30
0.0
 10
9.8913
 20
-31.8349
 30
0.0
 10
9.8913
 20
-31.8349
 30
0.0
 10
9.8913
 20
-30.866
 30
0.0
 10
9.8913
 20
-30.866
 30
0.0
  0
SPLINE
  5
6F
330
1F
100
AcDbEntity
  8
DEFAULT_1
 62
   250
100
AcDbSpline
210
0.0
220
0.0
230
1.0
 70
    11
 71
     3
 72
    20
 73
    16
 74
     0
 42
0.0000000001
 43
0.0000000001
 40
0.0
 40
0.0
 40
0.0
 40
0.0
 40
0.2
 40
0.2
 40
0.2
 40
0.2
 40
0.4
 40
0.4
 40
0.4
 40
0.4
 40
0.6
 40
0.6
 40
0.6
 40
0.6
 40
1.0
 40
1.0
 40
1.0
 40
1.0
 10
-1.0488
 20
-31.8439
 30
0.0
 10
-1.0488
 20
-31.8439
 30
0.0
 10
-4.0489
 20
-31.4205
 30
0.0
 10
-4.0489
 20
-31.4205
 30
0.0
 10
-4.0489
 20
-31.4205
 30
0.0
 10
-4.0489
 20
-31.4205
 30
0.0
 10
-4.0489
 20
-31.3265
 30
0.0
 10
-4.0489
 20
-31.3265
 30
0.0
 10
-4.0489
 20
-31.3265
 30
0.0
 10
-4.0489
 20
-31.3265
 30
0.0
 10
-1.0488
 20
-30.875
 30
0.0
 10
-1.0488
 20
-30.875
 30
0.0
 10
-1.0488
 20
-30.875
 30
0.0
 10
-1.0488
 20
-30.875
 30
0.0
 10
-1.0488
 20
-31.8439
 30
0.0
 10
-1.0488
 20
-31.8439
 30
0.0
  0
SPLINE
  5
70
330
1F
100
AcDbEntity
  8
DEFAULT_1
 62
   250
100
AcDbSpline
210
0.0
220
0.0
230
1.0
 70
    11
 71
     3
 72
    40
 73
    36
 74
     0
 42
0.0000000001
 43
0.0000000001
 40
0.0
 40
0.0
 40
0.0
 40
0.0
 40
0.1
 40
0.1
 40
0.1
 40
0.1
 40
0.2
 40
0.2
 40
0.2
 40
0.2
 40
0.3
 40
0.3
 40
0.3
 40
0.3
 40
0.4
 40
0.4
 40
0.4
 40
0.4
 40
0.5
 40
0.5
 40
0.5
 40
0.5
 40
0.6
 40
0.6
 40
0.6
 40
0.6
 40
0.7
 40
0.7
 40
0.7
 40
0.7
 40
0.8
 40
0.8
 40
0.8
 40
0.8
 40
1.0
 40
1.0
 40
1.0
 40
1.0
 10
-8.1538
 20
-19.4288
 30
0.0
 10
-8.1538
 20
-19.4288
 30
0.0
 10
-8.1538
 20
-19.6767
 30
0.0
 10
-8.1538
 20
-19.6767
 30
0.0
 10
-8.1538
 20
-19.6767
 30
0.0
 10
-8.1538
 20
-19.6767
 30
0.0
 10
-9.7342
 20
-19.6767
 30
0.0
 10
-9.7342
 20
-19.6767
 30
0.0
 10
-9.7342
 20
-19.6767
 30
0.0
 10
-9.6773
 20
-19.7365
 30
0.0
 10
-9.6204
 20
-19.8145
 30
0.0
 10
-9.5635
 20
-19.9114
 30
0.0
 10
-9.5635
 20
-19.9114
 30
0.0
 10
-9.5066
 20
-20.0088
 30
0.0
 10
-9.4638
 20
-20.0958
 30
0.0
 10
-9.4355
 20
-20.173
 30
0.0
 10
-9.4355
 20
-20.173
 30
0.0
 10
-9.4355
 20
-20.173
 30
0.0
 10
-9.675
 20
-20.173
 30
0.0
 10
-9.675
 20
-20.173
 30
0.0
 10
-9.675
 20
-20.173
 30
0.0
 10
-9.7403
 20
-20.0342
 30
0.0
 10
-9.8194
 20
-19.9128
 30
0.0
 10
-9.912
 20
-19.8089
 30
0.0
 10
-9.912
 20
-19.8089
 30
0.0
 10
-10.0052
 20
-19.7054
 30
0.0
 10
-10.095
 20
-19.6316
 30
0.0
 10
-10.1825
 20
-19.5883
 30
0.0
 10
-10.1825
 20
-19.5883
 30
0.0
 10
-10.1825
 20
-19.5883
 30
0.0
 10
-10.1825
 20
-19.4288
 30
0.0
 10
-10.1825
 20
-19.4288
 30
0.0
 10
-10.1825
 20
-19.4288
 30
0.0
 10
-10.1825
 20
-19.4288
 30
0.0
 10
-8.1538
 20
-19.4288
 30
0.0
 10
-8.1538
 20
-19.4288
 30
0.0
  0
SPLINE
  5
71
330
1F
100
AcDbEntity
  8
DEFAULT_1
 62
   250
100
AcDbSpline
210
0.0
220
0.0
230
1.0
 70
    11
 71
     3
 72
    40
 73
    36
 74
     0
 42
0.0000000001
 43
0.0000000001
 40
0.0
 40
0.0
 40
0.0
 40
0.0
 40
0.1
 40
0.1
 40
0.1
 40
0.1
 40
0.2
 40
0.2
 40
0.2
 40
0.2
 40
0.3
 40
0.3
 40
0.3
 40
0.3
 40
0.4
 40
0.4
 40
0.4
 40
0.4
 40
0.5
 40
0.5
 40
0.5
 40
0.5
 40
0.6
 40
0.6
 40
0.6
 40
0.6
 40
0.7
 40
0.7
 40
0.7
 40
0.7
 40
0.8
 40
0.8
 40
0.8
 40
0.8
 40
1.0
 40
1.0
 40
1.0
 40
1.0
 10
-8.1538
 20
-18.0685
 30
0.0
 10
-8.1538
 20
-18.0685
 30
0.0
 10
-8.1538
 20
-18.3164
 30
0.0
 10
-8.1538
 20
-18.3164
 30
0.0
 10
-8.1538
 20
-18.3164
 30
0.0
 10
-8.1538
 20
-18.3164
 30
0.0
 10
-9.7342
 20
-18.3164
 30
0.0
 10
-9.7342
 20
-18.3164
 30
0.0
 10
-9.7342
 20
-18.3164
 30
0.0
 10
-9.6773
 20
-18.3762
 30
0.0
 10
-9.6204
 20
-18.4542
 30
0.0
 10
-9.5635
 20
-18.5511
 30
0.0
 10
-9.5635
 20
-18.5511
 30
0.0
 10
-9.5066
 20
-18.6485
 30
0.0
 10
-9.4638
 20
-18.7355
 30
0.0
 10
-9.4355
 20
-18.8127
 30
0.0
 10
-9.4355
 20
-18.8127
 30
0.0
 10
-9.4355
 20
-18.8127
 30
0.0
 10
-9.675
 20
-18.8127
 30
0.0
 10
-9.675
 20
-18.8127
 30
0.0
 10
-9.675
 20
-18.8127
 30
0.0
 10
-9.7403
 20
-18.6739
 30
0.0
 10
-9.8194
 20
-18.5525
 30
0.0
 10
-9.912
 20
-18.4486
 30
0.0
 10
-9.912
 20
-18.4486
 30
0.0
 10
-10.0052
 20
-18.3451
 30
0.0
 10
-10.095
 20
-18.2713
 30
0.0
 10
-10.1825
 20
-18.228
 30
0.0
 10
-10.1825
 20
-18.228
 30
0.0
 10
-10.1825
 20
-18.228
 30
0.0
 10
-10.1825
 20
-18.0685
 30
0.0
 10
-10.1825
 20
-18.0685
 30
0.0
 10
-10.1825
 20
-18.0685
 30
0.0
 10
-10.1825
 20
-18.0685
 30
0.0
 10
-8.1538
 20
-18.0685
 30
0.0
 10
-8.1538
 20
-18.0685
 30
0.0
  0
SPLINE
  5
72
330
1F
100
AcDbEntity
  8
DEFAULT_1
 62
   250
100
AcDbSpline
210
0.0
220
0.0
230
1.0
 70
    11
 71
     3
 72
   116
 73
   112
 74
     0
 42
0.0000000001
 43
0.0000000001
 40
0.0
 40
0.0
 40
0.0
 40
0.0
 40
0.0344827586206897
 40
0.0344827586206897
 40
0.0344827586206897
 40
0.0344827586206897
 40
0.0689655172413793
 40
0.0689655172413793
 40
0.0689655172413793
 40
0.0689655172413793
 40
0.103448275862069
 40
0.103448275862069
 40
0.103448275862069
 40
0.103448275862069
 40
0.1379310344827586
 40
0.1379310344827586
 40
0.1379310344827586
 40
0.1379310344827586
 40
0.1724137931034483
 40
0.1724137931034483
 40
0.1724137931034483
 40
0.1724137931034483
 40
0.2068965517241379
 40
0.2068965517241379
 40
0.2068965517241379
 40
0.2068965517241379
 40
0.2413793103448276
 40
0.2413793103448276
 40
0.2413793103448276
 40
0.2413793103448276
 40
0.2758620689655172
 40
0.2758620689655172
 40
0.2758620689655172
 40
0.2758620689655172
 40
0.3103448275862069
 40
0.3103448275862069
 40
0.3103448275862069
 40
0.3103448275862069
 40
0.3448275862068966
 40
0.3448275862068966
 40
0.3448275862068966
 40
0.3448275862068966
 40
0.3793103448275862
 40
0.3793103448275862
 40
0.3793103448275862
 40
0.3793103448275862
 40
0.4137931034482759
 40
0.4137931034482759
 40
0.4137931034482759
 40
0.4137931034482759
 40
0.4482758620689655
 40
0.4482758620689655
 40
0.4482758620689655
 40
0.4482758620689655
 40
0.4827586206896552
 40
0.4827586206896552
 40
0.4827586206896552
 40
0.4827586206896552
 40
0.5172413793103449
 40
0.5172413793103449
 40
0.5172413793103449
 40
0.5172413793103449
 40
0.5517241379310345
 40
0.5517241379310345
 40
0.5517241379310345
 40
0.5517241379310345
 40
0.5862068965517241
 40
0.5862068965517241
 40
0.5862068965517241
 40
0.5862068965517241
 40
0.6206896551724138
 40
0.6206896551724138
 40
0.6206896551724138
 40
0.6206896551724138
 40
0.6551724137931034
 40
0.6551724137931034
 40
0.6551724137931034
 40
0.6551724137931034
 40
0.6896551724137931
 40
0.6896551724137931
 40
0.6896551724137931
 40
0.6896551724137931
 40
0.7241379310344828
 40
0.7241379310344828
 40
0.7241379310344828
 40
0.7241379310344828
 40
0.7586206896551724
 40
0.7586206896551724
 40
0.7586206896551724
 40
0.7586206896551724
 40
0.7931034482758621
 40
0.7931034482758621
 40
0.7931034482758621
 40
0.7931034482758621
 40
0.8275862068965517
 40
0.8275862068965517
 40
0.8275862068965517
 40
0.8275862068965517
 40
0.8620689655172413
 40
0.8620689655172413
 40
0.8620689655172413
 40
0.8620689655172413
 40
0.896551724137931
 40
0.896551724137931
 40
0.896551724137931
 40
0.896551724137931
 40
0.9310344827586207
 40
0.9310344827586207
 40
0.9310344827586207
 40
0.9310344827586207
 40
1.0
 40
1.0
 40
1.0
 40
1.0
 10
-14.053
 20
6.2777
 30
0.0
 10
-14.053
 20
6.2777
 30
0.0
 10
-15.5163
 20
6.2777
 30
0.0
 10
-15.5163
 20
6.2777
 30
0.0
 10
-15.5163
 20
6.2777
 30
0.0
 10
-15.5163
 20
6.2777
 30
0.0
 10
-15.5163
 20
6.4992
 30
0.0
 10
-15.5163
 20
6.4992
 30
0.0
 10
-15.5163
 20
6.4992
 30
0.0
 10
-15.5163
 20
6.4992
 30
0.0
 10
-15.3112
 20
6.4992
 30
0.0
 10
-15.3112
 20
6.4992
 30
0.0
 10
-15.3112
 20
6.4992
 30
0.0
 10
-15.3827
 20
6.5453
 30
0.0
 10
-15.4406
 20
6.6065
 30
0.0
 10
-15.4839
 20
6.6827
 30
0.0
 10
-15.4839
 20
6.6827
 30
0.0
 10
-15.5276
 20
6.7589
 30
0.0
 10
-15.5497
 20
6.8459
 30
0.0
 10
-15.5497
 20
6.9432
 30
0.0
 10
-15.5497
 20
6.9432
 30
0.0
 10
-15.5497
 20
7.0514
 30
0.0
 10
-15.5271
 20
7.1403
 30
0.0
 10
-15.482
 20
7.2095
 30
0.0
 10
-15.482
 20
7.2095
 30
0.0
 10
-15.4368
 20
7.2791
 30
0.0
 10
-15.3743
 20
7.328
 30
0.0
 10
-15.2934
 20
7.3562
 30
0.0
 10
-15.2934
 20
7.3562
 30
0.0
 10
-15.4641
 20
7.4724
 30
0.0
 10
-15.5497
 20
7.6229
 30
0.0
 10
-15.5497
 20
7.8082
 30
0.0
 10
-15.5497
 20
7.8082
 30
0.0
 10
-15.5497
 20
7.9536
 30
0.0
 10
-15.5093
 20
8.0651
 30
0.0
 10
-15.4288
 20
8.1431
 30
0.0
 10
-15.4288
 20
8.1431
 30
0.0
 10
-15.3484
 20
8.2212
 30
0.0
 10
-15.2247
 20
8.2603
 30
0.0
 10
-15.0577
 20
8.2603
 30
0.0
 10
-15.0577
 20
8.2603
 30
0.0
 10
-15.0577
 20
8.2603
 30
0.0
 10
-14.053
 20
8.2603
 30
0.0
 10
-14.053
 20
8.2603
 30
0.0
 10
-14.053
 20
8.2603
 30
0.0
 10
-14.053
 20
8.2603
 30
0.0
 10
-14.053
 20
8.0138
 30
0.0
 10
-14.053
 20
8.0138
 30
0.0
 10
-14.053
 20
8.0138
 30
0.0
 10
-14.053
 20
8.0138
 30
0.0
 10
-14.9749
 20
8.0138
 30
0.0
 10
-14.9749
 20
8.0138
 30
0.0
 10
-14.9749
 20
8.0138
 30
0.0
 10
-15.0742
 20
8.0138
 30
0.0
 10
-15.1457
 20
8.0058
 30
0.0
 10
-15.1894
 20
7.9898
 30
0.0
 10
-15.1894
 20
7.9898
 30
0.0
 10
-15.2327
 20
7.9733
 30
0.0
 10
-15.268
 20
7.9442
 30
0.0
 10
-15.2948
 20
7.9023
 30
0.0
 10
-15.2948
 20
7.9023
 30
0.0
 10
-15.3211
 20
7.86
 30
0.0
 10
-15.3347
 20
7.8101
 30
0.0
 10
-15.3347
 20
7.7532
 30
0.0
 10
-15.3347
 20
7.7532
 30
0.0
 10
-15.3347
 20
7.6502
 30
0.0
 10
-15.3004
 20
7.5651
 30
0.0
 10
-15.2317
 20
7.4969
 30
0.0
 10
-15.2317
 20
7.4969
 30
0.0
 10
-15.1635
 20
7.4291
 30
0.0
 10
-15.0539
 20
7.3948
 30
0.0
 10
-14.9034
 20
7.3948
 30
0.0
 10
-14.9034
 20
7.3948
 30
0.0
 10
-14.9034
 20
7.3948
 30
0.0
 10
-14.053
 20
7.3948
 30
0.0
 10
-14.053
 20
7.3948
 30
0.0
 10
-14.053
 20
7.3948
 30
0.0
 10
-14.053
 20
7.3948
 30
0.0
 10
-14.053
 20
7.1469
 30
0.0
 10
-14.053
 20
7.1469
 30
0.0
 10
-14.053
 20
7.1469
 30
0.0
 10
-14.053
 20
7.1469
 30
0.0
 10
-15.0036
 20
7.1469
 30
0.0
 10
-15.0036
 20
7.1469
 30
0.0
 10
-15.0036
 20
7.1469
 30
0.0
 10
-15.1141
 20
7.1469
 30
0.0
 10
-15.1969
 20
7.1267
 30
0.0
 10
-15.252
 20
7.0862
 30
0.0
 10
-15.252
 20
7.0862
 30
0.0
 10
-15.307
 20
7.0458
 30
0.0
 10
-15.3347
 20
6.9799
 30
0.0
 10
-15.3347
 20
6.8877
 30
0.0
 10
-15.3347
 20
6.8877
 30
0.0
 10
-15.3347
 20
6.8181
 30
0.0
 10
-15.3164
 20
6.7537
 30
0.0
 10
-15.2792
 20
6.6944
 30
0.0
 10
-15.2792
 20
6.6944
 30
0.0
 10
-15.2426
 20
6.6351
 30
0.0
 10
-15.1889
 20
6.5919
 30
0.0
 10
-15.1184
 20
6.5655
 30
0.0
 10
-15.1184
 20
6.5655
 30
0.0
 10
-15.0474
 20
6.5387
 30
0.0
 10
-14.9453
 20
6.5255
 30
0.0
 10
-14.8122
 20
6.5255
 30
0.0
 10
-14.8122
 20
6.5255
 30
0.0
 10
-14.8122
 20
6.5255
 30
0.0
 10
-14.053
 20
6.5255
 30
0.0
 10
-14.053
 20
6.5255
 30
0.0
 10
-14.053
 20
6.5255
 30
0.0
 10
-14.053
 20
6.5255
 30
0.0
 10
-14.053
 20
6.2777
 30
0.0
 10
-14.053
 20
6.2777
 30
0.0
  0
SPLINE
  5
73
330
1F
100
AcDbEntity
  8
DEFAULT_1
 62
   250
100
AcDbSpline
210
0.0
220
0.0
230
1.0
 70
    11
 71
     3
 72
   112
 73
   108
 74
     0
 42
0.0000000001
 43
0.0000000001
 40
0.0
 40
0.0
 40
0.0
 40
0.0
 40
0.0357142857142857
 40
0.0357142857142857
 40
0.0357142857142857
 40
0.0357142857142857
 40
0.0714285714285714
 40
0.0714285714285714
 40
0.0714285714285714
 40
0.0714285714285714
 40
0.1071428571428571
 40
0.1071428571428571
 40
0.1071428571428571
 40
0.1071428571428571
 40
0.1428571428571428
 40
0.1428571428571428
 40
0.1428571428571428
 40
0.1428571428571428
 40
0.1785714285714286
 40
0.1785714285714286
 40
0.1785714285714286
 40
0.1785714285714286
 40
0.2142857142857143
 40
0.2142857142857143
 40
0.2142857142857143
 40
0.2142857142857143
 40
0.25
 40
0.25
 40
0.25
 40
0.25
 40
0.2857142857142857
 40
0.2857142857142857
 40
0.2857142857142857
 40
0.2857142857142857
 40
0.3214285714285715
 40
0.3214285714285715
 40
0.3214285714285715
 40
0.3214285714285715
 40
0.3571428571428572
 40
0.3571428571428572
 40
0.3571428571428572
 40
0.3571428571428572
 40
0.3928571428571428
 40
0.3928571428571428
 40
0.3928571428571428
 40
0.3928571428571428
 40
0.4285714285714285
 40
0.4285714285714285
 40
0.4285714285714285
 40
0.4285714285714285
 40
0.4642857142857143
 40
0.4642857142857143
 40
0.4642857142857143
 40
0.4642857142857143
 40
0.5
 40
0.5
 40
0.5
 40
0.5
 40
0.5357142857142857
 40
0.5357142857142857
 40
0.5357142857142857
 40
0.5357142857142857
 40
0.5714285714285714
 40
0.5714285714285714
 40
0.5714285714285714
 40
0.5714285714285714
 40
0.6071428571428571
 40
0.6071428571428571
 40
0.6071428571428571
 40
0.6071428571428571
 40
0.6428571428571429
 40
0.6428571428571429
 40
0.6428571428571429
 40
0.6428571428571429
 40
0.6785714285714286
 40
0.6785714285714286
 40
0.6785714285714286
 40
0.6785714285714286
 40
0.7142857142857143
 40
0.7142857142857143
 40
0.7142857142857143
 40
0.7142857142857143
 40
0.75
 40
0.75
 40
0.75
 40
0.75
 40
0.7857142857142857
 40
0.7857142857142857
 40
0.7857142857142857
 40
0.7857142857142857
 40
0.8214285714285714
 40
0.8214285714285714
 40
0.8214285714285714
 40
0.8214285714285714
 40
0.8571428571428571
 40
0.8571428571428571
 40
0.8571428571428571
 40
0.8571428571428571
 40
0.8928571428571429
 40
0.8928571428571429
 40
0.8928571428571429
 40
0.8928571428571429
 40
0.9285714285714286
 40
0.9285714285714286
 40
0.9285714285714286
 40
0.9285714285714286
 40
1.0
 40
1.0
 40
1.0
 40
1.0
 10
-14.2336
 20
9.5834
 30
0.0
 10
-14.1555
 20
9.4912
 30
0.0
 10
-14.1005
 20
9.4028
 30
0.0
 10
-14.0681
 20
9.3181
 30
0.0
 10
-14.0681
 20
9.3181
 30
0.0
 10
-14.0361
 20
9.233
 30
0.0
 10
-14.0201
 20
9.1417
 30
0.0
 10
-14.0201
 20
9.0444
 30
0.0
 10
-14.0201
 20
9.0444
 30
0.0
 10
-14.0201
 20
8.8835
 30
0.0
 10
-14.0591
 20
8.7603
 30
0.0
 10
-14.1377
 20
8.6737
 30
0.0
 10
-14.1377
 20
8.6737
 30
0.0
 10
-14.2162
 20
8.5876
 30
0.0
 10
-14.3169
 20
8.5444
 30
0.0
 10
-14.4387
 20
8.5444
 30
0.0
 10
-14.4387
 20
8.5444
 30
0.0
 10
-14.5107
 20
8.5444
 30
0.0
 10
-14.576
 20
8.5604
 30
0.0
 10
-14.6353
 20
8.5933
 30
0.0
 10
-14.6353
 20
8.5933
 30
0.0
 10
-14.6946
 20
8.6257
 30
0.0
 10
-14.7421
 20
8.6685
 30
0.0
 10
-14.7778
 20
8.7212
 30
0.0
 10
-14.7778
 20
8.7212
 30
0.0
 10
-14.8136
 20
8.7744
 30
0.0
 10
-14.8409
 20
8.8336
 30
0.0
 10
-14.8592
 20
8.9
 30
0.0
 10
-14.8592
 20
8.9
 30
0.0
 10
-14.8719
 20
8.9484
 30
0.0
 10
-14.8846
 20
9.0218
 30
0.0
 10
-14.8964
 20
9.1201
 30
0.0
 10
-14.8964
 20
9.1201
 30
0.0
 10
-14.9204
 20
9.3205
 30
0.0
 10
-14.9486
 20
9.4682
 30
0.0
 10
-14.982
 20
9.5627
 30
0.0
 10
-14.982
 20
9.5627
 30
0.0
 10
-15.0158
 20
9.5637
 30
0.0
 10
-15.0375
 20
9.5641
 30
0.0
 10
-15.0464
 20
9.5641
 30
0.0
 10
-15.0464
 20
9.5641
 30
0.0
 10
-15.1475
 20
9.5641
 30
0.0
 10
-15.219
 20
9.5406
 30
0.0
 10
-15.26
 20
9.4936
 30
0.0
 10
-15.26
 20
9.4936
 30
0.0
 10
-15.3164
 20
9.4305
 30
0.0
 10
-15.3442
 20
9.336
 30
0.0
 10
-15.3442
 20
9.2113
 30
0.0
 10
-15.3442
 20
9.2113
 30
0.0
 10
-15.3442
 20
9.0947
 30
0.0
 10
-15.3239
 20
9.0086
 30
0.0
 10
-15.283
 20
8.9526
 30
0.0
 10
-15.283
 20
8.9526
 30
0.0
 10
-15.2421
 20
8.8971
 30
0.0
 10
-15.1697
 20
8.8562
 30
0.0
 10
-15.0657
 20
8.8294
 30
0.0
 10
-15.0657
 20
8.8294
 30
0.0
 10
-15.0657
 20
8.8294
 30
0.0
 10
-15.0991
 20
8.5872
 30
0.0
 10
-15.0991
 20
8.5872
 30
0.0
 10
-15.0991
 20
8.5872
 30
0.0
 10
-15.2026
 20
8.6093
 30
0.0
 10
-15.2868
 20
8.6455
 30
0.0
 10
-15.3503
 20
8.6958
 30
0.0
 10
-15.3503
 20
8.6958
 30
0.0
 10
-15.4142
 20
8.7462
 30
0.0
 10
-15.4636
 20
8.8195
 30
0.0
 10
-15.498
 20
8.915
 30
0.0
 10
-15.498
 20
8.915
 30
0.0
 10
-15.5323
 20
9.0105
 30
0.0
 10
-15.5497
 20
9.121
 30
0.0
 10
-15.5497
 20
9.2471
 30
0.0
 10
-15.5497
 20
9.2471
 30
0.0
 10
-15.5497
 20
9.3722
 30
0.0
 10
-15.5347
 20
9.4733
 30
0.0
 10
-15.5055
 20
9.5514
 30
0.0
 10
-15.5055
 20
9.5514
 30
0.0
 10
-15.4759
 20
9.6295
 30
0.0
 10
-15.4392
 20
9.6869
 30
0.0
 10
-15.3945
 20
9.724
 30
0.0
 10
-15.3945
 20
9.724
 30
0.0
 10
-15.3498
 20
9.7607
 30
0.0
 10
-15.2938
 20
9.7861
 30
0.0
 10
-15.2256
 20
9.8012
 30
0.0
 10
-15.2256
 20
9.8012
 30
0.0
 10
-15.1833
 20
9.8092
 30
0.0
 10
-15.1071
 20
9.8134
 30
0.0
 10
-14.997
 20
9.8134
 30
0.0
 10
-14.997
 20
9.8134
 30
0.0
 10
-14.997
 20
9.8134
 30
0.0
 10
-14.6664
 20
9.8134
 30
0.0
 10
-14.6664
 20
9.8134
 30
0.0
 10
-14.6664
 20
9.8134
 30
0.0
 10
-14.4354
 20
9.8134
 30
0.0
 10
-14.2896
 20
9.8186
 30
0.0
 10
-14.2289
 20
9.8294
 30
0.0
 10
-14.2289
 20
9.8294
 30
0.0
 10
-14.1678
 20
9.8398
 30
0.0
 10
-14.109
 20
9.8609
 30
0.0
 10
-14.053
 20
9.892
 30
0.0
 10
-14.053
 20
9.892
 30
0.0
 10
-14.053
 20
9.892
 30
0.0
 10
-14.053
 20
9.6328
 30
0.0
 10
-14.053
 20
9.6328
 30
0.0
 10
-14.053
 20
9.6328
 30
0.0
 10
-14.1043
 20
9.6074
 30
0.0
 10
-14.1645
 20
9.5905
 30
0.0
 10
-14.2336
 20
9.5834
 30
0.0
  0
SPLINE
  5
74
330
1F
100
AcDbEntity
  8
DEFAULT_1
 62
   250
100
AcDbSpline
210
0.0
220
0.0
230
1.0
 70
    11
 71
     3
 72
    44
 73
    40
 74
     0
 42
0.0000000001
 43
0.0000000001
 40
0.0
 40
0.0
 40
0.0
 40
0.0
 40
0.0909090909090909
 40
0.0909090909090909
 40
0.0909090909090909
 40
0.0909090909090909
 40
0.1818181818181818
 40
0.1818181818181818
 40
0.1818181818181818
 40
0.1818181818181818
 40
0.2727272727272727
 40
0.2727272727272727
 40
0.2727272727272727
 40
0.2727272727272727
 40
0.3636363636363636
 40
0.3636363636363636
 40
0.3636363636363636
 40
0.3636363636363636
 40
0.4545454545454545
 40
0.4545454545454545
 40
0.4545454545454545
 40
0.4545454545454545
 40
0.5454545454545454
 40
0.5454545454545454
 40
0.5454545454545454
 40
0.5454545454545454
 40
0.6363636363636364
 40
0.6363636363636364
 40
0.6363636363636364
 40
0.6363636363636364
 40
0.7272727272727273
 40
0.7272727272727273
 40
0.7272727272727273
 40
0.7272727272727273
 40
0.8181818181818182
 40
0.8181818181818182
 40
0.8181818181818182
 40
0.8181818181818182
 40
1.0
 40
1.0
 40
1.0
 40
1.0
 10
-14.7877
 20
9.5627
 30
0.0
 10
-14.7506
 20
9.4724
 30
0.0
 10
-14.7195
 20
9.3374
 30
0.0
 10
-14.6936
 20
9.1577
 30
0.0
 10
-14.6936
 20
9.1577
 30
0.0
 10
-14.6791
 20
9.0557
 30
0.0
 10
-14.6626
 20
8.9832
 30
0.0
 10
-14.6443
 20
8.9414
 30
0.0
 10
-14.6443
 20
8.9414
 30
0.0
 10
-14.6259
 20
8.899
 30
0.0
 10
-14.5991
 20
8.8661
 30
0.0
 10
-14.5633
 20
8.8435
 30
0.0
 10
-14.5633
 20
8.8435
 30
0.0
 10
-14.5281
 20
8.8205
 30
0.0
 10
-14.489
 20
8.8087
 30
0.0
 10
-14.4458
 20
8.8087
 30
0.0
 10
-14.4458
 20
8.8087
 30
0.0
 10
-14.3794
 20
8.8087
 30
0.0
 10
-14.3244
 20
8.8341
 30
0.0
 10
-14.2802
 20
8.884
 30
0.0
 10
-14.2802
 20
8.884
 30
0.0
 10
-14.2364
 20
8.9338
 30
0.0
 10
-14.2143
 20
9.0072
 30
0.0
 10
-14.2143
 20
9.1036
 30
0.0
 10
-14.2143
 20
9.1036
 30
0.0
 10
-14.2143
 20
9.1991
 30
0.0
 10
-14.235
 20
9.2843
 30
0.0
 10
-14.2769
 20
9.3586
 30
0.0
 10
-14.2769
 20
9.3586
 30
0.0
 10
-14.3188
 20
9.4329
 30
0.0
 10
-14.3761
 20
9.4879
 30
0.0
 10
-14.4486
 20
9.5227
 30
0.0
 10
-14.4486
 20
9.5227
 30
0.0
 10
-14.5046
 20
9.5495
 30
0.0
 10
-14.5873
 20
9.5627
 30
0.0
 10
-14.6965
 20
9.5627
 30
0.0
 10
-14.6965
 20
9.5627
 30
0.0
 10
-14.6965
 20
9.5627
 30
0.0
 10
-14.7877
 20
9.5627
 30
0.0
 10
-14.7877
 20
9.5627
 30
0.0
  0
SPLINE
  5
75
330
1F
100
AcDbEntity
  8
DEFAULT_1
 62
   250
100
AcDbSpline
210
0.0
220
0.0
230
1.0
 70
    11
 71
     3
 72
    64
 73
    60
 74
     0
 42
0.0000000001
 43
0.0000000001
 40
0.0
 40
0.0
 40
0.0
 40
0.0
 40
0.0625
 40
0.0625
 40
0.0625
 40
0.0625
 40
0.125
 40
0.125
 40
0.125
 40
0.125
 40
0.1875
 40
0.1875
 40
0.1875
 40
0.1875
 40
0.25
 40
0.25
 40
0.25
 40
0.25
 40
0.3125
 40
0.3125
 40
0.3125
 40
0.3125
 40
0.375
 40
0.375
 40
0.375
 40
0.375
 40
0.4375
 40
0.4375
 40
0.4375
 40
0.4375
 40
0.5
 40
0.5
 40
0.5
 40
0.5
 40
0.5625
 40
0.5625
 40
0.5625
 40
0.5625
 40
0.625
 40
0.625
 40
0.625
 40
0.625
 40
0.6875
 40
0.6875
 40
0.6875
 40
0.6875
 40
0.75
 40
0.75
 40
0.75
 40
0.75
 40
0.8125
 40
0.8125
 40
0.8125
 40
0.8125
 40
0.875
 40
0.875
 40
0.875
 40
0.875
 40
1.0
 40
1.0
 40
1.0
 40
1.0
 10
-14.053
 20
10.0326
 30
0.0
 10
-14.053
 20
10.0326
 30
0.0
 10
-14.8136
 20
10.5674
 30
0.0
 10
-14.8136
 20
10.5674
 30
0.0
 10
-14.8136
 20
10.5674
 30
0.0
 10
-14.8136
 20
10.5674
 30
0.0
 10
-15.5163
 20
10.0726
 30
0.0
 10
-15.5163
 20
10.0726
 30
0.0
 10
-15.5163
 20
10.0726
 30
0.0
 10
-15.5163
 20
10.0726
 30
0.0
 10
-15.5163
 20
10.3825
 30
0.0
 10
-15.5163
 20
10.3825
 30
0.0
 10
-15.5163
 20
10.3825
 30
0.0
 10
-15.5163
 20
10.3825
 30
0.0
 10
-15.1734
 20
10.6074
 30
0.0
 10
-15.1734
 20
10.6074
 30
0.0
 10
-15.1734
 20
10.6074
 30
0.0
 10
-15.108
 20
10.6492
 30
0.0
 10
-15.0535
 20
10.6836
 30
0.0
 10
-15.0093
 20
10.709
 30
0.0
 10
-15.0093
 20
10.709
 30
0.0
 10
-15.0699
 20
10.7494
 30
0.0
 10
-15.1236
 20
10.7866
 30
0.0
 10
-15.1706
 20
10.8209
 30
0.0
 10
-15.1706
 20
10.8209
 30
0.0
 10
-15.1706
 20
10.8209
 30
0.0
 10
-15.5163
 20
11.0674
 30
0.0
 10
-15.5163
 20
11.0674
 30
0.0
 10
-15.5163
 20
11.0674
 30
0.0
 10
-15.5163
 20
11.0674
 30
0.0
 10
-15.5163
 20
11.3637
 30
0.0
 10
-15.5163
 20
11.3637
 30
0.0
 10
-15.5163
 20
11.3637
 30
0.0
 10
-15.5163
 20
11.3637
 30
0.0
 10
-14.8272
 20
10.8581
 30
0.0
 10
-14.8272
 20
10.8581
 30
0.0
 10
-14.8272
 20
10.8581
 30
0.0
 10
-14.8272
 20
10.8581
 30
0.0
 10
-14.053
 20
11.4023
 30
0.0
 10
-14.053
 20
11.4023
 30
0.0
 10
-14.053
 20
11.4023
 30
0.0
 10
-14.053
 20
11.4023
 30
0.0
 10
-14.053
 20
11.098
 30
0.0
 10
-14.053
 20
11.098
 30
0.0
 10
-14.053
 20
11.098
 30
0.0
 10
-14.053
 20
11.098
 30
0.0
 10
-14.5078
 20
10.7974
 30
0.0
 10
-14.5078
 20
10.7974
 30
0.0
 10
-14.5078
 20
10.7974
 30
0.0
 10
-14.5078
 20
10.7974
 30
0.0
 10
-14.6306
 20
10.7175
 30
0.0
 10
-14.6306
 20
10.7175
 30
0.0
 10
-14.6306
 20
10.7175
 30
0.0
 10
-14.6306
 20
10.7175
 30
0.0
 10
-14.053
 20
10.3332
 30
0.0
 10
-14.053
 20
10.3332
 30
0.0
 10
-14.053
 20
10.3332
 30
0.0
 10
-14.053
 20
10.3332
 30
0.0
 10
-14.053
 20
10.0326
 30
0.0
 10
-14.053
 20
10.0326
 30
0.0
  0
SPLINE
  5
76
330
1F
100
AcDbEntity
  8
DEFAULT_1
 62
   250
100
AcDbSpline
210
0.0
220
0.0
230
1.0
 70
    11
 71
     3
 72
    92
 73
    88
 74
     0
 42
0.0000000001
 43
0.0000000001
 40
0.0
 40
0.0
 40
0.0
 40
0.0
 40
0.0434782608695652
 40
0.0434782608695652
 40
0.0434782608695652
 40
0.0434782608695652
 40
0.0869565217391304
 40
0.0869565217391304
 40
0.0869565217391304
 40
0.0869565217391304
 40
0.1304347826086956
 40
0.1304347826086956
 40
0.1304347826086956
 40
0.1304347826086956
 40
0.1739130434782609
 40
0.1739130434782609
 40
0.1739130434782609
 40
0.1739130434782609
 40
0.2173913043478261
 40
0.2173913043478261
 40
0.2173913043478261
 40
0.2173913043478261
 40
0.2608695652173913
 40
0.2608695652173913
 40
0.2608695652173913
 40
0.2608695652173913
 40
0.3043478260869565
 40
0.3043478260869565
 40
0.3043478260869565
 40
0.3043478260869565
 40
0.3478260869565217
 40
0.3478260869565217
 40
0.3478260869565217
 40
0.3478260869565217
 40
0.391304347826087
 40
0.391304347826087
 40
0.391304347826087
 40
0.391304347826087
 40
0.4347826086956522
 40
0.4347826086956522
 40
0.4347826086956522
 40
0.4347826086956522
 40
0.4782608695652174
 40
0.4782608695652174
 40
0.4782608695652174
 40
0.4782608695652174
 40
0.5217391304347826
 40
0.5217391304347826
 40
0.5217391304347826
 40
0.5217391304347826
 40
0.5652173913043478
 40
0.5652173913043478
 40
0.5652173913043478
 40
0.5652173913043478
 40
0.6086956521739131
 40
0.6086956521739131
 40
0.6086956521739131
 40
0.6086956521739131
 40
0.6521739130434783
 40
0.6521739130434783
 40
0.6521739130434783
 40
0.6521739130434783
 40
0.6956521739130435
 40
0.6956521739130435
 40
0.6956521739130435
 40
0.6956521739130435
 40
0.7391304347826086
 40
0.7391304347826086
 40
0.7391304347826086
 40
0.7391304347826086
 40
0.782608695652174
 40
0.782608695652174
 40
0.782608695652174
 40
0.782608695652174
 40
0.8260869565217391
 40
0.8260869565217391
 40
0.8260869565217391
 40
0.8260869565217391
 40
0.8695652173913043
 40
0.8695652173913043
 40
0.8695652173913043
 40
0.8695652173913043
 40
0.9130434782608695
 40
0.9130434782608695
 40
0.9130434782608695
 40
0.9130434782608695
 40
1.0
 40
1.0
 40
1.0
 40
1.0
 10
-14.5822
 20
12.3242
 30
0.0
 10
-14.5822
 20
12.3242
 30
0.0
 10
-14.6043
 20
12.5848
 30
0.0
 10
-14.6043
 20
12.5848
 30
0.0
 10
-14.6043
 20
12.5848
 30
0.0
 10
-14.4773
 20
12.6041
 30
0.0
 10
-14.3823
 20
12.6488
 30
0.0
 10
-14.3183
 20
12.7189
 30
0.0
 10
-14.3183
 20
12.7189
 30
0.0
 10
-14.2543
 20
12.7894
 30
0.0
 10
-14.2223
 20
12.8741
 30
0.0
 10
-14.2223
 20
12.9733
 30
0.0
 10
-14.2223
 20
12.9733
 30
0.0
 10
-14.2223
 20
13.0928
 30
0.0
 10
-14.2675
 20
13.1939
 30
0.0
 10
-14.3573
 20
13.2762
 30
0.0
 10
-14.3573
 20
13.2762
 30
0.0
 10
-14.4476
 20
13.359
 30
0.0
 10
-14.5671
 20
13.4004
 30
0.0
 10
-14.7157
 20
13.4004
 30
0.0
 10
-14.7157
 20
13.4004
 30
0.0
 10
-14.8573
 20
13.4004
 30
0.0
 10
-14.9688
 20
13.3609
 30
0.0
 10
-15.0506
 20
13.2814
 30
0.0
 10
-15.0506
 20
13.2814
 30
0.0
 10
-15.1325
 20
13.2019
 30
0.0
 10
-15.1734
 20
13.098
 30
0.0
 10
-15.1734
 20
12.9691
 30
0.0
 10
-15.1734
 20
12.9691
 30
0.0
 10
-15.1734
 20
12.8891
 30
0.0
 10
-15.1551
 20
12.8172
 30
0.0
 10
-15.1189
 20
12.7527
 30
0.0
 10
-15.1189
 20
12.7527
 30
0.0
 10
-15.0826
 20
12.6883
 30
0.0
 10
-15.0356
 20
12.638
 30
0.0
 10
-14.9777
 20
12.6013
 30
0.0
 10
-14.9777
 20
12.6013
 30
0.0
 10
-14.9777
 20
12.6013
 30
0.0
 10
-15.0078
 20
12.3684
 30
0.0
 10
-15.0078
 20
12.3684
 30
0.0
 10
-15.0078
 20
12.3684
 30
0.0
 10
-15.0078
 20
12.3684
 30
0.0
 10
-16.0455
 20
12.5641
 30
0.0
 10
-16.0455
 20
12.5641
 30
0.0
 10
-16.0455
 20
12.5641
 30
0.0
 10
-16.0455
 20
12.5641
 30
0.0
 10
-16.0455
 20
13.5688
 30
0.0
 10
-16.0455
 20
13.5688
 30
0.0
 10
-16.0455
 20
13.5688
 30
0.0
 10
-16.0455
 20
13.5688
 30
0.0
 10
-15.8084
 20
13.5688
 30
0.0
 10
-15.8084
 20
13.5688
 30
0.0
 10
-15.8084
 20
13.5688
 30
0.0
 10
-15.8084
 20
13.5688
 30
0.0
 10
-15.8084
 20
12.7626
 30
0.0
 10
-15.8084
 20
12.7626
 30
0.0
 10
-15.8084
 20
12.7626
 30
0.0
 10
-15.8084
 20
12.7626
 30
0.0
 10
-15.2656
 20
12.6535
 30
0.0
 10
-15.2656
 20
12.6535
 30
0.0
 10
-15.2656
 20
12.6535
 30
0.0
 10
-15.3503
 20
12.7748
 30
0.0
 10
-15.3926
 20
12.9023
 30
0.0
 10
-15.3926
 20
13.0354
 30
0.0
 10
-15.3926
 20
13.0354
 30
0.0
 10
-15.3926
 20
13.2118
 30
0.0
 10
-15.3315
 20
13.3604
 30
0.0
 10
-15.2092
 20
13.4818
 30
0.0
 10
-15.2092
 20
13.4818
 30
0.0
 10
-15.0869
 20
13.6031
 30
0.0
 10
-14.9298
 20
13.6638
 30
0.0
 10
-14.7379
 20
13.6638
 30
0.0
 10
-14.7379
 20
13.6638
 30
0.0
 10
-14.5549
 20
13.6638
 30
0.0
 10
-14.3968
 20
13.6102
 30
0.0
 10
-14.2637
 20
13.5039
 30
0.0
 10
-14.2637
 20
13.5039
 30
0.0
 10
-14.1005
 20
13.3741
 30
0.0
 10
-14.0187
 20
13.1972
 30
0.0
 10
-14.0187
 20
12.9733
 30
0.0
 10
-14.0187
 20
12.9733
 30
0.0
 10
-14.0187
 20
12.7894
 30
0.0
 10
-14.0699
 20
12.6394
 30
0.0
 10
-14.1729
 20
12.5232
 30
0.0
 10
-14.1729
 20
12.5232
 30
0.0
 10
-14.276
 20
12.407
 30
0.0
 10
-14.4124
 20
12.3407
 30
0.0
 10
-14.5822
 20
12.3242
 30
0.0
  0
SPLINE
  5
77
330
1F
100
AcDbEntity
  8
DEFAULT_1
 62
   250
100
AcDbSpline
210
0.0
220
0.0
230
1.0
 70
    11
 71
     3
 72
    52
 73
    48
 74
     0
 42
0.0000000001
 43
0.0000000001
 40
0.0
 40
0.0
 40
0.0
 40
0.0
 40
0.0769230769230769
 40
0.0769230769230769
 40
0.0769230769230769
 40
0.0769230769230769
 40
0.1538461538461539
 40
0.1538461538461539
 40
0.1538461538461539
 40
0.1538461538461539
 40
0.2307692307692308
 40
0.2307692307692308
 40
0.2307692307692308
 40
0.2307692307692308
 40
0.3076923076923077
 40
0.3076923076923077
 40
0.3076923076923077
 40
0.3076923076923077
 40
0.3846153846153846
 40
0.3846153846153846
 40
0.3846153846153846
 40
0.3846153846153846
 40
0.4615384615384616
 40
0.4615384615384616
 40
0.4615384615384616
 40
0.4615384615384616
 40
0.5384615384615384
 40
0.5384615384615384
 40
0.5384615384615384
 40
0.5384615384615384
 40
0.6153846153846154
 40
0.6153846153846154
 40
0.6153846153846154
 40
0.6153846153846154
 40
0.6923076923076923
 40
0.6923076923076923
 40
0.6923076923076923
 40
0.6923076923076923
 40
0.7692307692307693
 40
0.7692307692307693
 40
0.7692307692307693
 40
0.7692307692307693
 40
0.8461538461538461
 40
0.8461538461538461
 40
0.8461538461538461
 40
0.8461538461538461
 40
1.0
 40
1.0
 40
1.0
 40
1.0
 10
-15.0492
 20
13.8938
 30
0.0
 10
-15.2882
 20
13.8938
 30
0.0
 10
-15.4806
 20
13.9183
 30
0.0
 10
-15.6259
 20
13.9677
 30
0.0
 10
-15.6259
 20
13.9677
 30
0.0
 10
-15.7717
 20
14.0166
 30
0.0
 10
-15.8841
 20
14.09
 30
0.0
 10
-15.9632
 20
14.1869
 30
0.0
 10
-15.9632
 20
14.1869
 30
0.0
 10
-16.0422
 20
14.2838
 30
0.0
 10
-16.0817
 20
14.4056
 30
0.0
 10
-16.0817
 20
14.5523
 30
0.0
 10
-16.0817
 20
14.5523
 30
0.0
 10
-16.0817
 20
14.661
 30
0.0
 10
-16.0596
 20
14.756
 30
0.0
 10
-16.0158
 20
14.8378
 30
0.0
 10
-16.0158
 20
14.8378
 30
0.0
 10
-15.9726
 20
14.9197
 30
0.0
 10
-15.9095
 20
14.987
 30
0.0
 10
-15.8272
 20
15.0406
 30
0.0
 10
-15.8272
 20
15.0406
 30
0.0
 10
-15.7449
 20
15.0937
 30
0.0
 10
-15.6447
 20
15.1356
 30
0.0
 10
-15.5267
 20
15.1657
 30
0.0
 10
-15.5267
 20
15.1657
 30
0.0
 10
-15.4086
 20
15.1963
 30
0.0
 10
-15.2496
 20
15.2113
 30
0.0
 10
-15.0492
 20
15.2113
 30
0.0
 10
-15.0492
 20
15.2113
 30
0.0
 10
-14.8122
 20
15.2113
 30
0.0
 10
-14.6212
 20
15.1869
 30
0.0
 10
-14.4754
 20
15.1384
 30
0.0
 10
-14.4754
 20
15.1384
 30
0.0
 10
-14.3296
 20
15.0895
 30
0.0
 10
-14.2172
 20
15.0166
 30
0.0
 10
-14.1377
 20
14.9197
 30
0.0
 10
-14.1377
 20
14.9197
 30
0.0
 10
-14.0582
 20
14.8228
 30
0.0
 10
-14.0187
 20
14.7005
 30
0.0
 10
-14.0187
 20
14.5523
 30
0.0
 10
-14.0187
 20
14.5523
 30
0.0
 10
-14.0187
 20
14.3576
 30
0.0
 10
-14.0883
 20
14.2047
 30
0.0
 10
-14.228
 20
14.0937
 30
0.0
 10
-14.228
 20
14.0937
 30
0.0
 10
-14.3959
 20
13.9606
 30
0.0
 10
-14.6701
 20
13.8938
 30
0.0
 10
-15.0492
 20
13.8938
 30
0.0
  0
SPLINE
  5
78
330
1F
100
AcDbEntity
  8
DEFAULT_1
 62
   250
100
AcDbSpline
210
0.0
220
0.0
230
1.0
 70
    11
 71
     3
 72
    36
 73
    32
 74
     0
 42
0.0000000001
 43
0.0000000001
 40
0.0
 40
0.0
 40
0.0
 40
0.0
 40
0.1111111111111111
 40
0.1111111111111111
 40
0.1111111111111111
 40
0.1111111111111111
 40
0.2222222222222222
 40
0.2222222222222222
 40
0.2222222222222222
 40
0.2222222222222222
 40
0.3333333333333333
 40
0.3333333333333333
 40
0.3333333333333333
 40
0.3333333333333333
 40
0.4444444444444444
 40
0.4444444444444444
 40
0.4444444444444444
 40
0.4444444444444444
 40
0.5555555555555556
 40
0.5555555555555556
 40
0.5555555555555556
 40
0.5555555555555556
 40
0.6666666666666666
 40
0.6666666666666666
 40
0.6666666666666666
 40
0.6666666666666666
 40
0.7777777777777778
 40
0.7777777777777778
 40
0.7777777777777778
 40
0.7777777777777778
 40
1.0
 40
1.0
 40
1.0
 40
1.0
 10
-15.0492
 20
14.1488
 30
0.0
 10
-14.7176
 20
14.1488
 30
0.0
 10
-14.497
 20
14.1878
 30
0.0
 10
-14.387
 20
14.2654
 30
0.0
 10
-14.387
 20
14.2654
 30
0.0
 10
-14.2774
 20
14.343
 30
0.0
 10
-14.2223
 20
14.4385
 30
0.0
 10
-14.2223
 20
14.5523
 30
0.0
 10
-14.2223
 20
14.5523
 30
0.0
 10
-14.2223
 20
14.6666
 30
0.0
 10
-14.2778
 20
14.7621
 30
0.0
 10
-14.3879
 20
14.8397
 30
0.0
 10
-14.3879
 20
14.8397
 30
0.0
 10
-14.498
 20
14.9173
 30
0.0
 10
-14.7186
 20
14.9564
 30
0.0
 10
-15.0492
 20
14.9564
 30
0.0
 10
-15.0492
 20
14.9564
 30
0.0
 10
-15.3818
 20
14.9564
 30
0.0
 10
-15.6029
 20
14.9173
 30
0.0
 10
-15.712
 20
14.8397
 30
0.0
 10
-15.712
 20
14.8397
 30
0.0
 10
-15.8216
 20
14.7621
 30
0.0
 10
-15.8761
 20
14.6657
 30
0.0
 10
-15.8761
 20
14.55
 30
0.0
 10
-15.8761
 20
14.55
 30
0.0
 10
-15.8761
 20
14.4357
 30
0.0
 10
-15.8277
 20
14.3449
 30
0.0
 10
-15.7313
 20
14.2767
 30
0.0
 10
-15.7313
 20
14.2767
 30
0.0
 10
-15.6085
 20
14.1916
 30
0.0
 10
-15.3808
 20
14.1488
 30
0.0
 10
-15.0492
 20
14.1488
 30
0.0
  0
SPLINE
  5
79
330
1F
100
AcDbEntity
  8
DEFAULT_1
 62
   250
100
AcDbSpline
210
0.0
220
0.0
230
1.0
 70
    11
 71
     3
 72
    20
 73
    16
 74
     0
 42
0.0000000001
 43
0.0000000001
 40
0.0
 40
0.0
 40
0.0
 40
0.0
 40
0.2
 40
0.2
 40
0.2
 40
0.2
 40
0.4
 40
0.4
 40
0.4
 40
0.4
 40
0.6
 40
0.6
 40
0.6
 40
0.6
 40
1.0
 40
1.0
 40
1.0
 40
1.0
 10
-13.4857
 20
1.7505
 30
0.0
 10
-13.4857
 20
1.7505
 30
0.0
 10
-13.0623
 20
4.7505
 30
0.0
 10
-13.0623
 20
4.7505
 30
0.0
 10
-13.0623
 20
4.7505
 30
0.0
 10
-13.0623
 20
4.7505
 30
0.0
 10
-12.9683
 20
4.7505
 30
0.0
 10
-12.9683
 20
4.7505
 30
0.0
 10
-12.9683
 20
4.7505
 30
0.0
 10
-12.9683
 20
4.7505
 30
0.0
 10
-12.5167
 20
1.7505
 30
0.0
 10
-12.5167
 20
1.7505
 30
0.0
 10
-12.5167
 20
1.7505
 30
0.0
 10
-12.5167
 20
1.7505
 30
0.0
 10
-13.4857
 20
1.7505
 30
0.0
 10
-13.4857
 20
1.7505
 30
0.0
  0
SPLINE
  5
7A
330
1F
100
AcDbEntity
  8
DEFAULT_1
 62
   250
100
AcDbSpline
210
0.0
220
0.0
230
1.0
 70
    11
 71
     3
 72
    20
 73
    16
 74
     0
 42
0.0000000001
 43
0.0000000001
 40
0.0
 40
0.0
 40
0.0
 40
0.0
 40
0.2
 40
0.2
 40
0.2
 40
0.2
 40
0.4
 40
0.4
 40
0.4
 40
0.4
 40
0.6
 40
0.6
 40
0.6
 40
0.6
 40
1.0
 40
1.0
 40
1.0
 40
1.0
 10
-12.515
 20
-18.2174
 30
0.0
 10
-12.515
 20
-18.2174
 30
0.0
 10
-12.9384
 20
-21.2174
 30
0.0
 10
-12.9384
 20
-21.2174
 30
0.0
 10
-12.9384
 20
-21.2174
 30
0.0
 10
-12.9384
 20
-21.2174
 30
0.0
 10
-13.0324
 20
-21.2174
 30
0.0
 10
-13.0324
 20
-21.2174
 30
0.0
 10
-13.0324
 20
-21.2174
 30
0.0
 10
-13.0324
 20
-21.2174
 30
0.0
 10
-13.484
 20
-18.2174
 30
0.0
 10
-13.484
 20
-18.2174
 30
0.0
 10
-13.484
 20
-18.2174
 30
0.0
 10
-13.484
 20
-18.2174
 30
0.0
 10
-12.515
 20
-18.2174
 30
0.0
 10
-12.515
 20
-18.2174
 30
0.0
  0
SPLINE
  5
7B
330
1F
100
AcDbEntity
  8
DEFAULT_1
 62
   250
100
AcDbSpline
210
0.0
220
0.0
230
1.0
 70
    11
 71
     3
 72
    20
 73
    16
 74
     0
 42
0.0000000001
 43
0.0000000001
 40
0.0
 40
0.0
 40
0.0
 40
0.0
 40
0.2
 40
0.2
 40
0.2
 40
0.2
 40
0.4
 40
0.4
 40
0.4
 40
0.4
 40
0.6
 40
0.6
 40
0.6
 40
0.6
 40
1.0
 40
1.0
 40
1.0
 40
1.0
 10
-13.4738
 20
13.7333
 30
0.0
 10
-13.4738
 20
13.7333
 30
0.0
 10
-13.0504
 20
16.7334
 30
0.0
 10
-13.0504
 20
16.7334
 30
0.0
 10
-13.0504
 20
16.7334
 30
0.0
 10
-13.0504
 20
16.7334
 30
0.0
 10
-12.9563
 20
16.7334
 30
0.0
 10
-12.9563
 20
16.7334
 30
0.0
 10
-12.9563
 20
16.7334
 30
0.0
 10
-12.9563
 20
16.7334
 30
0.0
 10
-12.5048
 20
13.7333
 30
0.0
 10
-12.5048
 20
13.7333
 30
0.0
 10
-12.5048
 20
13.7333
 30
0.0
 10
-12.5048
 20
13.7333
 30
0.0
 10
-13.4738
 20
13.7333
 30
0.0
 10
-13.4738
 20
13.7333
 30
0.0
  0
SPLINE
  5
7C
330
1F
100
AcDbEntity
  8
DEFAULT_1
 62
   250
100
AcDbSpline
210
0.0
220
0.0
230
1.0
 70
    11
 71
     3
 72
    20
 73
    16
 74
     0
 42
0.0000000001
 43
0.0000000001
 40
0.0
 40
0.0
 40
0.0
 40
0.0
 40
0.2
 40
0.2
 40
0.2
 40
0.2
 40
0.4
 40
0.4
 40
0.4
 40
0.4
 40
0.6
 40
0.6
 40
0.6
 40
0.6
 40
1.0
 40
1.0
 40
1.0
 40
1.0
 10
-12.5416
 20
7.8934
 30
0.0
 10
-12.5416
 20
7.8934
 30
0.0
 10
-12.965
 20
4.8933
 30
0.0
 10
-12.965
 20
4.8933
 30
0.0
 10
-12.965
 20
4.8933
 30
0.0
 10
-12.965
 20
4.8933
 30
0.0
 10
-13.059
 20
4.8933
 30
0.0
 10
-13.059
 20
4.8933
 30
0.0
 10
-13.059
 20
4.8933
 30
0.0
 10
-13.059
 20
4.8933
 30
0.0
 10
-13.5106
 20
7.8934
 30
0.0
 10
-13.5106
 20
7.8934
 30
0.0
 10
-13.5106
 20
7.8934
 30
0.0
 10
-13.5106
 20
7.8934
 30
0.0
 10
-12.5416
 20
7.8934
 30
0.0
 10
-12.5416
 20
7.8934
 30
0.0
  0
SPLINE
  5
7D
330
1F
100
AcDbEntity
  8
DEFAULT_1
 62
   250
100
AcDbSpline
210
0.0
220
0.0
230
1.0
 70
    11
 71
     3
 72
    20
 73
    16
 74
     0
 42
0.0000000001
 43
0.0000000001
 40
0.0
 40
0.0
 40
0.0
 40
0.0
 40
0.2
 40
0.2
 40
0.2
 40
0.2
 40
0.4
 40
0.4
 40
0.4
 40
0.4
 40
0.6
 40
0.6
 40
0.6
 40
0.6
 40
1.0
 40
1.0
 40
1.0
 40
1.0
 10
-8.2012
 20
-24.3507
 30
0.0
 10
-8.2012
 20
-24.3507
 30
0.0
 10
-7.7778
 20
-21.3507
 30
0.0
 10
-7.7778
 20
-21.3507
 30
0.0
 10
-7.7778
 20
-21.3507
 30
0.0
 10
-7.7778
 20
-21.3507
 30
0.0
 10
-7.6837
 20
-21.3507
 30
0.0
 10
-7.6837
 20
-21.3507
 30
0.0
 10
-7.6837
 20
-21.3507
 30
0.0
 10
-7.6837
 20
-21.3507
 30
0.0
 10
-7.2322
 20
-24.3507
 30
0.0
 10
-7.2322
 20
-24.3507
 30
0.0
 10
-7.2322
 20
-24.3507
 30
0.0
 10
-7.2322
 20
-24.3507
 30
0.0
 10
-8.2012
 20
-24.3507
 30
0.0
 10
-8.2012
 20
-24.3507
 30
0.0
  0
SPLINE
  5
7E
330
1F
100
AcDbEntity
  8
DEFAULT_1
 62
   250
100
AcDbSpline
210
0.0
220
0.0
230
1.0
 70
    11
 71
     3
 72
    20
 73
    16
 74
     0
 42
0.0000000001
 43
0.0000000001
 40
0.0
 40
0.0
 40
0.0
 40
0.0
 40
0.2
 40
0.2
 40
0.2
 40
0.2
 40
0.4
 40
0.4
 40
0.4
 40
0.4
 40
0.6
 40
0.6
 40
0.6
 40
0.6
 40
1.0
 40
1.0
 40
1.0
 40
1.0
 10
-7.231
 20
-14.0394
 30
0.0
 10
-7.231
 20
-14.0394
 30
0.0
 10
-7.6543
 20
-17.0395
 30
0.0
 10
-7.6543
 20
-17.0395
 30
0.0
 10
-7.6543
 20
-17.0395
 30
0.0
 10
-7.6543
 20
-17.0395
 30
0.0
 10
-7.7484
 20
-17.0395
 30
0.0
 10
-7.7484
 20
-17.0395
 30
0.0
 10
-7.7484
 20
-17.0395
 30
0.0
 10
-7.7484
 20
-17.0395
 30
0.0
 10
-8.1999
 20
-14.0394
 30
0.0
 10
-8.1999
 20
-14.0394
 30
0.0
 10
-8.1999
 20
-14.0394
 30
0.0
 10
-8.1999
 20
-14.0394
 30
0.0
 10
-7.231
 20
-14.0394
 30
0.0
 10
-7.231
 20
-14.0394
 30
0.0
  0
SPLINE
  5
7F
330
1F
100
AcDbEntity
  8
DEFAULT_1
 62
   250
100
AcDbSpline
210
0.0
220
0.0
230
1.0
 70
    11
 71
     3
 72
    84
 73
    80
 74
     0
 42
0.0000000001
 43
0.0000000001
 40
0.0
 40
0.0
 40
0.0
 40
0.0
 40
0.0476190476190476
 40
0.0476190476190476
 40
0.0476190476190476
 40
0.0476190476190476
 40
0.0952380952380952
 40
0.0952380952380952
 40
0.0952380952380952
 40
0.0952380952380952
 40
0.1428571428571428
 40
0.1428571428571428
 40
0.1428571428571428
 40
0.1428571428571428
 40
0.1904761904761905
 40
0.1904761904761905
 40
0.1904761904761905
 40
0.1904761904761905
 40
0.2380952380952381
 40
0.2380952380952381
 40
0.2380952380952381
 40
0.2380952380952381
 40
0.2857142857142857
 40
0.2857142857142857
 40
0.2857142857142857
 40
0.2857142857142857
 40
0.3333333333333333
 40
0.3333333333333333
 40
0.3333333333333333
 40
0.3333333333333333
 40
0.3809523809523809
 40
0.3809523809523809
 40
0.3809523809523809
 40
0.3809523809523809
 40
0.4285714285714285
 40
0.4285714285714285
 40
0.4285714285714285
 40
0.4285714285714285
 40
0.4761904761904762
 40
0.4761904761904762
 40
0.4761904761904762
 40
0.4761904761904762
 40
0.5238095238095238
 40
0.5238095238095238
 40
0.5238095238095238
 40
0.5238095238095238
 40
0.5714285714285714
 40
0.5714285714285714
 40
0.5714285714285714
 40
0.5714285714285714
 40
0.6190476190476191
 40
0.6190476190476191
 40
0.6190476190476191
 40
0.6190476190476191
 40
0.6666666666666666
 40
0.6666666666666666
 40
0.6666666666666666
 40
0.6666666666666666
 40
0.7142857142857143
 40
0.7142857142857143
 40
0.7142857142857143
 40
0.7142857142857143
 40
0.7619047619047619
 40
0.7619047619047619
 40
0.7619047619047619
 40
0.7619047619047619
 40
0.8095238095238095
 40
0.8095238095238095
 40
0.8095238095238095
 40
0.8095238095238095
 40
0.8571428571428571
 40
0.8571428571428571
 40
0.8571428571428571
 40
0.8571428571428571
 40
0.9047619047619048
 40
0.9047619047619048
 40
0.9047619047619048
 40
0.9047619047619048
 40
1.0
 40
1.0
 40
1.0
 40
1.0
 10
3.9449
 20
27.1229
 30
0.0
 10
3.9449
 20
27.1229
 30
0.0
 10
4.1763
 20
27.382
 30
0.0
 10
4.1763
 20
27.382
 30
0.0
 10
4.1763
 20
27.382
 30
0.0
 10
4.1763
 20
27.382
 30
0.0
 10
4.3127
 20
27.2663
 30
0.0
 10
4.3127
 20
27.2663
 30
0.0
 10
4.3127
 20
27.2663
 30
0.0
 10
4.3127
 20
27.2663
 30
0.0
 10
4.0705
 20
26.9935
 30
0.0
 10
4.0705
 20
26.9935
 30
0.0
 10
4.0705
 20
26.9935
 30
0.0
 10
4.1495
 20
26.8759
 30
0.0
 10
4.2026
 20
26.7729
 30
0.0
 10
4.2304
 20
26.685
 30
0.0
 10
4.2304
 20
26.685
 30
0.0
 10
4.2671
 20
26.5692
 30
0.0
 10
4.2854
 20
26.4394
 30
0.0
 10
4.2854
 20
26.2964
 30
0.0
 10
4.2854
 20
26.2964
 30
0.0
 10
4.2854
 20
26.0895
 30
0.0
 10
4.2436
 20
25.9051
 30
0.0
 10
4.1598
 20
25.7438
 30
0.0
 10
4.1598
 20
25.7438
 30
0.0
 10
4.0761
 20
25.5819
 30
0.0
 10
3.959
 20
25.4597
 30
0.0
 10
3.808
 20
25.3769
 30
0.0
 10
3.808
 20
25.3769
 30
0.0
 10
3.6565
 20
25.2946
 30
0.0
 10
3.4962
 20
25.2532
 30
0.0
 10
3.3264
 20
25.2532
 30
0.0
 10
3.3264
 20
25.2532
 30
0.0
 10
3.1994
 20
25.2532
 30
0.0
 10
3.0846
 20
25.271
 30
0.0
 10
2.9816
 20
25.3068
 30
0.0
 10
2.9816
 20
25.3068
 30
0.0
 10
2.9026
 20
25.3345
 30
0.0
 10
2.8104
 20
25.3872
 30
0.0
 10
2.7045
 20
25.4653
 30
0.0
 10
2.7045
 20
25.4653
 30
0.0
 10
2.7045
 20
25.4653
 30
0.0
 10
2.4731
 20
25.2061
 30
0.0
 10
2.4731
 20
25.2061
 30
0.0
 10
2.4731
 20
25.2061
 30
0.0
 10
2.4731
 20
25.2061
 30
0.0
 10
2.3367
 20
25.3218
 30
0.0
 10
2.3367
 20
25.3218
 30
0.0
 10
2.3367
 20
25.3218
 30
0.0
 10
2.3367
 20
25.3218
 30
0.0
 10
2.5794
 20
25.5932
 30
0.0
 10
2.5794
 20
25.5932
 30
0.0
 10
2.5794
 20
25.5932
 30
0.0
 10
2.4891
 20
25.7301
 30
0.0
 10
2.4289
 20
25.8472
 30
0.0
 10
2.3988
 20
25.9441
 30
0.0
 10
2.3988
 20
25.9441
 30
0.0
 10
2.3687
 20
26.041
 30
0.0
 10
2.3532
 20
26.1577
 30
0.0
 10
2.3532
 20
26.2936
 30
0.0
 10
2.3532
 20
26.2936
 30
0.0
 10
2.3532
 20
26.501
 30
0.0
 10
2.3946
 20
26.6859
 30
0.0
 10
2.4773
 20
26.8482
 30
0.0
 10
2.4773
 20
26.8482
 30
0.0
 10
2.5601
 20
27.0105
 30
0.0
 10
2.6758
 20
27.1332
 30
0.0
 10
2.8254
 20
27.2169
 30
0.0
 10
2.8254
 20
27.2169
 30
0.0
 10
2.9745
 20
27.3002
 30
0.0
 10
3.1406
 20
27.3421
 30
0.0
 10
3.3235
 20
27.3421
 30
0.0
 10
3.3235
 20
27.3421
 30
0.0
 10
3.4468
 20
27.3421
 30
0.0
 10
3.5545
 20
27.3261
 30
0.0
 10
3.6467
 20
27.2931
 30
0.0
 10
3.6467
 20
27.2931
 30
0.0
 10
3.7389
 20
27.2607
 30
0.0
 10
3.8386
 20
27.2038
 30
0.0
 10
3.9449
 20
27.1229
 30
0.0
  0
SPLINE
  5
80
330
1F
100
AcDbEntity
  8
DEFAULT_1
 62
   250
100
AcDbSpline
210
0.0
220
0.0
230
1.0
 70
    11
 71
     3
 72
    32
 73
    28
 74
     0
 42
0.0000000001
 43
0.0000000001
 40
0.0
 40
0.0
 40
0.0
 40
0.0
 40
0.125
 40
0.125
 40
0.125
 40
0.125
 40
0.25
 40
0.25
 40
0.25
 40
0.25
 40
0.375
 40
0.375
 40
0.375
 40
0.375
 40
0.5
 40
0.5
 40
0.5
 40
0.5
 40
0.625
 40
0.625
 40
0.625
 40
0.625
 40
0.75
 40
0.75
 40
0.75
 40
0.75
 40
1.0
 40
1.0
 40
1.0
 40
1.0
 10
3.7798
 20
26.9371
 30
0.0
 10
3.6932
 20
27.0048
 30
0.0
 10
3.6175
 20
27.0514
 30
0.0
 10
3.5531
 20
27.0763
 30
0.0
 10
3.5531
 20
27.0763
 30
0.0
 10
3.4882
 20
27.1008
 30
0.0
 10
3.412
 20
27.1135
 30
0.0
 10
3.3249
 20
27.1135
 30
0.0
 10
3.3249
 20
27.1135
 30
0.0
 10
3.1236
 20
27.1135
 30
0.0
 10
2.9576
 20
27.0453
 30
0.0
 10
2.8259
 20
26.9089
 30
0.0
 10
2.8259
 20
26.9089
 30
0.0
 10
2.6946
 20
26.7724
 30
0.0
 10
2.6288
 20
26.5688
 30
0.0
 10
2.6288
 20
26.2974
 30
0.0
 10
2.6288
 20
26.2974
 30
0.0
 10
2.6288
 20
26.1911
 30
0.0
 10
2.6391
 20
26.0965
 30
0.0
 10
2.6594
 20
26.0137
 30
0.0
 10
2.6594
 20
26.0137
 30
0.0
 10
2.674
 20
25.9521
 30
0.0
 10
2.7045
 20
25.8764
 30
0.0
 10
2.7516
 20
25.7866
 30
0.0
 10
2.7516
 20
25.7866
 30
0.0
 10
2.7516
 20
25.7866
 30
0.0
 10
3.7798
 20
26.9371
 30
0.0
 10
3.7798
 20
26.9371
 30
0.0
  0
SPLINE
  5
81
330
1F
100
AcDbEntity
  8
DEFAULT_1
 62
   250
100
AcDbSpline
210
0.0
220
0.0
230
1.0
 70
    11
 71
     3
 72
    28
 73
    24
 74
     0
 42
0.0000000001
 43
0.0000000001
 40
0.0
 40
0.0
 40
0.0
 40
0.0
 40
0.1428571428571428
 40
0.1428571428571428
 40
0.1428571428571428
 40
0.1428571428571428
 40
0.2857142857142857
 40
0.2857142857142857
 40
0.2857142857142857
 40
0.2857142857142857
 40
0.4285714285714285
 40
0.4285714285714285
 40
0.4285714285714285
 40
0.4285714285714285
 40
0.5714285714285714
 40
0.5714285714285714
 40
0.5714285714285714
 40
0.5714285714285714
 40
0.7142857142857143
 40
0.7142857142857143
 40
0.7142857142857143
 40
0.7142857142857143
 40
1.0
 40
1.0
 40
1.0
 40
1.0
 10
3.8927
 20
26.795
 30
0.0
 10
3.8927
 20
26.795
 30
0.0
 10
2.8687
 20
25.6487
 30
0.0
 10
2.8687
 20
25.6487
 30
0.0
 10
2.8687
 20
25.6487
 30
0.0
 10
2.9392
 20
25.5909
 30
0.0
 10
3.0046
 20
25.5504
 30
0.0
 10
3.0644
 20
25.5274
 30
0.0
 10
3.0644
 20
25.5274
 30
0.0
 10
3.1424
 20
25.4968
 30
0.0
 10
3.2271
 20
25.4818
 30
0.0
 10
3.3179
 20
25.4818
 30
0.0
 10
3.3179
 20
25.4818
 30
0.0
 10
3.5183
 20
25.4818
 30
0.0
 10
3.6834
 20
25.5523
 30
0.0
 10
3.8141
 20
25.6939
 30
0.0
 10
3.8141
 20
25.6939
 30
0.0
 10
3.9444
 20
25.8355
 30
0.0
 10
4.0098
 20
26.034
 30
0.0
 10
4.0098
 20
26.2894
 30
0.0
 10
4.0098
 20
26.2894
 30
0.0
 10
4.0098
 20
26.4803
 30
0.0
 10
3.9708
 20
26.6492
 30
0.0
 10
3.8927
 20
26.795
 30
0.0
  0
SPLINE
  5
82
330
1F
100
AcDbEntity
  8
DEFAULT_1
 62
   250
100
AcDbSpline
210
0.0
220
0.0
230
1.0
 70
    11
 71
     3
 72
   124
 73
   120
 74
     0
 42
0.0000000001
 43
0.0000000001
 40
0.0
 40
0.0
 40
0.0
 40
0.0
 40
0.032258064516129
 40
0.032258064516129
 40
0.032258064516129
 40
0.032258064516129
 40
0.0645161290322581
 40
0.0645161290322581
 40
0.0645161290322581
 40
0.0645161290322581
 40
0.0967741935483871
 40
0.0967741935483871
 40
0.0967741935483871
 40
0.0967741935483871
 40
0.1290322580645161
 40
0.1290322580645161
 40
0.1290322580645161
 40
0.1290322580645161
 40
0.1612903225806452
 40
0.1612903225806452
 40
0.1612903225806452
 40
0.1612903225806452
 40
0.1935483870967742
 40
0.1935483870967742
 40
0.1935483870967742
 40
0.1935483870967742
 40
0.2258064516129032
 40
0.2258064516129032
 40
0.2258064516129032
 40
0.2258064516129032
 40
0.2580645161290323
 40
0.2580645161290323
 40
0.2580645161290323
 40
0.2580645161290323
 40
0.2903225806451613
 40
0.2903225806451613
 40
0.2903225806451613
 40
0.2903225806451613
 40
0.3225806451612903
 40
0.3225806451612903
 40
0.3225806451612903
 40
0.3225806451612903
 40
0.3548387096774194
 40
0.3548387096774194
 40
0.3548387096774194
 40
0.3548387096774194
 40
0.3870967741935484
 40
0.3870967741935484
 40
0.3870967741935484
 40
0.3870967741935484
 40
0.4193548387096774
 40
0.4193548387096774
 40
0.4193548387096774
 40
0.4193548387096774
 40
0.4516129032258064
 40
0.4516129032258064
 40
0.4516129032258064
 40
0.4516129032258064
 40
0.4838709677419355
 40
0.4838709677419355
 40
0.4838709677419355
 40
0.4838709677419355
 40
0.5161290322580645
 40
0.5161290322580645
 40
0.5161290322580645
 40
0.5161290322580645
 40
0.5483870967741935
 40
0.5483870967741935
 40
0.5483870967741935
 40
0.5483870967741935
 40
0.5806451612903226
 40
0.5806451612903226
 40
0.5806451612903226
 40
0.5806451612903226
 40
0.6129032258064516
 40
0.6129032258064516
 40
0.6129032258064516
 40
0.6129032258064516
 40
0.6451612903225806
 40
0.6451612903225806
 40
0.6451612903225806
 40
0.6451612903225806
 40
0.6774193548387096
 40
0.6774193548387096
 40
0.6774193548387096
 40
0.6774193548387096
 40
0.7096774193548387
 40
0.7096774193548387
 40
0.7096774193548387
 40
0.7096774193548387
 40
0.7419354838709677
 40
0.7419354838709677
 40
0.7419354838709677
 40
0.7419354838709677
 40
0.7741935483870968
 40
0.7741935483870968
 40
0.7741935483870968
 40
0.7741935483870968
 40
0.8064516129032258
 40
0.8064516129032258
 40
0.8064516129032258
 40
0.8064516129032258
 40
0.8387096774193549
 40
0.8387096774193549
 40
0.8387096774193549
 40
0.8387096774193549
 40
0.8709677419354839
 40
0.8709677419354839
 40
0.8709677419354839
 40
0.8709677419354839
 40
0.9032258064516129
 40
0.9032258064516129
 40
0.9032258064516129
 40
0.9032258064516129
 40
0.9354838709677419
 40
0.9354838709677419
 40
0.9354838709677419
 40
0.9354838709677419
 40
1.0
 40
1.0
 40
1.0
 40
1.0
 10
4.5361
 20
25.8209
 30
0.0
 10
4.5361
 20
25.8209
 30
0.0
 10
4.784
 20
25.8538
 30
0.0
 10
4.784
 20
25.8538
 30
0.0
 10
4.784
 20
25.8538
 30
0.0
 10
4.8127
 20
25.7132
 30
0.0
 10
4.8612
 20
25.6121
 30
0.0
 10
4.9294
 20
25.55
 30
0.0
 10
4.9294
 20
25.55
 30
0.0
 10
4.998
 20
25.4879
 30
0.0
 10
5.0813
 20
25.4568
 30
0.0
 10
5.1796
 20
25.4568
 30
0.0
 10
5.1796
 20
25.4568
 30
0.0
 10
5.2962
 20
25.4568
 30
0.0
 10
5.395
 20
25.4973
 30
0.0
 10
5.4755
 20
25.5782
 30
0.0
 10
5.4755
 20
25.5782
 30
0.0
 10
5.5554
 20
25.6591
 30
0.0
 10
5.5959
 20
25.7593
 30
0.0
 10
5.5959
 20
25.8788
 30
0.0
 10
5.5959
 20
25.8788
 30
0.0
 10
5.5959
 20
25.9926
 30
0.0
 10
5.5587
 20
26.0867
 30
0.0
 10
5.4844
 20
26.1605
 30
0.0
 10
5.4844
 20
26.1605
 30
0.0
 10
5.4096
 20
26.2343
 30
0.0
 10
5.3151
 20
26.2715
 30
0.0
 10
5.2003
 20
26.2715
 30
0.0
 10
5.2003
 20
26.2715
 30
0.0
 10
5.1533
 20
26.2715
 30
0.0
 10
5.0949
 20
26.2621
 30
0.0
 10
5.0253
 20
26.2438
 30
0.0
 10
5.0253
 20
26.2438
 30
0.0
 10
5.0253
 20
26.2438
 30
0.0
 10
5.0531
 20
26.4615
 30
0.0
 10
5.0531
 20
26.4615
 30
0.0
 10
5.0531
 20
26.4615
 30
0.0
 10
5.0695
 20
26.4597
 30
0.0
 10
5.0827
 20
26.4587
 30
0.0
 10
5.093
 20
26.4587
 30
0.0
 10
5.093
 20
26.4587
 30
0.0
 10
5.1984
 20
26.4587
 30
0.0
 10
5.2934
 20
26.4865
 30
0.0
 10
5.3781
 20
26.5415
 30
0.0
 10
5.3781
 20
26.5415
 30
0.0
 10
5.4628
 20
26.5965
 30
0.0
 10
5.5051
 20
26.6817
 30
0.0
 10
5.5051
 20
26.7964
 30
0.0
 10
5.5051
 20
26.7964
 30
0.0
 10
5.5051
 20
26.8872
 30
0.0
 10
5.474
 20
26.9629
 30
0.0
 10
5.4124
 20
27.0222
 30
0.0
 10
5.4124
 20
27.0222
 30
0.0
 10
5.3508
 20
27.0819
 30
0.0
 10
5.2713
 20
27.1121
 30
0.0
 10
5.1739
 20
27.1121
 30
0.0
 10
5.1739
 20
27.1121
 30
0.0
 10
5.0775
 20
27.1121
 30
0.0
 10
4.9971
 20
27.0815
 30
0.0
 10
4.9331
 20
27.0213
 30
0.0
 10
4.9331
 20
27.0213
 30
0.0
 10
4.8687
 20
26.9606
 30
0.0
 10
4.8273
 20
26.8693
 30
0.0
 10
4.8089
 20
26.748
 30
0.0
 10
4.8089
 20
26.748
 30
0.0
 10
4.8089
 20
26.748
 30
0.0
 10
4.5611
 20
26.7922
 30
0.0
 10
4.5611
 20
26.7922
 30
0.0
 10
4.5611
 20
26.7922
 30
0.0
 10
4.5912
 20
26.9587
 30
0.0
 10
4.6603
 20
27.0876
 30
0.0
 10
4.7676
 20
27.1788
 30
0.0
 10
4.7676
 20
27.1788
 30
0.0
 10
4.8753
 20
27.2701
 30
0.0
 10
5.0089
 20
27.3162
 30
0.0
 10
5.1688
 20
27.3162
 30
0.0
 10
5.1688
 20
27.3162
 30
0.0
 10
5.2788
 20
27.3162
 30
0.0
 10
5.3804
 20
27.2922
 30
0.0
 10
5.4731
 20
27.2452
 30
0.0
 10
5.4731
 20
27.2452
 30
0.0
 10
5.5658
 20
27.1977
 30
0.0
 10
5.6368
 20
27.1332
 30
0.0
 10
5.6862
 20
27.0514
 30
0.0
 10
5.6862
 20
27.0514
 30
0.0
 10
5.7351
 20
26.9695
 30
0.0
 10
5.76
 20
26.883
 30
0.0
 10
5.76
 20
26.7908
 30
0.0
 10
5.76
 20
26.7908
 30
0.0
 10
5.76
 20
26.7038
 30
0.0
 10
5.7365
 20
26.6243
 30
0.0
 10
5.6895
 20
26.5523
 30
0.0
 10
5.6895
 20
26.5523
 30
0.0
 10
5.6424
 20
26.4808
 30
0.0
 10
5.5733
 20
26.4239
 30
0.0
 10
5.4816
 20
26.3816
 30
0.0
 10
5.4816
 20
26.3816
 30
0.0
 10
5.601
 20
26.3543
 30
0.0
 10
5.6937
 20
26.2969
 30
0.0
 10
5.76
 20
26.2099
 30
0.0
 10
5.76
 20
26.2099
 30
0.0
 10
5.8259
 20
26.1233
 30
0.0
 10
5.8588
 20
26.0147
 30
0.0
 10
5.8588
 20
25.8844
 30
0.0
 10
5.8588
 20
25.8844
 30
0.0
 10
5.8588
 20
25.708
 30
0.0
 10
5.7948
 20
25.5584
 30
0.0
 10
5.666
 20
25.4357
 30
0.0
 10
5.666
 20
25.4357
 30
0.0
 10
5.5375
 20
25.3129
 30
0.0
 10
5.3748
 20
25.2518
 30
0.0
 10
5.1782
 20
25.2518
 30
0.0
 10
5.1782
 20
25.2518
 30
0.0
 10
5.0009
 20
25.2518
 30
0.0
 10
4.8536
 20
25.3044
 30
0.0
 10
4.7365
 20
25.4103
 30
0.0
 10
4.7365
 20
25.4103
 30
0.0
 10
4.6194
 20
25.5156
 30
0.0
 10
4.5526
 20
25.6525
 30
0.0
 10
4.5361
 20
25.8209
 30
0.0
  0
SPLINE
  5
83
330
1F
100
AcDbEntity
  8
DEFAULT_1
 62
   250
100
AcDbSpline
210
0.0
220
0.0
230
1.0
 70
    11
 71
     3
 72
    48
 73
    44
 74
     0
 42
0.0000000001
 43
0.0000000001
 40
0.0
 40
0.0
 40
0.0
 40
0.0
 40
0.0833333333333333
 40
0.0833333333333333
 40
0.0833333333333333
 40
0.0833333333333333
 40
0.1666666666666667
 40
0.1666666666666667
 40
0.1666666666666667
 40
0.1666666666666667
 40
0.25
 40
0.25
 40
0.25
 40
0.25
 40
0.3333333333333333
 40
0.3333333333333333
 40
0.3333333333333333
 40
0.3333333333333333
 40
0.4166666666666667
 40
0.4166666666666667
 40
0.4166666666666667
 40
0.4166666666666667
 40
0.5
 40
0.5
 40
0.5
 40
0.5
 40
0.5833333333333334
 40
0.5833333333333334
 40
0.5833333333333334
 40
0.5833333333333334
 40
0.6666666666666666
 40
0.6666666666666666
 40
0.6666666666666666
 40
0.6666666666666666
 40
0.75
 40
0.75
 40
0.75
 40
0.75
 40
0.8333333333333334
 40
0.8333333333333334
 40
0.8333333333333334
 40
0.8333333333333334
 40
1.0
 40
1.0
 40
1.0
 40
1.0
 10
6.1208
 20
27.0429
 30
0.0
 10
6.1208
 20
27.0429
 30
0.0
 10
6.1208
 20
27.2814
 30
0.0
 10
6.1208
 20
27.2814
 30
0.0
 10
6.1208
 20
27.2814
 30
0.0
 10
6.1208
 20
27.2814
 30
0.0
 10
7.4284
 20
27.2814
 30
0.0
 10
7.4284
 20
27.2814
 30
0.0
 10
7.4284
 20
27.2814
 30
0.0
 10
7.4284
 20
27.2814
 30
0.0
 10
7.4284
 20
27.0885
 30
0.0
 10
7.4284
 20
27.0885
 30
0.0
 10
7.4284
 20
27.0885
 30
0.0
 10
7.3
 20
26.9517
 30
0.0
 10
7.1725
 20
26.7696
 30
0.0
 10
7.046
 20
26.5429
 30
0.0
 10
7.046
 20
26.5429
 30
0.0
 10
6.9199
 20
26.3162
 30
0.0
 10
6.8221
 20
26.0824
 30
0.0
 10
6.7534
 20
25.843
 30
0.0
 10
6.7534
 20
25.843
 30
0.0
 10
6.7036
 20
25.6737
 30
0.0
 10
6.6721
 20
25.4888
 30
0.0
 10
6.6584
 20
25.2875
 30
0.0
 10
6.6584
 20
25.2875
 30
0.0
 10
6.6584
 20
25.2875
 30
0.0
 10
6.4035
 20
25.2875
 30
0.0
 10
6.4035
 20
25.2875
 30
0.0
 10
6.4035
 20
25.2875
 30
0.0
 10
6.4063
 20
25.4465
 30
0.0
 10
6.4373
 20
25.6384
 30
0.0
 10
6.4971
 20
25.8637
 30
0.0
 10
6.4971
 20
25.8637
 30
0.0
 10
6.5568
 20
26.0885
 30
0.0
 10
6.6424
 20
26.3058
 30
0.0
 10
6.7539
 20
26.5147
 30
0.0
 10
6.7539
 20
26.5147
 30
0.0
 10
6.8658
 20
26.7235
 30
0.0
 10
6.9844
 20
26.8999
 30
0.0
 10
7.1104
 20
27.0429
 30
0.0
 10
7.1104
 20
27.0429
 30
0.0
 10
7.1104
 20
27.0429
 30
0.0
 10
6.1208
 20
27.0429
 30
0.0
 10
6.1208
 20
27.0429
 30
0.0
  0
SPLINE
  5
84
330
1F
100
AcDbEntity
  8
DEFAULT_1
 62
   250
100
AcDbSpline
210
0.0
220
0.0
230
1.0
 70
    11
 71
     3
 72
    20
 73
    16
 74
     0
 42
0.0000000001
 43
0.0000000001
 40
0.0
 40
0.0
 40
0.0
 40
0.0
 40
0.2
 40
0.2
 40
0.2
 40
0.2
 40
0.4
 40
0.4
 40
0.4
 40
0.4
 40
0.6
 40
0.6
 40
0.6
 40
0.6
 40
1.0
 40
1.0
 40
1.0
 40
1.0
 10
8.2862
 20
25.2732
 30
0.0
 10
8.2862
 20
25.2732
 30
0.0
 10
11.2862
 20
24.8498
 30
0.0
 10
11.2862
 20
24.8498
 30
0.0
 10
11.2862
 20
24.8498
 30
0.0
 10
11.2862
 20
24.8498
 30
0.0
 10
11.2862
 20
24.7557
 30
0.0
 10
11.2862
 20
24.7557
 30
0.0
 10
11.2862
 20
24.7557
 30
0.0
 10
11.2862
 20
24.7557
 30
0.0
 10
8.2862
 20
24.3042
 30
0.0
 10
8.2862
 20
24.3042
 30
0.0
 10
8.2862
 20
24.3042
 30
0.0
 10
8.2862
 20
24.3042
 30
0.0
 10
8.2862
 20
25.2732
 30
0.0
 10
8.2862
 20
25.2732
 30
0.0
  0
SPLINE
  5
85
330
1F
100
AcDbEntity
  8
DEFAULT_1
 62
   250
100
AcDbSpline
210
0.0
220
0.0
230
1.0
 70
    11
 71
     3
 72
    20
 73
    16
 74
     0
 42
0.0000000001
 43
0.0000000001
 40
0.0
 40
0.0
 40
0.0
 40
0.0
 40
0.2
 40
0.2
 40
0.2
 40
0.2
 40
0.4
 40
0.4
 40
0.4
 40
0.4
 40
0.6
 40
0.6
 40
0.6
 40
0.6
 40
1.0
 40
1.0
 40
1.0
 40
1.0
 10
0.4714
 20
24.3043
 30
0.0
 10
0.4714
 20
24.3043
 30
0.0
 10
-2.5286
 20
24.7277
 30
0.0
 10
-2.5286
 20
24.7277
 30
0.0
 10
-2.5286
 20
24.7277
 30
0.0
 10
-2.5286
 20
24.7277
 30
0.0
 10
-2.5286
 20
24.8217
 30
0.0
 10
-2.5286
 20
24.8217
 30
0.0
 10
-2.5286
 20
24.8217
 30
0.0
 10
-2.5286
 20
24.8217
 30
0.0
 10
0.4714
 20
25.2732
 30
0.0
 10
0.4714
 20
25.2732
 30
0.0
 10
0.4714
 20
25.2732
 30
0.0
 10
0.4714
 20
25.2732
 30
0.0
 10
0.4714
 20
24.3043
 30
0.0
 10
0.4714
 20
24.3043
 30
0.0
  0
SPLINE
  5
86
330
1F
100
AcDbEntity
  8
DEFAULT_1
 62
   250
100
AcDbSpline
210
0.0
220
0.0
230
1.0
 70
    24
 71
     3
 72
     8
 73
     4
 74
     0
 42
0.0000000001
 43
0.0000000001
 40
0.0
 40
0.0
 40
0.0
 40
0.0
 40
1.0
 40
1.0
 40
1.0
 40
1.0
 10
16.0666
 20
17.5737
 30
0.0
 10
16.0666
 20
17.5737
 30
0.0
 10
16.0666
 20
30.3174
 30
0.0
 10
16.0666
 20
30.3174
 30
0.0
  0
SPLINE
  5
87
330
1F
100
AcDbEntity
  8
DEFAULT_1
 62
   250
100
AcDbSpline
210
0.0
220
0.0
230
1.0
 70
    24
 71
     3
 72
     8
 73
     4
 74
     0
 42
0.0000000001
 43
0.0000000001
 40
0.0
 40
0.0
 40
0.0
 40
0.0
 40
1.0
 40
1.0
 40
1.0
 40
1.0
 10
-7.2861
 20
17.6146
 30
0.0
 10
-7.2861
 20
17.6146
 30
0.0
 10
-7.2861
 20
30.1299
 30
0.0
 10
-7.2861
 20
30.1299
 30
0.0
  0
SPLINE
  5
88
330
1F
100
AcDbEntity
  8
DEFAULT_1
 62
   250
100
AcDbSpline
210
0.0
220
0.0
230
1.0
 70
    24
 71
     3
 72
     8
 73
     4
 74
     0
 42
0.0000000001
 43
0.0000000001
 40
0.0
 40
0.0
 40
0.0
 40
0.0
 40
1.0
 40
1.0
 40
1.0
 40
1.0
 10
-6.7865
 20
29.4269
 30
0.0
 10
-6.7865
 20
29.4269
 30
0.0
 10
15.7846
 20
29.4269
 30
0.0
 10
15.7846
 20
29.4269
 30
0.0
  0
SPLINE
  5
89
330
1F
100
AcDbEntity
  8
DEFAULT_1
 62
   250
100
AcDbSpline
210
0.0
220
0.0
230
1.0
 70
    11
 71
     3
 72
    20
 73
    16
 74
     0
 42
0.0000000001
 43
0.0000000001
 40
0.0
 40
0.0
 40
0.0
 40
0.0
 40
0.2
 40
0.2
 40
0.2
 40
0.2
 40
0.4
 40
0.4
 40
0.4
 40
0.4
 40
0.6
 40
0.6
 40
0.6
 40
0.6
 40
1.0
 40
1.0
 40
1.0
 40
1.0
 10
12.9954
 20
29.888
 30
0.0
 10
12.9954
 20
29.888
 30
0.0
 10
15.9955
 20
29.4646
 30
0.0
 10
15.9955
 20
29.4646
 30
0.0
 10
15.9955
 20
29.4646
 30
0.0
 10
15.9955
 20
29.4646
 30
0.0
 10
15.9955
 20
29.3705
 30
0.0
 10
15.9955
 20
29.3705
 30
0.0
 10
15.9955
 20
29.3705
 30
0.0
 10
15.9955
 20
29.3705
 30
0.0
 10
12.9954
 20
28.919
 30
0.0
 10
12.9954
 20
28.919
 30
0.0
 10
12.9954
 20
28.919
 30
0.0
 10
12.9954
 20
28.919
 30
0.0
 10
12.9954
 20
29.888
 30
0.0
 10
12.9954
 20
29.888
 30
0.0
  0
SPLINE
  5
8A
330
1F
100
AcDbEntity
  8
DEFAULT_1
 62
   250
100
AcDbSpline
210
0.0
220
0.0
230
1.0
 70
    11
 71
     3
 72
    20
 73
    16
 74
     0
 42
0.0000000001
 43
0.0000000001
 40
0.0
 40
0.0
 40
0.0
 40
0.0
 40
0.2
 40
0.2
 40
0.2
 40
0.2
 40
0.4
 40
0.4
 40
0.4
 40
0.4
 40
0.6
 40
0.6
 40
0.6
 40
0.6
 40
1.0
 40
1.0
 40
1.0
 40
1.0
 10
-4.1972
 20
28.9471
 30
0.0
 10
-4.1972
 20
28.9471
 30
0.0
 10
-7.1972
 20
29.3705
 30
0.0
 10
-7.1972
 20
29.3705
 30
0.0
 10
-7.1972
 20
29.3705
 30
0.0
 10
-7.1972
 20
29.3705
 30
0.0
 10
-7.1972
 20
29.4645
 30
0.0
 10
-7.1972
 20
29.4645
 30
0.0
 10
-7.1972
 20
29.4645
 30
0.0
 10
-7.1972
 20
29.4645
 30
0.0
 10
-4.1972
 20
29.916
 30
0.0
 10
-4.1972
 20
29.916
 30
0.0
 10
-4.1972
 20
29.916
 30
0.0
 10
-4.1972
 20
29.916
 30
0.0
 10
-4.1972
 20
28.9471
 30
0.0
 10
-4.1972
 20
28.9471
 30
0.0
  0
SPLINE
  5
8B
330
1F
100
AcDbEntity
  8
DEFAULT_1
 62
   250
100
AcDbSpline
210
0.0
220
0.0
230
1.0
 70
    24
 71
     3
 72
     8
 73
     4
 74
     0
 42
0.0000000001
 43
0.0000000001
 40
0.0
 40
0.0
 40
0.0
 40
0.0
 40
1.0
 40
1.0
 40
1.0
 40
1.0
 10
-2.9781
 20
14.1147
 30
0.0
 10
-2.9781
 20
14.1147
 30
0.0
 10
11.9791
 20
14.7493
 30
0.0
 10
11.9791
 20
14.7493
 30
0.0
  0
SPLINE
  5
8C
330
1F
100
AcDbEntity
  8
DEFAULT_1
 62
   250
100
AcDbSpline
210
0.0
220
0.0
230
1.0
 70
    24
 71
     3
 72
     8
 73
     4
 74
     0
 42
0.0000000001
 43
0.0000000001
 40
0.0
 40
0.0
 40
0.0
 40
0.0
 40
1.0
 40
1.0
 40
1.0
 40
1.0
 10
-3.1981
 20
13.0349
 30
0.0
 10
-3.1981
 20
13.0349
 30
0.0
 10
11.9395
 20
13.6768
 30
0.0
 10
11.9395
 20
13.6768
 30
0.0
  0
SPLINE
  5
8D
330
1F
100
AcDbEntity
  8
DEFAULT_1
 62
   250
100
AcDbSpline
210
0.0
220
0.0
230
1.0
 70
    24
 71
     3
 72
     8
 73
     4
 74
     0
 42
0.0000000001
 43
0.0000000001
 40
0.0
 40
0.0
 40
0.0
 40
0.0
 40
1.0
 40
1.0
 40
1.0
 40
1.0
 10
-3.1981
 20
11.1346
 30
0.0
 10
-3.1981
 20
11.1346
 30
0.0
 10
11.9395
 20
11.7768
 30
0.0
 10
11.9395
 20
11.7768
 30
0.0
  0
SPLINE
  5
8E
330
1F
100
AcDbEntity
  8
DEFAULT_1
 62
   250
100
AcDbSpline
210
0.0
220
0.0
230
1.0
 70
    24
 71
     3
 72
     8
 73
     4
 74
     0
 42
0.0000000001
 43
0.0000000001
 40
0.0
 40
0.0
 40
0.0
 40
0.0
 40
1.0
 40
1.0
 40
1.0
 40
1.0
 10
-3.1601
 20
10.1493
 30
0.0
 10
-3.1601
 20
10.1493
 30
0.0
 10
11.9775
 20
10.7915
 30
0.0
 10
11.9775
 20
10.7915
 30
0.0
  0
SPLINE
  5
8F
330
1F
100
AcDbEntity
  8
DEFAULT_1
 62
   250
100
AcDbSpline
210
0.0
220
0.0
230
1.0
 70
    24
 71
     3
 72
     8
 73
     4
 74
     0
 42
0.0000000001
 43
0.0000000001
 40
0.0
 40
0.0
 40
0.0
 40
0.0
 40
1.0
 40
1.0
 40
1.0
 40
1.0
 10
-3.138
 20
9.0527
 30
0.0
 10
-3.138
 20
9.0527
 30
0.0
 10
11.8165
 20
9.6878
 30
0.0
 10
11.8165
 20
9.6878
 30
0.0
  0
SPLINE
  5
90
330
1F
100
AcDbEntity
  8
DEFAULT_1
 62
   250
100
AcDbSpline
210
0.0
220
0.0
230
1.0
 70
    24
 71
     3
 72
     8
 73
     4
 74
     0
 42
0.0000000001
 43
0.0000000001
 40
0.0
 40
0.0
 40
0.0
 40
0.0
 40
1.0
 40
1.0
 40
1.0
 40
1.0
 10
-3.0969
 20
7.9468
 30
0.0
 10
-3.0969
 20
7.9468
 30
0.0
 10
11.8447
 20
8.5792
 30
0.0
 10
11.8447
 20
8.5792
 30
0.0
  0
SPLINE
  5
91
330
1F
100
AcDbEntity
  8
DEFAULT_1
 62
   250
100
AcDbSpline
210
0.0
220
0.0
230
1.0
 70
    24
 71
     3
 72
     8
 73
     4
 74
     0
 42
0.0000000001
 43
0.0000000001
 40
0.0
 40
0.0
 40
0.0
 40
0.0
 40
1.0
 40
1.0
 40
1.0
 40
1.0
 10
-3.0914
 20
15.0035
 30
0.0
 10
-3.0914
 20
15.0035
 30
0.0
 10
10.9232
 20
15.5981
 30
0.0
 10
10.9232
 20
15.5981
 30
0.0
  0
SPLINE
  5
92
330
1F
100
AcDbEntity
  8
DEFAULT_1
 62
   250
100
AcDbSpline
210
0.0
220
0.0
230
1.0
 70
    24
 71
     3
 72
     8
 73
     4
 74
     0
 42
0.0000000001
 43
0.0000000001
 40
0.0
 40
0.0
 40
0.0
 40
0.0
 40
1.0
 40
1.0
 40
1.0
 40
1.0
 10
-3.2893
 20
-18.6611
 30
0.0
 10
-3.2893
 20
-18.6611
 30
0.0
 10
12.1334
 20
-18.2779
 30
0.0
 10
12.1334
 20
-18.2779
 30
0.0
  0
SPLINE
  5
93
330
1F
100
AcDbEntity
  8
DEFAULT_1
 62
   250
100
AcDbSpline
210
0.0
220
0.0
230
1.0
 70
    24
 71
     3
 72
     8
 73
     4
 74
     0
 42
0.0000000001
 43
0.0000000001
 40
0.0
 40
0.0
 40
0.0
 40
0.0
 40
1.0
 40
1.0
 40
1.0
 40
1.0
 10
-3.2486
 20
-19.6748
 30
0.0
 10
-3.2486
 20
-19.6748
 30
0.0
 10
12.1741
 20
-19.2916
 30
0.0
 10
12.1741
 20
-19.2916
 30
0.0
  0
SPLINE
  5
94
330
1F
100
AcDbEntity
  8
DEFAULT_1
 62
   250
100
AcDbSpline
210
0.0
220
0.0
230
1.0
 70
    24
 71
     3
 72
     8
 73
     4
 74
     0
 42
0.0000000001
 43
0.0000000001
 40
0.0
 40
0.0
 40
0.0
 40
0.0
 40
1.0
 40
1.0
 40
1.0
 40
1.0
 10
-3.2486
 20
-20.8196
 30
0.0
 10
-3.2486
 20
-20.8196
 30
0.0
 10
12.1741
 20
-20.4364
 30
0.0
 10
12.1741
 20
-20.4364
 30
0.0
  0
SPLINE
  5
95
330
1F
100
AcDbEntity
  8
DEFAULT_1
 62
   250
100
AcDbSpline
210
0.0
220
0.0
230
1.0
 70
    24
 71
     3
 72
     8
 73
     4
 74
     0
 42
0.0000000001
 43
0.0000000001
 40
0.0
 40
0.0
 40
0.0
 40
0.0
 40
1.0
 40
1.0
 40
1.0
 40
1.0
 10
-3.2486
 20
-17.6066
 30
0.0
 10
-3.2486
 20
-17.6066
 30
0.0
 10
12.1741
 20
-17.2234
 30
0.0
 10
12.1741
 20
-17.2234
 30
0.0
  0
SPLINE
  5
96
330
1F
100
AcDbEntity
  8
DEFAULT_1
 62
   250
100
AcDbSpline
210
0.0
220
0.0
230
1.0
 70
     8
 71
     3
 72
    40
 73
    36
 74
     0
 42
0.0000000001
 43
0.0000000001
 40
0.0
 40
0.0
 40
0.0
 40
0.0
 40
0.1
 40
0.1
 40
0.1
 40
0.1
 40
0.2
 40
0.2
 40
0.2
 40
0.2
 40
0.3
 40
0.3
 40
0.3
 40
0.3
 40
0.4
 40
0.4
 40
0.4
 40
0.4
 40
0.5
 40
0.5
 40
0.5
 40
0.5
 40
0.6
 40
0.6
 40
0.6
 40
0.6
 40
0.7
 40
0.7
 40
0.7
 40
0.7
 40
0.8
 40
0.8
 40
0.8
 40
0.8
 40
1.0
 40
1.0
 40
1.0
 40
1.0
 10
-4.1112
 20
1.077
 30
0.0
 10
-4.1112
 20
1.077
 30
0.0
 10
-4.0874
 20
-16.7654
 30
0.0
 10
-4.0874
 20
-16.7654
 30
0.0
 10
-4.0874
 20
-16.7654
 30
0.0
 10
-4.0874
 20
-16.7654
 30
0.0
 10
-3.3238
 20
-17.1638
 30
0.0
 10
-3.3238
 20
-17.1638
 30
0.0
 10
-3.3238
 20
-17.1638
 30
0.0
 10
-3.3238
 20
-17.1638
 30
0.0
 10
-3.3238
 20
-20.849
 30
0.0
 10
-3.3238
 20
-20.849
 30
0.0
 10
-3.3238
 20
-20.849
 30
0.0
 10
-3.3238
 20
-20.849
 30
0.0
 10
-2.968
 20
-21.2714
 30
0.0
 10
-2.968
 20
-21.2714
 30
0.0
 10
-2.968
 20
-21.2714
 30
0.0
 10
-2.968
 20
-21.2714
 30
0.0
 10
11.823
 20
-21.2714
 30
0.0
 10
11.823
 20
-21.2714
 30
0.0
 10
11.823
 20
-21.2714
 30
0.0
 10
11.823
 20
-21.2714
 30
0.0
 10
12.2551
 20
-20.9541
 30
0.0
 10
12.2551
 20
-20.9541
 30
0.0
 10
12.2551
 20
-20.9541
 30
0.0
 10
12.2551
 20
-20.9541
 30
0.0
 10
12.2551
 20
-17.1504
 30
0.0
 10
12.2551
 20
-17.1504
 30
0.0
 10
12.2551
 20
-17.1504
 30
0.0
 10
12.2551
 20
-17.1504
 30
0.0
 10
13.0731
 20
-16.8232
 30
0.0
 10
13.0731
 20
-16.8232
 30
0.0
 10
13.0731
 20
-16.8232
 30
0.0
 10
13.0731
 20
-16.8232
 30
0.0
 10
12.9913
 20
1.1319
 30
0.0
 10
12.9913
 20
1.1319
 30
0.0
  0
SPLINE
  5
97
330
1F
100
AcDbEntity
  8
DEFAULT_1
 62
   250
100
AcDbSpline
210
0.0
220
0.0
230
1.0
 70
    11
 71
     3
 72
   128
 73
   124
 74
     0
 42
0.0000000001
 43
0.0000000001
 40
0.0
 40
0.0
 40
0.0
 40
0.0
 40
0.03125
 40
0.03125
 40
0.03125
 40
0.03125
 40
0.0625
 40
0.0625
 40
0.0625
 40
0.0625
 40
0.09375
 40
0.09375
 40
0.09375
 40
0.09375
 40
0.125
 40
0.125
 40
0.125
 40
0.125
 40
0.15625
 40
0.15625
 40
0.15625
 40
0.15625
 40
0.1875
 40
0.1875
 40
0.1875
 40
0.1875
 40
0.21875
 40
0.21875
 40
0.21875
 40
0.21875
 40
0.25
 40
0.25
 40
0.25
 40
0.25
 40
0.28125
 40
0.28125
 40
0.28125
 40
0.28125
 40
0.3125
 40
0.3125
 40
0.3125
 40
0.3125
 40
0.34375
 40
0.34375
 40
0.34375
 40
0.34375
 40
0.375
 40
0.375
 40
0.375
 40
0.375
 40
0.40625
 40
0.40625
 40
0.40625
 40
0.40625
 40
0.4375
 40
0.4375
 40
0.4375
 40
0.4375
 40
0.46875
 40
0.46875
 40
0.46875
 40
0.46875
 40
0.5
 40
0.5
 40
0.5
 40
0.5
 40
0.53125
 40
0.53125
 40
0.53125
 40
0.53125
 40
0.5625
 40
0.5625
 40
0.5625
 40
0.5625
 40
0.59375
 40
0.59375
 40
0.59375
 40
0.59375
 40
0.625
 40
0.625
 40
0.625
 40
0.625
 40
0.65625
 40
0.65625
 40
0.65625
 40
0.65625
 40
0.6875
 40
0.6875
 40
0.6875
 40
0.6875
 40
0.71875
 40
0.71875
 40
0.71875
 40
0.71875
 40
0.75
 40
0.75
 40
0.75
 40
0.75
 40
0.78125
 40
0.78125
 40
0.78125
 40
0.78125
 40
0.8125
 40
0.8125
 40
0.8125
 40
0.8125
 40
0.84375
 40
0.84375
 40
0.84375
 40
0.84375
 40
0.875
 40
0.875
 40
0.875
 40
0.875
 40
0.90625
 40
0.90625
 40
0.90625
 40
0.90625
 40
0.9375
 40
0.9375
 40
0.9375
 40
0.9375
 40
1.0
 40
1.0
 40
1.0
 40
1.0
 10
-1.0466
 20
3.5991
 30
0.0
 10
-1.0466
 20
3.5991
 30
0.0
 10
-1.5954
 20
3.4941
 30
0.0
 10
-1.5954
 20
3.4941
 30
0.0
 10
-1.5954
 20
3.4941
 30
0.0
 10
-1.5954
 20
3.4941
 30
0.0
 10
-2.1411
 20
3.4219
 30
0.0
 10
-2.1411
 20
3.4219
 30
0.0
 10
-2.1411
 20
3.4219
 30
0.0
 10
-2.1411
 20
3.4219
 30
0.0
 10
-2.6883
 20
3.3849
 30
0.0
 10
-2.6883
 20
3.3849
 30
0.0
 10
-2.6883
 20
3.3849
 30
0.0
 10
-2.6883
 20
3.3849
 30
0.0
 10
-3.2367
 20
3.3849
 30
0.0
 10
-3.2367
 20
3.3849
 30
0.0
 10
-3.2367
 20
3.3849
 30
0.0
 10
-3.2367
 20
3.3849
 30
0.0
 10
-3.7839
 20
3.4219
 30
0.0
 10
-3.7839
 20
3.4219
 30
0.0
 10
-3.7839
 20
3.4219
 30
0.0
 10
-3.7839
 20
3.4219
 30
0.0
 10
-4.3296
 20
3.4941
 30
0.0
 10
-4.3296
 20
3.4941
 30
0.0
 10
-4.3296
 20
3.4941
 30
0.0
 10
-4.3296
 20
3.4941
 30
0.0
 10
-4.8784
 20
3.5991
 30
0.0
 10
-4.8784
 20
3.5991
 30
0.0
 10
-4.8784
 20
3.5991
 30
0.0
 10
-4.8784
 20
3.5991
 30
0.0
 10
-6.663
 20
4.0232
 30
0.0
 10
-6.663
 20
4.0232
 30
0.0
 10
-6.663
 20
4.0232
 30
0.0
 10
-6.663
 20
4.0232
 30
0.0
 10
-6.8227
 20
4.1566
 30
0.0
 10
-6.8227
 20
4.1566
 30
0.0
 10
-6.8227
 20
4.1566
 30
0.0
 10
-6.8227
 20
4.1566
 30
0.0
 10
-6.9026
 20
4.4234
 30
0.0
 10
-6.9026
 20
4.4234
 30
0.0
 10
-6.9026
 20
4.4234
 30
0.0
 10
-6.9026
 20
4.4234
 30
0.0
 10
-6.9293
 20
4.6102
 30
0.0
 10
-6.9293
 20
4.6102
 30
0.0
 10
-6.9293
 20
4.6102
 30
0.0
 10
-6.9293
 20
4.6102
 30
0.0
 10
-6.7961
 20
4.7969
 30
0.0
 10
-6.7961
 20
4.7969
 30
0.0
 10
-6.7961
 20
4.7969
 30
0.0
 10
-6.7961
 20
4.7969
 30
0.0
 10
-6.5831
 20
4.9303
 30
0.0
 10
-6.5831
 20
4.9303
 30
0.0
 10
-6.5831
 20
4.9303
 30
0.0
 10
-6.5831
 20
4.9303
 30
0.0
 10
15.5442
 20
4.9036
 30
0.0
 10
15.5442
 20
4.9036
 30
0.0
 10
15.5442
 20
4.9036
 30
0.0
 10
15.5442
 20
4.9036
 30
0.0
 10
15.7572
 20
4.7702
 30
0.0
 10
15.7572
 20
4.7702
 30
0.0
 10
15.7572
 20
4.7702
 30
0.0
 10
15.7572
 20
4.7702
 30
0.0
 10
15.8105
 20
4.5034
 30
0.0
 10
15.8105
 20
4.5034
 30
0.0
 10
15.8105
 20
4.5034
 30
0.0
 10
15.8105
 20
4.5034
 30
0.0
 10
15.704
 20
4.1566
 30
0.0
 10
15.704
 20
4.1566
 30
0.0
 10
15.704
 20
4.1566
 30
0.0
 10
15.704
 20
4.1566
 30
0.0
 10
15.3844
 20
3.9965
 30
0.0
 10
15.3844
 20
3.9965
 30
0.0
 10
15.3844
 20
3.9965
 30
0.0
 10
15.3844
 20
3.9965
 30
0.0
 10
12.6684
 20
3.4095
 30
0.0
 10
12.6684
 20
3.4095
 30
0.0
 10
12.6684
 20
3.4095
 30
0.0
 10
12.6684
 20
3.4095
 30
0.0
 10
12.0294
 20
3.3294
 30
0.0
 10
12.0294
 20
3.3294
 30
0.0
 10
12.0294
 20
3.3294
 30
0.0
 10
12.0294
 20
3.3294
 30
0.0
 10
11.1241
 20
3.3561
 30
0.0
 10
11.1241
 20
3.3561
 30
0.0
 10
11.1241
 20
3.3561
 30
0.0
 10
11.1241
 20
3.3561
 30
0.0
 10
10.1388
 20
3.5696
 30
0.0
 10
10.1388
 20
3.5696
 30
0.0
 10
10.1388
 20
3.5696
 30
0.0
 10
10.1388
 20
3.5696
 30
0.0
 10
9.4732
 20
3.6496
 30
0.0
 10
9.4732
 20
3.6496
 30
0.0
 10
9.4732
 20
3.6496
 30
0.0
 10
9.4732
 20
3.6496
 30
0.0
 10
8.6477
 20
3.6763
 30
0.0
 10
8.6477
 20
3.6763
 30
0.0
 10
8.6477
 20
3.6763
 30
0.0
 10
8.6477
 20
3.6763
 30
0.0
 10
7.6891
 20
3.5696
 30
0.0
 10
7.6891
 20
3.5696
 30
0.0
 10
7.6891
 20
3.5696
 30
0.0
 10
7.6891
 20
3.5696
 30
0.0
 10
5.6122
 20
3.3828
 30
0.0
 10
5.6122
 20
3.3828
 30
0.0
 10
5.6122
 20
3.3828
 30
0.0
 10
5.6122
 20
3.3828
 30
0.0
 10
4.0678
 20
3.3561
 30
0.0
 10
4.0678
 20
3.3561
 30
0.0
 10
4.0678
 20
3.3561
 30
0.0
 10
4.0678
 20
3.3561
 30
0.0
 10
1.7512
 20
3.4895
 30
0.0
 10
1.7512
 20
3.4895
 30
0.0
 10
1.7512
 20
3.4895
 30
0.0
 10
1.7512
 20
3.4895
 30
0.0
 10
0.4731
 20
3.6763
 30
0.0
 10
0.4731
 20
3.6763
 30
0.0
 10
0.4731
 20
3.6763
 30
0.0
 10
0.4731
 20
3.6763
 30
0.0
 10
-0.5387
 20
3.703
 30
0.0
 10
-0.5387
 20
3.703
 30
0.0
 10
-0.5387
 20
3.703
 30
0.0
 10
-0.5387
 20
3.703
 30
0.0
 10
-1.0466
 20
3.5991
 30
0.0
 10
-1.0466
 20
3.5991
 30
0.0
  0
SPLINE
  5
98
330
1F
100
AcDbEntity
  8
DEFAULT_1
 62
   250
100
AcDbSpline
210
0.0
220
0.0
230
1.0
 70
     8
 71
     3
 72
    32
 73
    28
 74
     0
 42
0.0000000001
 43
0.0000000001
 40
0.0
 40
0.0
 40
0.0
 40
0.0
 40
0.125
 40
0.125
 40
0.125
 40
0.125
 40
0.25
 40
0.25
 40
0.25
 40
0.25
 40
0.375
 40
0.375
 40
0.375
 40
0.375
 40
0.5
 40
0.5
 40
0.5
 40
0.5
 40
0.625
 40
0.625
 40
0.625
 40
0.625
 40
0.75
 40
0.75
 40
0.75
 40
0.75
 40
1.0
 40
1.0
 40
1.0
 40
1.0
 10
-5.1166
 20
3.6194
 30
0.0
 10
-5.1166
 20
3.6194
 30
0.0
 10
-5.1324
 20
1.1047
 30
0.0
 10
-5.1324
 20
1.1047
 30
0.0
 10
-5.1324
 20
1.1047
 30
0.0
 10
-5.1324
 20
1.1047
 30
0.0
 10
-1.0466
 20
1.1047
 30
0.0
 10
-1.0466
 20
1.1047
 30
0.0
 10
-1.0466
 20
1.1047
 30
0.0
 10
-1.0466
 20
1.1047
 30
0.0
 10
0.5956
 20
1.1047
 30
0.0
 10
0.5956
 20
1.1047
 30
0.0
 10
0.5956
 20
1.1047
 30
0.0
 10
0.5956
 20
1.1047
 30
0.0
 10
8.2593
 20
1.1047
 30
0.0
 10
8.2593
 20
1.1047
 30
0.0
 10
8.2593
 20
1.1047
 30
0.0
 10
8.2593
 20
1.1047
 30
0.0
 10
9.9016
 20
1.1047
 30
0.0
 10
9.9016
 20
1.1047
 30
0.0
 10
9.9016
 20
1.1047
 30
0.0
 10
9.9016
 20
1.1047
 30
0.0
 10
13.9874
 20
1.1047
 30
0.0
 10
13.9874
 20
1.1047
 30
0.0
 10
13.9874
 20
1.1047
 30
0.0
 10
13.9874
 20
1.1047
 30
0.0
 10
13.9734
 20
3.6194
 30
0.0
 10
13.9734
 20
3.6194
 30
0.0
  0
SPLINE
  5
99
330
1F
100
AcDbEntity
  8
DEFAULT_1
 62
   250
100
AcDbSpline
210
0.0
220
0.0
230
1.0
 70
    27
 71
     3
 72
    12
 73
     8
 74
     0
 42
0.0000000001
 43
0.0000000001
 40
0.0
 40
0.0
 40
0.0
 40
0.0
 40
0.3333333333333333
 40
0.3333333333333333
 40
0.3333333333333333
 40
0.3333333333333333
 40
1.0
 40
1.0
 40
1.0
 40
1.0
 10
-3.3472
 20
-17.0996
 30
0.0
 10
-3.3472
 20
-17.0996
 30
0.0
 10
12.2022
 20
-17.0996
 30
0.0
 10
12.2022
 20
-17.0996
 30
0.0
 10
12.2022
 20
-17.0996
 30
0.0
 10
12.2022
 20
-17.0996
 30
0.0
 10
-3.3472
 20
-17.0996
 30
0.0
 10
-3.3472
 20
-17.0996
 30
0.0
  0
SPLINE
  5
9A
330
1F
100
AcDbEntity
  8
DEFAULT_1
 62
   250
100
AcDbSpline
210
0.0
220
0.0
230
1.0
 70
    27
 71
     3
 72
    12
 73
     8
 74
     0
 42
0.0000000001
 43
0.0000000001
 40
0.0
 40
0.0
 40
0.0
 40
0.0
 40
0.3333333333333333
 40
0.3333333333333333
 40
0.3333333333333333
 40
0.3333333333333333
 40
1.0
 40
1.0
 40
1.0
 40
1.0
 10
-1.0466
 20
3.5991
 30
0.0
 10
-1.0466
 20
3.5991
 30
0.0
 10
-1.0466
 20
1.1047
 30
0.0
 10
-1.0466
 20
1.1047
 30
0.0
 10
-1.0466
 20
1.1047
 30
0.0
 10
-1.0466
 20
1.1047
 30
0.0
 10
-1.0466
 20
3.5991
 30
0.0
 10
-1.0466
 20
3.5991
 30
0.0
  0
SPLINE
  5
9B
330
1F
100
AcDbEntity
  8
DEFAULT_1
 62
   250
100
AcDbSpline
210
0.0
220
0.0
230
1.0
 70
    27
 71
     3
 72
    20
 73
    16
 74
     0
 42
0.0000000001
 43
0.0000000001
 40
0.0
 40
0.0
 40
0.0
 40
0.0
 40
0.2
 40
0.2
 40
0.2
 40
0.2
 40
0.4
 40
0.4
 40
0.4
 40
0.4
 40
0.6
 40
0.6
 40
0.6
 40
0.6
 40
1.0
 40
1.0
 40
1.0
 40
1.0
 10
8.2593
 20
3.5991
 30
0.0
 10
8.2593
 20
3.5991
 30
0.0
 10
8.2593
 20
1.1166
 30
0.0
 10
8.2593
 20
1.1166
 30
0.0
 10
8.2593
 20
1.1166
 30
0.0
 10
8.2593
 20
1.1166
 30
0.0
 10
8.2593
 20
1.1047
 30
0.0
 10
8.2593
 20
1.1047
 30
0.0
 10
8.2593
 20
1.1047
 30
0.0
 10
8.2593
 20
1.1047
 30
0.0
 10
8.2593
 20
1.1166
 30
0.0
 10
8.2593
 20
1.1166
 30
0.0
 10
8.2593
 20
1.1166
 30
0.0
 10
8.2593
 20
1.1166
 30
0.0
 10
8.2593
 20
3.5991
 30
0.0
 10
8.2593
 20
3.5991
 30
0.0
  0
SPLINE
  5
9C
330
1F
100
AcDbEntity
  8
DEFAULT_1
 62
   250
100
AcDbSpline
210
0.0
220
0.0
230
1.0
 70
    27
 71
     3
 72
    12
 73
     8
 74
     0
 42
0.0000000001
 43
0.0000000001
 40
0.0
 40
0.0
 40
0.0
 40
0.0
 40
0.3333333333333333
 40
0.3333333333333333
 40
0.3333333333333333
 40
0.3333333333333333
 40
1.0
 40
1.0
 40
1.0
 40
1.0
 10
0.5956
 20
3.5991
 30
0.0
 10
0.5956
 20
3.5991
 30
0.0
 10
0.5956
 20
1.1047
 30
0.0
 10
0.5956
 20
1.1047
 30
0.0
 10
0.5956
 20
1.1047
 30
0.0
 10
0.5956
 20
1.1047
 30
0.0
 10
0.5956
 20
3.5991
 30
0.0
 10
0.5956
 20
3.5991
 30
0.0
  0
SPLINE
  5
9D
330
1F
100
AcDbEntity
  8
DEFAULT_1
 62
   250
100
AcDbSpline
210
0.0
220
0.0
230
1.0
 70
    27
 71
     3
 72
    20
 73
    16
 74
     0
 42
0.0000000001
 43
0.0000000001
 40
0.0
 40
0.0
 40
0.0
 40
0.0
 40
0.2
 40
0.2
 40
0.2
 40
0.2
 40
0.4
 40
0.4
 40
0.4
 40
0.4
 40
0.6
 40
0.6
 40
0.6
 40
0.6
 40
1.0
 40
1.0
 40
1.0
 40
1.0
 10
9.9016
 20
3.5991
 30
0.0
 10
9.9016
 20
3.5991
 30
0.0
 10
9.9016
 20
1.1219
 30
0.0
 10
9.9016
 20
1.1219
 30
0.0
 10
9.9016
 20
1.1219
 30
0.0
 10
9.9016
 20
1.1219
 30
0.0
 10
9.9016
 20
1.1047
 30
0.0
 10
9.9016
 20
1.1047
 30
0.0
 10
9.9016
 20
1.1047
 30
0.0
 10
9.9016
 20
1.1047
 30
0.0
 10
9.9016
 20
1.1219
 30
0.0
 10
9.9016
 20
1.1219
 30
0.0
 10
9.9016
 20
1.1219
 30
0.0
 10
9.9016
 20
1.1219
 30
0.0
 10
9.9016
 20
3.5991
 30
0.0
 10
9.9016
 20
3.5991
 30
0.0
  0
SPLINE
  5
9E
330
1F
100
AcDbEntity
  8
DEFAULT_1
 62
   250
100
AcDbSpline
210
0.0
220
0.0
230
1.0
 70
    11
 71
     3
 72
    28
 73
    24
 74
     0
 42
0.0000000001
 43
0.0000000001
 40
0.0
 40
0.0
 40
0.0
 40
0.0
 40
0.1428571428571428
 40
0.1428571428571428
 40
0.1428571428571428
 40
0.1428571428571428
 40
0.2857142857142857
 40
0.2857142857142857
 40
0.2857142857142857
 40
0.2857142857142857
 40
0.4285714285714285
 40
0.4285714285714285
 40
0.4285714285714285
 40
0.4285714285714285
 40
0.5714285714285714
 40
0.5714285714285714
 40
0.5714285714285714
 40
0.5714285714285714
 40
0.7142857142857143
 40
0.7142857142857143
 40
0.7142857142857143
 40
0.7142857142857143
 40
1.0
 40
1.0
 40
1.0
 40
1.0
 10
-6.6318
 20
12.9594
 30
0.0
 10
-6.6318
 20
12.9594
 30
0.0
 10
-6.6312
 20
13.0455
 30
0.0
 10
-6.6312
 20
13.0455
 30
0.0
 10
-6.6312
 20
13.0455
 30
0.0
 10
-6.6312
 20
13.0455
 30
0.0
 10
15.6257
 20
13.0492
 30
0.0
 10
15.6257
 20
13.0492
 30
0.0
 10
15.6257
 20
13.0492
 30
0.0
 10
15.6257
 20
13.0492
 30
0.0
 10
15.6293
 20
12.989
 30
0.0
 10
15.6293
 20
12.989
 30
0.0
 10
15.6293
 20
12.989
 30
0.0
 10
15.6293
 20
12.989
 30
0.0
 10
12.0472
 20
11.8911
 30
0.0
 10
12.0472
 20
11.8911
 30
0.0
 10
12.0472
 20
11.8911
 30
0.0
 10
12.0472
 20
11.8911
 30
0.0
 10
-3.0822
 20
11.9179
 30
0.0
 10
-3.0822
 20
11.9179
 30
0.0
 10
-3.0822
 20
11.9179
 30
0.0
 10
-3.0822
 20
11.9179
 30
0.0
 10
-6.6318
 20
12.9594
 30
0.0
 10
-6.6318
 20
12.9594
 30
0.0
  0
SPLINE
  5
9F
330
1F
100
AcDbEntity
  8
DEFAULT_1
 62
   250
100
AcDbSpline
210
0.0
220
0.0
230
1.0
 70
    11
 71
     3
 72
    68
 73
    64
 74
     0
 42
0.0000000001
 43
0.0000000001
 40
0.0
 40
0.0
 40
0.0
 40
0.0
 40
0.0588235294117647
 40
0.0588235294117647
 40
0.0588235294117647
 40
0.0588235294117647
 40
0.1176470588235294
 40
0.1176470588235294
 40
0.1176470588235294
 40
0.1176470588235294
 40
0.1764705882352941
 40
0.1764705882352941
 40
0.1764705882352941
 40
0.1764705882352941
 40
0.2352941176470588
 40
0.2352941176470588
 40
0.2352941176470588
 40
0.2352941176470588
 40
0.2941176470588235
 40
0.2941176470588235
 40
0.2941176470588235
 40
0.2941176470588235
 40
0.3529411764705883
 40
0.3529411764705883
 40
0.3529411764705883
 40
0.3529411764705883
 40
0.4117647058823529
 40
0.4117647058823529
 40
0.4117647058823529
 40
0.4117647058823529
 40
0.4705882352941176
 40
0.4705882352941176
 40
0.4705882352941176
 40
0.4705882352941176
 40
0.5294117647058824
 40
0.5294117647058824
 40
0.5294117647058824
 40
0.5294117647058824
 40
0.5882352941176471
 40
0.5882352941176471
 40
0.5882352941176471
 40
0.5882352941176471
 40
0.6470588235294118
 40
0.6470588235294118
 40
0.6470588235294118
 40
0.6470588235294118
 40
0.7058823529411765
 40
0.7058823529411765
 40
0.7058823529411765
 40
0.7058823529411765
 40
0.7647058823529411
 40
0.7647058823529411
 40
0.7647058823529411
 40
0.7647058823529411
 40
0.8235294117647058
 40
0.8235294117647058
 40
0.8235294117647058
 40
0.8235294117647058
 40
0.8823529411764706
 40
0.8823529411764706
 40
0.8823529411764706
 40
0.8823529411764706
 40
1.0
 40
1.0
 40
1.0
 40
1.0
 10
11.3409
 20
20.0014
 30
0.0
 10
11.3409
 20
20.0014
 30
0.0
 10
10.7018
 20
20.0014
 30
0.0
 10
10.7018
 20
20.0014
 30
0.0
 10
10.7018
 20
20.0014
 30
0.0
 10
10.7018
 20
20.0014
 30
0.0
 10
-1.9319
 20
20.0014
 30
0.0
 10
-1.9319
 20
20.0014
 30
0.0
 10
-1.9319
 20
20.0014
 30
0.0
 10
-1.9319
 20
20.0014
 30
0.0
 10
-2.571
 20
20.0014
 30
0.0
 10
-2.571
 20
20.0014
 30
0.0
 10
-2.571
 20
20.0014
 30
0.0
 10
-2.571
 20
20.0014
 30
0.0
 10
-2.5797
 20
20.3443
 30
0.0
 10
-2.5797
 20
20.3443
 30
0.0
 10
-2.5797
 20
20.3443
 30
0.0
 10
-2.5797
 20
20.3443
 30
0.0
 10
-2.0325
 20
20.464
 30
0.0
 10
-2.0325
 20
20.464
 30
0.0
 10
-2.0325
 20
20.464
 30
0.0
 10
-2.0325
 20
20.464
 30
0.0
 10
-0.7671
 20
20.7547
 30
0.0
 10
-0.7671
 20
20.7547
 30
0.0
 10
-0.7671
 20
20.7547
 30
0.0
 10
-0.7671
 20
20.7547
 30
0.0
 10
0.9258
 20
20.9941
 30
0.0
 10
0.9258
 20
20.9941
 30
0.0
 10
0.9258
 20
20.9941
 30
0.0
 10
0.9258
 20
20.9941
 30
0.0
 10
2.4648
 20
21.148
 30
0.0
 10
2.4648
 20
21.148
 30
0.0
 10
2.4648
 20
21.148
 30
0.0
 10
2.4648
 20
21.148
 30
0.0
 10
3.7644
 20
21.1822
 30
0.0
 10
3.7644
 20
21.1822
 30
0.0
 10
3.7644
 20
21.1822
 30
0.0
 10
3.7644
 20
21.1822
 30
0.0
 10
5.0982
 20
21.2164
 30
0.0
 10
5.0982
 20
21.2164
 30
0.0
 10
5.0982
 20
21.2164
 30
0.0
 10
5.0982
 20
21.2164
 30
0.0
 10
6.5175
 20
21.148
 30
0.0
 10
6.5175
 20
21.148
 30
0.0
 10
6.5175
 20
21.148
 30
0.0
 10
6.5175
 20
21.148
 30
0.0
 10
8.2275
 20
20.9599
 30
0.0
 10
8.2275
 20
20.9599
 30
0.0
 10
8.2275
 20
20.9599
 30
0.0
 10
8.2275
 20
20.9599
 30
0.0
 10
9.5784
 20
20.7376
 30
0.0
 10
9.5784
 20
20.7376
 30
0.0
 10
9.5784
 20
20.7376
 30
0.0
 10
9.5784
 20
20.7376
 30
0.0
 10
10.5531
 20
20.5495
 30
0.0
 10
10.5531
 20
20.5495
 30
0.0
 10
10.5531
 20
20.5495
 30
0.0
 10
10.5531
 20
20.5495
 30
0.0
 10
11.3739
 20
20.3443
 30
0.0
 10
11.3739
 20
20.3443
 30
0.0
 10
11.3739
 20
20.3443
 30
0.0
 10
11.3739
 20
20.3443
 30
0.0
 10
11.3409
 20
20.0014
 30
0.0
 10
11.3409
 20
20.0014
 30
0.0
  0
SPLINE
  5
A0
330
1F
100
AcDbEntity
  8
DEFAULT_1
 62
   250
100
AcDbSpline
210
0.0
220
0.0
230
1.0
 70
    11
 71
     3
 72
    68
 73
    64
 74
     0
 42
0.0000000001
 43
0.0000000001
 40
0.0
 40
0.0
 40
0.0
 40
0.0
 40
0.0588235294117647
 40
0.0588235294117647
 40
0.0588235294117647
 40
0.0588235294117647
 40
0.1176470588235294
 40
0.1176470588235294
 40
0.1176470588235294
 40
0.1176470588235294
 40
0.1764705882352941
 40
0.1764705882352941
 40
0.1764705882352941
 40
0.1764705882352941
 40
0.2352941176470588
 40
0.2352941176470588
 40
0.2352941176470588
 40
0.2352941176470588
 40
0.2941176470588235
 40
0.2941176470588235
 40
0.2941176470588235
 40
0.2941176470588235
 40
0.3529411764705883
 40
0.3529411764705883
 40
0.3529411764705883
 40
0.3529411764705883
 40
0.4117647058823529
 40
0.4117647058823529
 40
0.4117647058823529
 40
0.4117647058823529
 40
0.4705882352941176
 40
0.4705882352941176
 40
0.4705882352941176
 40
0.4705882352941176
 40
0.5294117647058824
 40
0.5294117647058824
 40
0.5294117647058824
 40
0.5294117647058824
 40
0.5882352941176471
 40
0.5882352941176471
 40
0.5882352941176471
 40
0.5882352941176471
 40
0.6470588235294118
 40
0.6470588235294118
 40
0.6470588235294118
 40
0.6470588235294118
 40
0.7058823529411765
 40
0.7058823529411765
 40
0.7058823529411765
 40
0.7058823529411765
 40
0.7647058823529411
 40
0.7647058823529411
 40
0.7647058823529411
 40
0.7647058823529411
 40
0.8235294117647058
 40
0.8235294117647058
 40
0.8235294117647058
 40
0.8235294117647058
 40
0.8823529411764706
 40
0.8823529411764706
 40
0.8823529411764706
 40
0.8823529411764706
 40
1.0
 40
1.0
 40
1.0
 40
1.0
 10
2.8809
 20
18.0758
 30
0.0
 10
2.8809
 20
18.0758
 30
0.0
 10
2.8809
 20
16.7677
 30
0.0
 10
2.8809
 20
16.7677
 30
0.0
 10
2.8809
 20
16.7677
 30
0.0
 10
2.8809
 20
16.7677
 30
0.0
 10
2.8809
 20
18.0758
 30
0.0
 10
2.8809
 20
18.0758
 30
0.0
 10
2.8809
 20
18.0758
 30
0.0
 10
2.8809
 20
18.0758
 30
0.0
 10
-2.1275
 20
18.0758
 30
0.0
 10
-2.1275
 20
18.0758
 30
0.0
 10
-2.1275
 20
18.0758
 30
0.0
 10
-2.1275
 20
18.0758
 30
0.0
 10
-2.1275
 20
18.5027
 30
0.0
 10
-2.1275
 20
18.5027
 30
0.0
 10
-2.1275
 20
18.5027
 30
0.0
 10
-2.1275
 20
18.5027
 30
0.0
 10
-1.9319
 20
18.5027
 30
0.0
 10
-1.9319
 20
18.5027
 30
0.0
 10
-1.9319
 20
18.5027
 30
0.0
 10
-1.9319
 20
18.5027
 30
0.0
 10
-1.9319
 20
18.9887
 30
0.0
 10
-1.9319
 20
18.9887
 30
0.0
 10
-1.9319
 20
18.9887
 30
0.0
 10
-1.9319
 20
18.9887
 30
0.0
 10
-1.9319
 20
18.5027
 30
0.0
 10
-1.9319
 20
18.5027
 30
0.0
 10
-1.9319
 20
18.5027
 30
0.0
 10
-1.9319
 20
18.5027
 30
0.0
 10
10.7018
 20
18.5027
 30
0.0
 10
10.7018
 20
18.5027
 30
0.0
 10
10.7018
 20
18.5027
 30
0.0
 10
10.7018
 20
18.5027
 30
0.0
 10
10.7018
 20
18.9887
 30
0.0
 10
10.7018
 20
18.9887
 30
0.0
 10
10.7018
 20
18.9887
 30
0.0
 10
10.7018
 20
18.9887
 30
0.0
 10
10.7018
 20
18.5027
 30
0.0
 10
10.7018
 20
18.5027
 30
0.0
 10
10.7018
 20
18.5027
 30
0.0
 10
10.7018
 20
18.5027
 30
0.0
 10
10.9023
 20
18.5027
 30
0.0
 10
10.9023
 20
18.5027
 30
0.0
 10
10.9023
 20
18.5027
 30
0.0
 10
10.9023
 20
18.5027
 30
0.0
 10
10.9023
 20
18.0758
 30
0.0
 10
10.9023
 20
18.0758
 30
0.0
 10
10.9023
 20
18.0758
 30
0.0
 10
10.9023
 20
18.0758
 30
0.0
 10
5.889
 20
18.0758
 30
0.0
 10
5.889
 20
18.0758
 30
0.0
 10
5.889
 20
18.0758
 30
0.0
 10
5.889
 20
18.0758
 30
0.0
 10
5.889
 20
16.7677
 30
0.0
 10
5.889
 20
16.7677
 30
0.0
 10
5.889
 20
16.7677
 30
0.0
 10
5.889
 20
16.7677
 30
0.0
 10
5.889
 20
18.0758
 30
0.0
 10
5.889
 20
18.0758
 30
0.0
 10
5.889
 20
18.0758
 30
0.0
 10
5.889
 20
18.0758
 30
0.0
 10
2.8809
 20
18.0758
 30
0.0
 10
2.8809
 20
18.0758
 30
0.0
  0
SPLINE
  5
A1
330
1F
100
AcDbEntity
  8
DEFAULT_1
 62
   250
100
AcDbSpline
210
0.0
220
0.0
230
1.0
 70
    27
 71
     3
 72
    12
 73
     8
 74
     0
 42
0.0000000001
 43
0.0000000001
 40
0.0
 40
0.0
 40
0.0
 40
0.0
 40
0.3333333333333333
 40
0.3333333333333333
 40
0.3333333333333333
 40
0.3333333333333333
 40
1.0
 40
1.0
 40
1.0
 40
1.0
 10
10.7018
 20
19.51
 30
0.0
 10
10.7018
 20
19.51
 30
0.0
 10
10.7018
 20
20.0014
 30
0.0
 10
10.7018
 20
20.0014
 30
0.0
 10
10.7018
 20
20.0014
 30
0.0
 10
10.7018
 20
20.0014
 30
0.0
 10
10.7018
 20
19.51
 30
0.0
 10
10.7018
 20
19.51
 30
0.0
  0
SPLINE
  5
A2
330
1F
100
AcDbEntity
  8
DEFAULT_1
 62
   250
100
AcDbSpline
210
0.0
220
0.0
230
1.0
 70
    27
 71
     3
 72
    12
 73
     8
 74
     0
 42
0.0000000001
 43
0.0000000001
 40
0.0
 40
0.0
 40
0.0
 40
0.0
 40
0.3333333333333333
 40
0.3333333333333333
 40
0.3333333333333333
 40
0.3333333333333333
 40
1.0
 40
1.0
 40
1.0
 40
1.0
 10
-1.9319
 20
19.51
 30
0.0
 10
-1.9319
 20
19.51
 30
0.0
 10
-1.9319
 20
20.0014
 30
0.0
 10
-1.9319
 20
20.0014
 30
0.0
 10
-1.9319
 20
20.0014
 30
0.0
 10
-1.9319
 20
20.0014
 30
0.0
 10
-1.9319
 20
19.51
 30
0.0
 10
-1.9319
 20
19.51
 30
0.0
  0
SPLINE
  5
A3
330
1F
100
AcDbEntity
  8
DEFAULT_1
 62
   250
100
AcDbSpline
210
0.0
220
0.0
230
1.0
 70
    27
 71
     3
 72
    12
 73
     8
 74
     0
 42
0.0000000001
 43
0.0000000001
 40
0.0
 40
0.0
 40
0.0
 40
0.0
 40
0.3333333333333333
 40
0.3333333333333333
 40
0.3333333333333333
 40
0.3333333333333333
 40
1.0
 40
1.0
 40
1.0
 40
1.0
 10
11.9457
 20
11.8997
 30
0.0
 10
11.9457
 20
11.8997
 30
0.0
 10
11.9457
 20
7.5252
 30
0.0
 10
11.9457
 20
7.5252
 30
0.0
 10
11.9457
 20
7.5252
 30
0.0
 10
11.9457
 20
7.5252
 30
0.0
 10
11.9457
 20
11.8997
 30
0.0
 10
11.9457
 20
11.8997
 30
0.0
  0
SPLINE
  5
A4
330
1F
100
AcDbEntity
  8
DEFAULT_1
 62
   250
100
AcDbSpline
210
0.0
220
0.0
230
1.0
 70
    27
 71
     3
 72
    12
 73
     8
 74
     0
 42
0.0000000001
 43
0.0000000001
 40
0.0
 40
0.0
 40
0.0
 40
0.0
 40
0.3333333333333333
 40
0.3333333333333333
 40
0.3333333333333333
 40
0.3333333333333333
 40
1.0
 40
1.0
 40
1.0
 40
1.0
 10
-3.0945
 20
11.8997
 30
0.0
 10
-3.0945
 20
11.8997
 30
0.0
 10
-3.0945
 20
7.638
 30
0.0
 10
-3.0945
 20
7.638
 30
0.0
 10
-3.0945
 20
7.638
 30
0.0
 10
-3.0945
 20
7.638
 30
0.0
 10
-3.0945
 20
11.8997
 30
0.0
 10
-3.0945
 20
11.8997
 30
0.0
  0
SPLINE
  5
A5
330
1F
100
AcDbEntity
  8
DEFAULT_1
 62
   250
100
AcDbSpline
210
0.0
220
0.0
230
1.0
 70
    27
 71
     3
 72
    20
 73
    16
 74
     0
 42
0.0000000001
 43
0.0000000001
 40
0.0
 40
0.0
 40
0.0
 40
0.0
 40
0.2
 40
0.2
 40
0.2
 40
0.2
 40
0.4
 40
0.4
 40
0.4
 40
0.4
 40
0.6
 40
0.6
 40
0.6
 40
0.6
 40
1.0
 40
1.0
 40
1.0
 40
1.0
 10
-3.0945
 20
15.6597
 30
0.0
 10
-3.0945
 20
15.6597
 30
0.0
 10
-3.0945
 20
15.6155
 30
0.0
 10
-3.0945
 20
15.6155
 30
0.0
 10
-3.0945
 20
15.6155
 30
0.0
 10
-3.0945
 20
15.6155
 30
0.0
 10
-3.0945
 20
12.9715
 30
0.0
 10
-3.0945
 20
12.9715
 30
0.0
 10
-3.0945
 20
12.9715
 30
0.0
 10
-3.0945
 20
12.9715
 30
0.0
 10
-3.0945
 20
15.6155
 30
0.0
 10
-3.0945
 20
15.6155
 30
0.0
 10
-3.0945
 20
15.6155
 30
0.0
 10
-3.0945
 20
15.6155
 30
0.0
 10
-3.0945
 20
15.6597
 30
0.0
 10
-3.0945
 20
15.6597
 30
0.0
  0
SPLINE
  5
A6
330
1F
100
AcDbEntity
  8
DEFAULT_1
 62
   250
100
AcDbSpline
210
0.0
220
0.0
230
1.0
 70
    27
 71
     3
 72
    12
 73
     8
 74
     0
 42
0.0000000001
 43
0.0000000001
 40
0.0
 40
0.0
 40
0.0
 40
0.0
 40
0.3333333333333333
 40
0.3333333333333333
 40
0.3333333333333333
 40
0.3333333333333333
 40
1.0
 40
1.0
 40
1.0
 40
1.0
 10
11.9457
 20
5.5828
 30
0.0
 10
11.9457
 20
5.5828
 30
0.0
 10
11.9457
 20
4.8308
 30
0.0
 10
11.9457
 20
4.8308
 30
0.0
 10
11.9457
 20
4.8308
 30
0.0
 10
11.9457
 20
4.8308
 30
0.0
 10
11.9457
 20
5.5828
 30
0.0
 10
11.9457
 20
5.5828
 30
0.0
  0
SPLINE
  5
A7
330
1F
100
AcDbEntity
  8
DEFAULT_1
 62
   250
100
AcDbSpline
210
0.0
220
0.0
230
1.0
 70
    27
 71
     3
 72
    12
 73
     8
 74
     0
 42
0.0000000001
 43
0.0000000001
 40
0.0
 40
0.0
 40
0.0
 40
0.0
 40
0.3333333333333333
 40
0.3333333333333333
 40
0.3333333333333333
 40
0.3333333333333333
 40
1.0
 40
1.0
 40
1.0
 40
1.0
 10
-3.0945
 20
5.5828
 30
0.0
 10
-3.0945
 20
5.5828
 30
0.0
 10
-3.0945
 20
4.8308
 30
0.0
 10
-3.0945
 20
4.8308
 30
0.0
 10
-3.0945
 20
4.8308
 30
0.0
 10
-3.0945
 20
4.8308
 30
0.0
 10
-3.0945
 20
5.5828
 30
0.0
 10
-3.0945
 20
5.5828
 30
0.0
  0
SPLINE
  5
A8
330
1F
100
AcDbEntity
  8
DEFAULT_1
 62
   250
100
AcDbSpline
210
0.0
220
0.0
230
1.0
 70
    27
 71
     3
 72
    20
 73
    16
 74
     0
 42
0.0000000001
 43
0.0000000001
 40
0.0
 40
0.0
 40
0.0
 40
0.0
 40
0.2
 40
0.2
 40
0.2
 40
0.2
 40
0.4
 40
0.4
 40
0.4
 40
0.4
 40
0.6
 40
0.6
 40
0.6
 40
0.6
 40
1.0
 40
1.0
 40
1.0
 40
1.0
 10
11.9457
 20
15.6597
 30
0.0
 10
11.9457
 20
15.6597
 30
0.0
 10
11.9457
 20
15.6141
 30
0.0
 10
11.9457
 20
15.6141
 30
0.0
 10
11.9457
 20
15.6141
 30
0.0
 10
11.9457
 20
15.6141
 30
0.0
 10
11.9457
 20
13.0868
 30
0.0
 10
11.9457
 20
13.0868
 30
0.0
 10
11.9457
 20
13.0868
 30
0.0
 10
11.9457
 20
13.0868
 30
0.0
 10
11.9457
 20
15.6141
 30
0.0
 10
11.9457
 20
15.6141
 30
0.0
 10
11.9457
 20
15.6141
 30
0.0
 10
11.9457
 20
15.6141
 30
0.0
 10
11.9457
 20
15.6597
 30
0.0
 10
11.9457
 20
15.6597
 30
0.0
  0
SPLINE
  5
A9
330
1F
100
AcDbEntity
  8
DEFAULT_1
 62
   250
100
AcDbSpline
210
0.0
220
0.0
230
1.0
 70
    11
 71
     3
 72
    44
 73
    40
 74
     0
 42
0.0000000001
 43
0.0000000001
 40
0.0
 40
0.0
 40
0.0
 40
0.0
 40
0.0909090909090909
 40
0.0909090909090909
 40
0.0909090909090909
 40
0.0909090909090909
 40
0.1818181818181818
 40
0.1818181818181818
 40
0.1818181818181818
 40
0.1818181818181818
 40
0.2727272727272727
 40
0.2727272727272727
 40
0.2727272727272727
 40
0.2727272727272727
 40
0.3636363636363636
 40
0.3636363636363636
 40
0.3636363636363636
 40
0.3636363636363636
 40
0.4545454545454545
 40
0.4545454545454545
 40
0.4545454545454545
 40
0.4545454545454545
 40
0.5454545454545454
 40
0.5454545454545454
 40
0.5454545454545454
 40
0.5454545454545454
 40
0.6363636363636364
 40
0.6363636363636364
 40
0.6363636363636364
 40
0.6363636363636364
 40
0.7272727272727273
 40
0.7272727272727273
 40
0.7272727272727273
 40
0.7272727272727273
 40
0.8181818181818182
 40
0.8181818181818182
 40
0.8181818181818182
 40
0.8181818181818182
 40
1.0
 40
1.0
 40
1.0
 40
1.0
 10
16.0817
 20
16.7877
 30
0.0
 10
16.0817
 20
16.7877
 30
0.0
 10
-7.2305
 20
16.7877
 30
0.0
 10
-7.2305
 20
16.7877
 30
0.0
 10
-7.2305
 20
16.7877
 30
0.0
 10
-7.2305
 20
16.7877
 30
0.0
 10
-7.2222
 20
16.5103
 30
0.0
 10
-7.2222
 20
16.5103
 30
0.0
 10
-7.2222
 20
16.5103
 30
0.0
 10
-7.2222
 20
16.5103
 30
0.0
 10
-6.6097
 20
15.8699
 30
0.0
 10
-6.6097
 20
15.8699
 30
0.0
 10
-6.6097
 20
15.8699
 30
0.0
 10
-6.6097
 20
15.8699
 30
0.0
 10
-3.0945
 20
15.609
 30
0.0
 10
-3.0945
 20
15.609
 30
0.0
 10
-3.0945
 20
15.609
 30
0.0
 10
-3.0945
 20
15.609
 30
0.0
 10
-3.015
 20
15.6031
 30
0.0
 10
-3.015
 20
15.6031
 30
0.0
 10
-3.015
 20
15.6031
 30
0.0
 10
-3.015
 20
15.6031
 30
0.0
 10
11.9229
 20
15.6031
 30
0.0
 10
11.9229
 20
15.6031
 30
0.0
 10
11.9229
 20
15.6031
 30
0.0
 10
11.9229
 20
15.6031
 30
0.0
 10
11.9457
 20
15.605
 30
0.0
 10
11.9457
 20
15.605
 30
0.0
 10
11.9457
 20
15.605
 30
0.0
 10
11.9457
 20
15.605
 30
0.0
 10
15.4909
 20
15.8966
 30
0.0
 10
15.4909
 20
15.8966
 30
0.0
 10
15.4909
 20
15.8966
 30
0.0
 10
15.4909
 20
15.8966
 30
0.0
 10
16.0767
 20
16.4569
 30
0.0
 10
16.0767
 20
16.4569
 30
0.0
 10
16.0767
 20
16.4569
 30
0.0
 10
16.0767
 20
16.4569
 30
0.0
 10
16.0817
 20
16.7877
 30
0.0
 10
16.0817
 20
16.7877
 30
0.0
  0
SPLINE
  5
AA
330
1F
100
AcDbEntity
  8
DEFAULT_1
 62
   250
100
AcDbSpline
210
0.0
220
0.0
230
1.0
 70
     8
 71
     3
 72
    28
 73
    24
 74
     0
 42
0.0000000001
 43
0.0000000001
 40
0.0
 40
0.0
 40
0.0
 40
0.0
 40
0.1428571428571428
 40
0.1428571428571428
 40
0.1428571428571428
 40
0.1428571428571428
 40
0.2857142857142857
 40
0.2857142857142857
 40
0.2857142857142857
 40
0.2857142857142857
 40
0.4285714285714285
 40
0.4285714285714285
 40
0.4285714285714285
 40
0.4285714285714285
 40
0.5714285714285714
 40
0.5714285714285714
 40
0.5714285714285714
 40
0.5714285714285714
 40
0.7142857142857143
 40
0.7142857142857143
 40
0.7142857142857143
 40
0.7142857142857143
 40
1.0
 40
1.0
 40
1.0
 40
1.0
 10
-6.7288
 20
7.4587
 30
0.0
 10
-6.7288
 20
7.4587
 30
0.0
 10
-6.7287
 20
6.5061
 30
0.0
 10
-6.7287
 20
6.5061
 30
0.0
 10
-6.7287
 20
6.5061
 30
0.0
 10
-6.7287
 20
5.9767
 30
0.0
 10
-6.2956
 20
5.5436
 30
0.0
 10
-5.7662
 20
5.5436
 30
0.0
 10
-5.7662
 20
5.5436
 30
0.0
 10
-5.7662
 20
5.5436
 30
0.0
 10
14.672
 20
5.5436
 30
0.0
 10
14.672
 20
5.5436
 30
0.0
 10
14.672
 20
5.5436
 30
0.0
 10
15.2014
 20
5.5436
 30
0.0
 10
15.6345
 20
5.9767
 30
0.0
 10
15.6345
 20
6.5061
 30
0.0
 10
15.6345
 20
6.5061
 30
0.0
 10
15.6345
 20
6.5061
 30
0.0
 10
15.6345
 20
6.5061
 30
0.0
 10
15.6345
 20
6.5061
 30
0.0
 10
15.6345
 20
6.5061
 30
0.0
 10
15.6345
 20
6.5061
 30
0.0
 10
15.6325
 20
7.4493
 30
0.0
 10
15.6325
 20
7.4493
 30
0.0
  0
SPLINE
  5
AB
330
1F
100
AcDbEntity
  8
DEFAULT_1
 62
   250
100
AcDbSpline
210
0.0
220
0.0
230
1.0
 70
    24
 71
     3
 72
     8
 73
     4
 74
     0
 42
0.0000000001
 43
0.0000000001
 40
0.0
 40
0.0
 40
0.0
 40
0.0
 40
1.0
 40
1.0
 40
1.0
 40
1.0
 10
-6.7287
 20
7.4686
 30
0.0
 10
-6.7287
 20
7.4686
 30
0.0
 10
15.6345
 20
7.4686
 30
0.0
 10
15.6345
 20
7.4686
 30
0.0
  0
ENDSEC
  0
SECTION
  2
OBJECTS
  0
DICTIONARY
  5
C
330
0
100
AcDbDictionary
  3
ACAD_GROUP
350
D
  3
ACAD_LAYOUT
350
1A
  3
ACAD_MATERIAL
350
3B
  3
ACAD_MLEADERSTYLE
350
CE
  3
ACAD_MLINESTYLE
350
17
  3
ACAD_PLOTSETTINGS
350
19
  3
ACAD_VISUALSTYLE
350
2A
  3
ACDBHEADERROUNDTRIPXREC
350
AC
  3
ACDBVARIABLEDICTIONARY
350
CC
  0
DICTIONARY
  5
D
102
{ACAD_REACTORS
330
C
102
}
330
C
100
AcDbDictionary
  0
DICTIONARY
  5
1A
102
{ACAD_REACTORS
330
C
102
}
330
C
100
AcDbDictionary
  0
DICTIONARY
  5
3B
102
{ACAD_REACTORS
330
C
102
}
330
C
100
AcDbDictionary
  3
BYBLOCK
350
3D
  3
BYLAYER
350
3C
  3
GLOBAL
350
3E
  0
DICTIONARY
  5
CE
102
{ACAD_REACTORS
330
C
102
}
330
C
100
AcDbDictionary
  0
DICTIONARY
  5
17
102
{ACAD_REACTORS
330
C
102
}
330
C
100
AcDbDictionary
  3
STANDARD
350
18
  0
DICTIONARY
  5
19
102
{ACAD_REACTORS
330
C
102
}
330
C
100
AcDbDictionary
  0
DICTIONARY
  5
2A
102
{ACAD_REACTORS
330
C
102
}
330
C
100
AcDbDictionary
  3
2DWIREFRAME
350
2F
  3
3D_HIDDEN
350
31
  3
3DWIREFRAME
350
30
  3
BASIC
350
32
  3
BRIGHTEN
350
36
  3
COLORCHANGE
350
3A
  3
CONCEPTUAL
350
34
  3
DIM
350
35
  3
FACEPATTERN
350
39
  3
FLAT
350
2B
  3
FLATWITHEDGES
350
2C
  3
GOURAUD
350
2D
  3
GOURAUDWITHEDGES
350
2E
  3
LINEPATTERN
350
38
  3
REALISTIC
350
33
  3
THICKEN
350
37
  0
DICTIONARY
  5
AC
102
{ACAD_REACTORS
330
C
102
}
330
C
100
AcDbDictionary
  3
CEPSNTYPE
350
B5
  3
DIMSTYLEDATA
350
CB
  3
FINGERPRINTGUID
350
B6
  3
HYPERLINKBASE
350
AF
  3
INSUNITS
350
B4
  3
LAYOUTDICT
350
B1
  3
LWETCUNION
350
B3
  3
PLOTSETDICT
350
B2
  3
PSVPSCALE
350
B8
  3
PUCSBASE
350
BB
  3
PUCSORGBACK
350
C1
  3
PUCSORGBOTTOM
350
BD
  3
PUCSORGFRONT
350
C0
  3
PUCSORGLEFT
350
BE
  3
PUCSORGRIGHT
350
BF
  3
PUCSORGTOP
350
BC
  3
PUCSORTHOREF
350
B9
  3
PUCSORTHOVIEW
350
BA
  3
STYLESHEET
350
B0
  3
TSTACKALIGN
350
AD
  3
TSTACKSIZE
350
AE
  3
UCSBASE
350
C4
  3
UCSORGBACK
350
CA
  3
UCSORGBOTTOM
350
C6
  3
UCSORGFRONT
350
C9
  3
UCSORGLEFT
350
C7
  3
UCSORGRIGHT
350
C8
  3
UCSORGTOP
350
C5
  3
UCSORTHOREF
350
C2
  3
UCSORTHOVIEW
350
C3
  3
VERSIONGUID
350
B7
  0
DICTIONARY
  5
CC
102
{ACAD_REACTORS
330
C
102
}
330
C
100
AcDbDictionary
  3
DIMASSOC
350
CF
  3
HIDETEXT
350
D0
  0
MATERIAL
  5
3D
102
{ACAD_REACTORS
330
3B
102
}
102
{ACAD_XDICTIONARY
360
D3
102
}
330
3B
100
AcDbMaterial
  1
ByBlock
  0
MATERIAL
  5
3C
102
{ACAD_REACTORS
330
3B
102
}
102
{ACAD_XDICTIONARY
360
D1
102
}
330
3B
100
AcDbMaterial
  1
ByLayer
  0
MATERIAL
  5
3E
102
{ACAD_REACTORS
330
3B
102
}
102
{ACAD_XDICTIONARY
360
D5
102
}
330
3B
100
AcDbMaterial
  1
Global
  0
MLINESTYLE
  5
18
102
{ACAD_REACTORS
330
17
102
}
330
17
100
AcDbMlineStyle
  2
Standard
 70
     0
  3

 62
   256
 51
90.0
 52
90.0
 71
     2
 49
0.5
 62
   256
  6
BYLAYER
 49
-0.5
 62
   256
  6
BYLAYER
  0
ACAD_PROXY_OBJECT
  5
2F
102
{ACAD_REACTORS
330
2A
102
}
330
2A
100
AcDbProxyObject
 90
      499
 91
      501
 93
      436
310
42CC9915DA5C99599C985B595049028333333333333E3BF0000000000000FB0107901411070040501600405405064090741402480A0340
1001
ACAD
1000
AcDbSavedByObjectVersion
1070
     0
  0
ACAD_PROXY_OBJECT
  5
31
102
{ACAD_REACTORS
330
2A
102
}
330
2A
100
AcDbProxyObject
 90
      499
 91
      501
 93
      500
310
424CD108121A5919195B90640502408333333333333E3BF0000000000000FB01079024090700405020000000000001110200405405064090740C02480A0340
1001
ACAD
1000
AcDbSavedByObjectVersion
1070
     0
  0
ACAD_PROXY_OBJECT
  5
30
102
{ACAD_REACTORS
330
2A
102
}
330
2A
100
AcDbProxyObject
 90
      499
 91
      501
 93
      436
310
42CCD915DA5C99599C985B595059028333333333333E3BF0000000000000FB0107901411070040501600405405064090741402480A0340
1001
ACAD
1000
AcDbSavedByObjectVersion
1070
     0
  0
ACAD_PROXY_OBJECT
  5
32
102
{ACAD_REACTORS
330
2A
102
}
330
2A
100
AcDbProxyObject
 90
      499
 91
      501
 93
      388
310
4150985CDA58D07406404333333333333E3BF0000000000000FB0107A41107004050150841D405064090741402480A0350
1001
ACAD
1000
AcDbSavedByObjectVersion
1070
     0
  0
ACAD_PROXY_OBJECT
  5
36
102
{ACAD_REACTORS
330
2A
102
}
330
2A
100
AcDbProxyObject
 90
      499
 91
      501
 93
      428
310
42109C9A59DA1D195B90C409028333333333333E3BF0000000000000FB010790141107004050150841D405064090741402480A029950
1001
ACAD
1000
AcDbSavedByObjectVersion
1070
     0
  0
ACAD_PROXY_OBJECT
  5
3A
102
{ACAD_REACTORS
330
2A
102
}
330
2A
100
AcDbProxyObject
 90
      499
 91
      501
 93
      452
310
42D0DBDB1BDC90DA185B99D95104090240C333333333333E3BF0000000000000FB0108901411070040501508421405064090741402480A0350
1001
ACAD
1000
AcDbSavedByObjectVersion
1070
     0
  0
ACAD_PROXY_OBJECT
  5
34
102
{ACAD_REACTORS
330
2A
102
}
330
2A
100
AcDbProxyObject
 90
      499
 91
      501
 93
      500
310
4290DBDB98D95C1D1D585B10940D028333333333333E3BF0000000000000FB0107902409070040501000000000000111010841D405064090740C02480A0340
1001
ACAD
1000
AcDbSavedByObjectVersion
1070
     0
  0
ACAD_PROXY_OBJECT
  5
35
102
{ACAD_REACTORS
330
2A
102
}
330
2A
100
AcDbProxyObject
 90
      499
 91
      501
 93
      412
310
40D11A5B50B409028333333333333E3BF0000000000000FB010790141107004050150841D405064090741402480A02677FFFFFD0
1001
ACAD
1000
AcDbSavedByObjectVersion
1070
     0
  0
ACAD_PROXY_OBJECT
  5
39
102
{ACAD_REACTORS
330
2A
102
}
330
2A
100
AcDbProxyObject
 90
      499
 91
      501
 93
      444
310
42D19858D95C185D1D195C9B90F409028333333333333E3BF0000000000000FB010790141107004050150841D405064090741402480A0350
1001
ACAD
1000
AcDbSavedByObjectVersion
1070
     0
  0
ACAD_PROXY_OBJECT
  5
2B
102
{ACAD_REACTORS
330
2A
102
}
330
2A
100
AcDbProxyObject
 90
      499
 91
      501
 93
      388
310
41119B185D240901404333333333333E3BF0000000000000F9010740A41107004050150841D405064090741402480A1B50
1001
ACAD
1000
AcDbSavedByObjectVersion
1070
     0
  0
ACAD_PROXY_OBJECT
  5
2C
102
{ACAD_REACTORS
330
2A
102
}
330
2A
100
AcDbProxyObject
 90
      499
 91
      501
 93
      476
310
43519B185D15DA5D1A115919D95CD0140901404333333333333E3BF0000000000000F9010740901411070040501600405405064090741402480A1B50
1001
ACAD
1000
AcDbSavedByObjectVersion
1070
     0
  0
ACAD_PROXY_OBJECT
  5
2D
102
{ACAD_REACTORS
330
2A
102
}
330
2A
100
AcDbProxyObject
 90
      499
 91
      501
 93
      412
310
41D1DBDD5C985D5910240902404333333333333E3BF0000000000000F9010740A411070040501641D405064090741402480A1B50
1001
ACAD
1000
AcDbSavedByObjectVersion
1070
     0
  0
ACAD_PROXY_OBJECT
  5
2E
102
{ACAD_REACTORS
330
2A
102
}
330
2A
100
AcDbProxyObject
 90
      499
 91
      501
 93
      500
310
4411DBDD5C985D5915DA5D1A115919D95CD0340902404333333333333E3BF0000000000000F9010740901411070040501600405405064090741402480A1B50
1001
ACAD
1000
AcDbSavedByObjectVersion
1070
     0
  0
ACAD_PROXY_OBJECT
  5
38
102
{ACAD_REACTORS
330
2A
102
}
330
2A
100
AcDbProxyObject
 90
      499
 91
      501
 93
      444
310
42D31A5B995C185D1D195C9B90E409028333333333333E3BF0000000000000FB010790141107004050750841D405064090741402483A0350
1001
ACAD
1000
AcDbSavedByObjectVersion
1070
     0
  0
ACAD_PROXY_OBJECT
  5
33
102
{ACAD_REACTORS
330
2A
102
}
330
2A
100
AcDbProxyObject
 90
      499
 91
      501
 93
      420
310
425499585B1A5CDD1A58D08409028333333333333E3BF0000000000000FB01079019070040501508421405064090741402480A1B40
1001
ACAD
1000
AcDbSavedByObjectVersion
1070
     0
  0
ACAD_PROXY_OBJECT
  5
37
102
{ACAD_REACTORS
330
2A
102
}
330
2A
100
AcDbProxyObject
 90
      499
 91
      501
 93
      412
310
41D51A1A58DAD95B90D409028333333333333E3BF0000000000000FB010790141107004050150C41D405064090741402480A0350
1001
ACAD
1000
AcDbSavedByObjectVersion
1070
     0
  0
XRECORD
  5
B5
102
{ACAD_REACTORS
330
AC
102
}
330
AC
100
AcDbXrecord
 90
        0
  0
XRECORD
  5
CB
102
{ACAD_REACTORS
330
AC
102
}
330
AC
100
AcDbXrecord
1000
DSTYLE
1002
{
1070
   340
340
11
1002
}
  0
XRECORD
  5
B6
102
{ACAD_REACTORS
330
AC
102
}
330
AC
100
AcDbXrecord
  1
{418BA416-F0C5-4789-8319-B961390576CA}
  0
XRECORD
  5
AF
102
{ACAD_REACTORS
330
AC
102
}
330
AC
100
AcDbXrecord
  1

  0
XRECORD
  5
B4
102
{ACAD_REACTORS
330
AC
102
}
330
AC
100
AcDbXrecord
 90
        4
  0
XRECORD
  5
B1
102
{ACAD_REACTORS
330
AC
102
}
330
AC
100
AcDbXrecord
340
1A
  0
XRECORD
  5
B3
102
{ACAD_REACTORS
330
AC
102
}
330
AC
100
AcDbXrecord
 90
    10781
  0
XRECORD
  5
B2
102
{ACAD_REACTORS
330
AC
102
}
330
AC
100
AcDbXrecord
340
19
  0
XRECORD
  5
B8
102
{ACAD_REACTORS
330
AC
102
}
330
AC
100
AcDbXrecord
 40
0.0
  0
XRECORD
  5
BB
102
{ACAD_REACTORS
330
AC
102
}
330
AC
100
AcDbXrecord
340
0
  0
XRECORD
  5
C1
102
{ACAD_REACTORS
330
AC
102
}
330
AC
100
AcDbXrecord
 10
0.0
 20
0.0
 30
0.0
  0
XRECORD
  5
BD
102
{ACAD_REACTORS
330
AC
102
}
330
AC
100
AcDbXrecord
 10
0.0
 20
0.0
 30
0.0
  0
XRECORD
  5
C0
102
{ACAD_REACTORS
330
AC
102
}
330
AC
100
AcDbXrecord
 10
0.0
 20
0.0
 30
0.0
  0
XRECORD
  5
BE
102
{ACAD_REACTORS
330
AC
102
}
330
AC
100
AcDbXrecord
 10
0.0
 20
0.0
 30
0.0
  0
XRECORD
  5
BF
102
{ACAD_REACTORS
330
AC
102
}
330
AC
100
AcDbXrecord
 10
0.0
 20
0.0
 30
0.0
  0
XRECORD
  5
BC
102
{ACAD_REACTORS
330
AC
102
}
330
AC
100
AcDbXrecord
 10
0.0
 20
0.0
 30
0.0
  0
XRECORD
  5
B9
102
{ACAD_REACTORS
330
AC
102
}
330
AC
100
AcDbXrecord
340
0
  0
XRECORD
  5
BA
102
{ACAD_REACTORS
330
AC
102
}
330
AC
100
AcDbXrecord
 70
     0
  0
XRECORD
  5
B0
102
{ACAD_REACTORS
330
AC
102
}
330
AC
100
AcDbXrecord
  1

  0
XRECORD
  5
AD
102
{ACAD_REACTORS
330
AC
102
}
330
AC
100
AcDbXrecord
 90
        1
  0
XRECORD
  5
AE
102
{ACAD_REACTORS
330
AC
102
}
330
AC
100
AcDbXrecord
 90
       70
  0
XRECORD
  5
C4
102
{ACAD_REACTORS
330
AC
102
}
330
AC
100
AcDbXrecord
340
0
  0
XRECORD
  5
CA
102
{ACAD_REACTORS
330
AC
102
}
330
AC
100
AcDbXrecord
 10
0.0
 20
0.0
 30
0.0
  0
XRECORD
  5
C6
102
{ACAD_REACTORS
330
AC
102
}
330
AC
100
AcDbXrecord
 10
0.0
 20
0.0
 30
0.0
  0
XRECORD
  5
C9
102
{ACAD_REACTORS
330
AC
102
}
330
AC
100
AcDbXrecord
 10
0.0
 20
0.0
 30
0.0
  0
XRECORD
  5
C7
102
{ACAD_REACTORS
330
AC
102
}
330
AC
100
AcDbXrecord
 10
0.0
 20
0.0
 30
0.0
  0
XRECORD
  5
C8
102
{ACAD_REACTORS
330
AC
102
}
330
AC
100
AcDbXrecord
 10
0.0
 20
0.0
 30
0.0
  0
XRECORD
  5
C5
102
{ACAD_REACTORS
330
AC
102
}
330
AC
100
AcDbXrecord
 10
0.0
 20
0.0
 30
0.0
  0
XRECORD
  5
C2
102
{ACAD_REACTORS
330
AC
102
}
330
AC
100
AcDbXrecord
340
0
  0
XRECORD
  5
C3
102
{ACAD_REACTORS
330
AC
102
}
330
AC
100
AcDbXrecord
 70
     0
  0
XRECORD
  5
B7
102
{ACAD_REACTORS
330
AC
102
}
330
AC
100
AcDbXrecord
  1
{FAEB1C32-E019-11D5-929B-00C0DF256EC4}
  0
DICTIONARYVAR
  5
CF
102
{ACAD_REACTORS
330
CC
102
}
330
CC
100
DictionaryVariables
280
     0
  1
2
  0
DICTIONARYVAR
  5
D0
102
{ACAD_REACTORS
330
CC
102
}
330
CC
100
DictionaryVariables
280
     0
  1
1
  0
DICTIONARY
  5
D3
330
3D
100
AcDbDictionary
280
     1
  3
ACAD_XREC_ROUNDTRIP
360
D4
  0
DICTIONARY
  5
D1
330
3C
100
AcDbDictionary
280
     1
  3
ACAD_XREC_ROUNDTRIP
360
D2
  0
DICTIONARY
  5
D5
330
3E
100
AcDbDictionary
280
     1
  3
ACAD_XREC_ROUNDTRIP
360
D6
  0
XRECORD
  5
D4
102
{ACAD_REACTORS
330
D3
102
}
330
D3
100
AcDbXrecord
102
MATERIAL
148
0.0
149
0.0
149
0.0
 93
        0
 94
      127
282
     0
 72
     1
 77
     1
171
     1
175
     1
179
     1
273
     0
  0
XRECORD
  5
D2
102
{ACAD_REACTORS
330
D1
102
}
330
D1
100
AcDbXrecord
102
MATERIAL
148
0.0
149
0.0
149
0.0
 93
        0
 94
      127
282
     0
 72
     1
 77
     1
171
     1
175
     1
179
     1
273
     0
  0
XRECORD
  5
D6
102
{ACAD_REACTORS
330
D5
102
}
330
D5
100
AcDbXrecord
102
MATERIAL
148
0.0
149
0.0
149
0.0
 93
        0
 94
      127
282
     0
 72
     1
 77
     1
171
     1
175
     1
179
     1
273
     0
  0
ENDSEC
  0
EOF
