  0
SECTION
  2
HEADER
  9
$ACADVER
  1
AC1014
  9
$ACADMAINTVER
 70
     9
  9
$DWGCODEPAGE
  3
ANSI_1250
  9
$INSBASE
 10
0.0
 20
0.0
 30
0.0
  9
$EXTMIN
 10
-29.5524
 20
-34.0837
 30
0.0
  9
$EXTMAX
 10
29.5527
 20
33.5948
 30
0.0
  9
$LIMMIN
 10
0.0
 20
0.0
  9
$LIMMAX
 10
12.0
 20
9.0
  9
$ORTHOMODE
 70
     0
  9
$REGENMODE
 70
     1
  9
$FILLMODE
 70
     1
  9
$QTEXTMODE
 70
     0
  9
$MIRRTEXT
 70
     1
  9
$DRAGMODE
 70
     2
  9
$LTSCALE
 40
1.0
  9
$OSMODE
 70
    37
  9
$ATTMODE
 70
     1
  9
$TEXTSIZE
 40
0.2
  9
$TRACEWID
 40
0.05
  9
$TEXTSTYLE
  7
STANDARD
  9
$CLAYER
  8
0
  9
$CELTYPE
  6
BYLAYER
  9
$CECOLOR
 62
   256
  9
$CELTSCALE
 40
1.0
  9
$DELOBJ
 70
     1
  9
$DISPSILH
 70
     0
  9
$DIMSCALE
 40
1.0
  9
$DIMASZ
 40
0.18
  9
$DIMEXO
 40
0.0625
  9
$DIMDLI
 40
0.38
  9
$DIMRND
 40
0.0
  9
$DIMDLE
 40
0.0
  9
$DIMEXE
 40
0.18
  9
$DIMTP
 40
0.0
  9
$DIMTM
 40
0.0
  9
$DIMTXT
 40
0.18
  9
$DIMCEN
 40
0.09
  9
$DIMTSZ
 40
0.0
  9
$DIMTOL
 70
     0
  9
$DIMLIM
 70
     0
  9
$DIMTIH
 70
     1
  9
$DIMTOH
 70
     1
  9
$DIMSE1
 70
     0
  9
$DIMSE2
 70
     0
  9
$DIMTAD
 70
     0
  9
$DIMZIN
 70
     0
  9
$DIMBLK
  1

  9
$DIMASO
 70
     1
  9
$DIMSHO
 70
     1
  9
$DIMPOST
  1

  9
$DIMAPOST
  1

  9
$DIMALT
 70
     0
  9
$DIMALTD
 70
     2
  9
$DIMALTF
 40
25.4
  9
$DIMLFAC
 40
1.0
  9
$DIMTOFL
 70
     0
  9
$DIMTVP
 40
0.0
  9
$DIMTIX
 70
     0
  9
$DIMSOXD
 70
     0
  9
$DIMSAH
 70
     0
  9
$DIMBLK1
  1

  9
$DIMBLK2
  1

  9
$DIMSTYLE
  2
STANDARD
  9
$DIMCLRD
 70
     0
  9
$DIMCLRE
 70
     0
  9
$DIMCLRT
 70
     0
  9
$DIMTFAC
 40
1.0
  9
$DIMGAP
 40
0.09
  9
$DIMJUST
 70
     0
  9
$DIMSD1
 70
     0
  9
$DIMSD2
 70
     0
  9
$DIMTOLJ
 70
     1
  9
$DIMTZIN
 70
     0
  9
$DIMALTZ
 70
     0
  9
$DIMALTTZ
 70
     0
  9
$DIMFIT
 70
     3
  9
$DIMUPT
 70
     0
  9
$DIMUNIT
 70
     2
  9
$DIMDEC
 70
     4
  9
$DIMTDEC
 70
     4
  9
$DIMALTU
 70
     2
  9
$DIMALTTD
 70
     2
  9
$DIMTXSTY
  7
STANDARD
  9
$DIMAUNIT
 70
     0
  9
$LUNITS
 70
     2
  9
$LUPREC
 70
     4
  9
$SKETCHINC
 40
0.1
  9
$FILLETRAD
 40
0.5
  9
$AUNITS
 70
     0
  9
$AUPREC
 70
     0
  9
$MENU
  1
.
  9
$ELEVATION
 40
0.0
  9
$PELEVATION
 40
0.0
  9
$THICKNESS
 40
0.0
  9
$LIMCHECK
 70
     0
  9
$CHAMFERA
 40
0.5
  9
$CHAMFERB
 40
0.5
  9
$CHAMFERC
 40
1.0
  9
$CHAMFERD
 40
0.0
  9
$SKPOLY
 70
     0
  9
$TDCREATE
 40
2456266.383120104
  9
$TDUPDATE
 40
2456266.383120116
  9
$TDINDWG
 40
0.0000000116
  9
$TDUSRTIMER
 40
0.0000000116
  9
$USRTIMER
 70
     1
  9
$ANGBASE
 50
0.0
  9
$ANGDIR
 70
     0
  9
$PDMODE
 70
     0
  9
$PDSIZE
 40
0.0
  9
$PLINEWID
 40
0.0
  9
$COORDS
 70
     1
  9
$SPLFRAME
 70
     0
  9
$SPLINETYPE
 70
     6
  9
$SPLINESEGS
 70
     8
  9
$ATTDIA
 70
     0
  9
$ATTREQ
 70
     1
  9
$HANDLING
 70
     1
  9
$HANDSEED
  5
F3
  9
$SURFTAB1
 70
     6
  9
$SURFTAB2
 70
     6
  9
$SURFTYPE
 70
     6
  9
$SURFU
 70
     6
  9
$SURFV
 70
     6
  9
$UCSNAME
  2

  9
$UCSORG
 10
0.0
 20
0.0
 30
0.0
  9
$UCSXDIR
 10
1.0
 20
0.0
 30
0.0
  9
$UCSYDIR
 10
0.0
 20
1.0
 30
0.0
  9
$PUCSNAME
  2

  9
$PUCSORG
 10
0.0
 20
0.0
 30
0.0
  9
$PUCSXDIR
 10
1.0
 20
0.0
 30
0.0
  9
$PUCSYDIR
 10
0.0
 20
1.0
 30
0.0
  9
$USERI1
 70
     0
  9
$USERI2
 70
     0
  9
$USERI3
 70
     0
  9
$USERI4
 70
     0
  9
$USERI5
 70
     0
  9
$USERR1
 40
0.0
  9
$USERR2
 40
0.0
  9
$USERR3
 40
0.0
  9
$USERR4
 40
0.0
  9
$USERR5
 40
0.0
  9
$WORLDVIEW
 70
     1
  9
$SHADEDGE
 70
     3
  9
$SHADEDIF
 70
    70
  9
$TILEMODE
 70
     1
  9
$MAXACTVP
 70
    64
  9
$PINSBASE
 10
0.0
 20
0.0
 30
0.0
  9
$PLIMCHECK
 70
     0
  9
$PEXTMIN
 10
1.000000000000000E+20
 20
1.000000000000000E+20
 30
1.000000000000000E+20
  9
$PEXTMAX
 10
-1.000000000000000E+20
 20
-1.000000000000000E+20
 30
-1.000000000000000E+20
  9
$PLIMMIN
 10
0.0
 20
0.0
  9
$PLIMMAX
 10
12.0
 20
9.0
  9
$UNITMODE
 70
     0
  9
$VISRETAIN
 70
     1
  9
$PLINEGEN
 70
     0
  9
$PSLTSCALE
 70
     1
  9
$TREEDEPTH
 70
  3020
  9
$PICKSTYLE
 70
     1
  9
$CMLSTYLE
  2
STANDARD
  9
$CMLJUST
 70
     0
  9
$CMLSCALE
 40
1.0
  9
$PROXYGRAPHICS
 70
     1
  9
$MEASUREMENT
 70
     0
  0
ENDSEC
  0
SECTION
  2
CLASSES
  0
CLASS
  1
ACDBDICTIONARYWDFLT
  2
AcDbDictionaryWithDefault
  3
ObjectDBX Classes
 90
        0
280
     0
281
     0
  0
CLASS
  1
VISUALSTYLE
  2
AcDbVisualStyle
  3
ObjectDBX Classes
 90
     4095
280
     0
281
     0
  0
CLASS
  1
MATERIAL
  2
AcDbMaterial
  3
ObjectDBX Classes
 90
     1153
280
     0
281
     0
  0
CLASS
  1
DICTIONARYVAR
  2
AcDbDictionaryVar
  3
ObjectDBX Classes
 90
        0
280
     0
281
     0
  0
CLASS
  1
XRECORD
  2
AcDbXrecord
  3
AutoCAD 2000
 90
        0
280
     0
281
     0
  0
CLASS
  1
LWPOLYLINE
  2
AcDbPolyline
  3
AutoCAD 2000
 90
        0
280
     0
281
     1
  0
CLASS
  1
HATCH
  2
AcDbHatch
  3
AutoCAD 2000
 90
        0
280
     0
281
     1
  0
CLASS
  1
ACDBPLACEHOLDER
  2
AcDbPlaceHolder
  3
ObjectDBX Classes
 90
        0
280
     0
281
     0
  0
CLASS
  1
LAYOUT
  2
AcDbLayout
  3
ObjectDBX Classes
 90
        0
280
     0
281
     0
  0
ENDSEC
  0
SECTION
  2
TABLES
  0
TABLE
  2
VPORT
  5
8
330
0
100
AcDbSymbolTable
 70
     1
  0
VPORT
  5
29
330
8
100
AcDbSymbolTableRecord
100
AcDbViewportTableRecord
  2
*ACTIVE
 70
     0
 10
0.0
 20
0.0
 11
1.0
 21
1.0
 12
10.42990654205607
 22
4.5
 13
0.0
 23
0.0
 14
0.5
 24
0.5
 15
0.5
 25
0.5
 16
0.0
 26
0.0
 36
1.0
 17
0.0
 27
0.0
 37
0.0
 40
9.0
 41
1.972972972850329
 42
50.0
 43
0.0
 44
0.0
 50
0.0
 51
0.0
 71
     0
 72
   100
 73
     1
 74
     3
 75
     0
 76
     0
 77
     0
 78
     0
  0
ENDTAB
  0
TABLE
  2
LTYPE
  5
5
330
0
100
AcDbSymbolTable
 70
     4
  0
LTYPE
  5
14
330
5
100
AcDbSymbolTableRecord
100
AcDbLinetypeTableRecord
  2
BYBLOCK
 70
     0
  3

 72
    65
 73
     0
 40
0.0
  0
LTYPE
  5
15
330
5
100
AcDbSymbolTableRecord
100
AcDbLinetypeTableRecord
  2
BYLAYER
 70
     0
  3

 72
    65
 73
     0
 40
0.0
  0
LTYPE
  5
16
330
5
100
AcDbSymbolTableRecord
100
AcDbLinetypeTableRecord
  2
CONTINUOUS
 70
     0
  3
Solid line
 72
    65
 73
     0
 40
0.0
  0
LTYPE
  5
84
330
5
100
AcDbSymbolTableRecord
100
AcDbLinetypeTableRecord
  2
NEW_LINE1
 70
     0
  3

 72
    65
 73
     4
 40
1.2
 49
0.5
 74
     4
 75
     0
340
0
 46
1.0
 50
0.0
 44
0.0
 45
0.0
 49
-0.3
 74
     4
 75
     0
340
0
 46
1.0
 50
0.0
 44
0.0
 45
0.0
 49
0.1
 74
     4
 75
     0
340
0
 46
1.0
 50
0.0
 44
0.0
 45
0.0
 49
-0.3
 74
     4
 75
     0
340
0
 46
1.0
 50
0.0
 44
0.0
 45
0.0
  0
LTYPE
  5
86
330
5
100
AcDbSymbolTableRecord
100
AcDbLinetypeTableRecord
  2
NEW_LINE2
 70
     0
  3

 72
    65
 73
     4
 40
1.2
 49
0.5
 74
     4
 75
     0
340
0
 46
1.0
 50
0.0
 44
0.0
 45
0.0
 49
-0.3
 74
     4
 75
     0
340
0
 46
1.0
 50
0.0
 44
0.0
 45
0.0
 49
0.1
 74
     4
 75
     0
340
0
 46
1.0
 50
0.0
 44
0.0
 45
0.0
 49
-0.3
 74
     4
 75
     0
340
0
 46
1.0
 50
0.0
 44
0.0
 45
0.0
  0
LTYPE
  5
88
330
5
100
AcDbSymbolTableRecord
100
AcDbLinetypeTableRecord
  2
NEW_LINE3
 70
     0
  3

 72
    65
 73
     4
 40
1.2
 49
0.5
 74
     4
 75
     0
340
0
 46
1.0
 50
0.0
 44
0.0
 45
0.0
 49
-0.3
 74
     4
 75
     0
340
0
 46
1.0
 50
0.0
 44
0.0
 45
0.0
 49
0.1
 74
     4
 75
     0
340
0
 46
1.0
 50
0.0
 44
0.0
 45
0.0
 49
-0.3
 74
     4
 75
     0
340
0
 46
1.0
 50
0.0
 44
0.0
 45
0.0
  0
ENDTAB
  0
TABLE
  2
LAYER
  5
2
330
0
100
AcDbSymbolTable
 70
     2
  0
LAYER
  5
10
330
2
100
AcDbSymbolTableRecord
100
AcDbLayerTableRecord
  2
0
 70
     0
 62
     7
  6
CONTINUOUS
  0
LAYER
  5
40
330
2
100
AcDbSymbolTableRecord
100
AcDbLayerTableRecord
  2
DATUMS
 70
     0
 62
     7
  6
CONTINUOUS
  0
ENDTAB
  0
TABLE
  2
STYLE
  5
3
330
0
100
AcDbSymbolTable
 70
     1
  0
STYLE
  5
11
330
3
100
AcDbSymbolTableRecord
100
AcDbTextStyleTableRecord
  2
STANDARD
 70
     0
 40
0.0
 41
1.0
 50
0.0
 71
     0
 42
0.2
  3
txt
  4

  0
ENDTAB
  0
TABLE
  2
VIEW
  5
6
330
0
100
AcDbSymbolTable
 70
     0
  0
ENDTAB
  0
TABLE
  2
UCS
  5
7
330
0
100
AcDbSymbolTable
 70
     0
  0
ENDTAB
  0
TABLE
  2
APPID
  5
9
330
0
100
AcDbSymbolTable
 70
     2
  0
APPID
  5
12
330
9
100
AcDbSymbolTableRecord
100
AcDbRegAppTableRecord
  2
ACAD
 70
     0
  0
APPID
  5
3F
330
9
100
AcDbSymbolTableRecord
100
AcDbRegAppTableRecord
  2
ODA
 70
     0
  0
ENDTAB
  0
TABLE
  2
DIMSTYLE
  5
A
330
0
100
AcDbSymbolTable
 70
     1
  0
DIMSTYLE
105
27
330
A
100
AcDbSymbolTableRecord
100
AcDbDimStyleTableRecord
  2
STANDARD
 70
     0
  3

  4

  5

  6

  7

 40
1.0
 41
0.18
 42
0.0625
 43
0.38
 44
0.18
 45
0.0
 46
0.0
 47
0.0
 48
0.0
140
0.18
141
0.09
142
0.0
143
25.4
144
1.0
145
0.0
146
1.0
147
0.09
 71
     0
 72
     0
 73
     1
 74
     1
 75
     0
 76
     0
 77
     0
 78
     0
170
     0
171
     2
172
     0
173
     0
174
     0
175
     0
176
     0
177
     0
178
     0
270
     2
271
     4
272
     4
273
     2
274
     2
340
11
275
     0
280
     0
281
     0
282
     0
283
     1
284
     0
285
     0
286
     0
287
     3
288
     0
  0
ENDTAB
  0
TABLE
  2
BLOCK_RECORD
  5
1
330
0
100
AcDbSymbolTable
 70
     1
  0
BLOCK_RECORD
  5
1F
330
1
100
AcDbSymbolTableRecord
100
AcDbBlockTableRecord
  2
*MODEL_SPACE
  0
BLOCK_RECORD
  5
1B
330
1
100
AcDbSymbolTableRecord
100
AcDbBlockTableRecord
  2
*PAPER_SPACE
  0
ENDTAB
  0
ENDSEC
  0
SECTION
  2
BLOCKS
  0
BLOCK
  5
20
330
1F
100
AcDbEntity
  8
0
100
AcDbBlockBegin
  2
*MODEL_SPACE
 70
     0
 10
0.0
 20
0.0
 30
0.0
  3
*MODEL_SPACE
  1

  0
ENDBLK
  5
21
330
1F
100
AcDbEntity
  8
0
100
AcDbBlockEnd
  0
BLOCK
  5
1C
330
1B
100
AcDbEntity
 67
     1
  8
0
100
AcDbBlockBegin
  2
*PAPER_SPACE
 70
     0
 10
0.0
 20
0.0
 30
0.0
  3
*PAPER_SPACE
  1

  0
ENDBLK
  5
1D
330
1B
100
AcDbEntity
 67
     1
  8
0
100
AcDbBlockEnd
  0
ENDSEC
  0
SECTION
  2
ENTITIES
  0
SPLINE
  5
41
330
1F
100
AcDbEntity
  8
DATUMS
 62
   250
100
AcDbSpline
210
0.0
220
0.0
230
1.0
 70
    11
 71
     3
 72
    68
 73
    64
 74
     0
 42
0.0000000001
 43
0.0000000001
 40
0.0
 40
0.0
 40
0.0
 40
0.0
 40
0.0588235294117647
 40
0.0588235294117647
 40
0.0588235294117647
 40
0.0588235294117647
 40
0.1176470588235294
 40
0.1176470588235294
 40
0.1176470588235294
 40
0.1176470588235294
 40
0.1764705882352941
 40
0.1764705882352941
 40
0.1764705882352941
 40
0.1764705882352941
 40
0.2352941176470588
 40
0.2352941176470588
 40
0.2352941176470588
 40
0.2352941176470588
 40
0.2941176470588235
 40
0.2941176470588235
 40
0.2941176470588235
 40
0.2941176470588235
 40
0.3529411764705883
 40
0.3529411764705883
 40
0.3529411764705883
 40
0.3529411764705883
 40
0.4117647058823529
 40
0.4117647058823529
 40
0.4117647058823529
 40
0.4117647058823529
 40
0.4705882352941176
 40
0.4705882352941176
 40
0.4705882352941176
 40
0.4705882352941176
 40
0.5294117647058824
 40
0.5294117647058824
 40
0.5294117647058824
 40
0.5294117647058824
 40
0.5882352941176471
 40
0.5882352941176471
 40
0.5882352941176471
 40
0.5882352941176471
 40
0.6470588235294118
 40
0.6470588235294118
 40
0.6470588235294118
 40
0.6470588235294118
 40
0.7058823529411765
 40
0.7058823529411765
 40
0.7058823529411765
 40
0.7058823529411765
 40
0.7647058823529411
 40
0.7647058823529411
 40
0.7647058823529411
 40
0.7647058823529411
 40
0.8235294117647058
 40
0.8235294117647058
 40
0.8235294117647058
 40
0.8235294117647058
 40
0.8823529411764706
 40
0.8823529411764706
 40
0.8823529411764706
 40
0.8823529411764706
 40
1.0
 40
1.0
 40
1.0
 40
1.0
 10
5.2141
 20
-31.8661
 30
0.0
 10
5.111
 20
-31.8285
 30
0.0
 10
5.0348
 20
-31.7749
 30
0.0
 10
4.985
 20
-31.7048
 30
0.0
 10
4.985
 20
-31.7048
 30
0.0
 10
4.9356
 20
-31.6352
 30
0.0
 10
4.9107
 20
-31.5514
 30
0.0
 10
4.9107
 20
-31.4541
 30
0.0
 10
4.9107
 20
-31.4541
 30
0.0
 10
4.9107
 20
-31.3069
 30
0.0
 10
4.9634
 20
-31.1836
 30
0.0
 10
5.0692
 20
-31.0834
 30
0.0
 10
5.0692
 20
-31.0834
 30
0.0
 10
5.175
 20
-30.9832
 30
0.0
 10
5.3152
 20
-30.9329
 30
0.0
 10
5.4906
 20
-30.9329
 30
0.0
 10
5.4906
 20
-30.9329
 30
0.0
 10
5.667
 20
-30.9329
 30
0.0
 10
5.8091
 20
-30.9842
 30
0.0
 10
5.9168
 20
-31.0867
 30
0.0
 10
5.9168
 20
-31.0867
 30
0.0
 10
6.024
 20
-31.1893
 30
0.0
 10
6.0777
 20
-31.3139
 30
0.0
 10
6.0777
 20
-31.4611
 30
0.0
 10
6.0777
 20
-31.4611
 30
0.0
 10
6.0777
 20
-31.5547
 30
0.0
 10
6.0532
 20
-31.6361
 30
0.0
 10
6.0043
 20
-31.7057
 30
0.0
 10
6.0043
 20
-31.7057
 30
0.0
 10
5.9549
 20
-31.7749
 30
0.0
 10
5.8806
 20
-31.8285
 30
0.0
 10
5.7804
 20
-31.8661
 30
0.0
 10
5.7804
 20
-31.8661
 30
0.0
 10
5.9041
 20
-31.9066
 30
0.0
 10
5.9986
 20
-31.9715
 30
0.0
 10
6.0635
 20
-32.0618
 30
0.0
 10
6.0635
 20
-32.0618
 30
0.0
 10
6.128
 20
-32.1516
 30
0.0
 10
6.1604
 20
-32.2593
 30
0.0
 10
6.1604
 20
-32.384
 30
0.0
 10
6.1604
 20
-32.384
 30
0.0
 10
6.1604
 20
-32.5571
 30
0.0
 10
6.0993
 20
-32.702
 30
0.0
 10
5.9775
 20
-32.8195
 30
0.0
 10
5.9775
 20
-32.8195
 30
0.0
 10
5.8552
 20
-32.9371
 30
0.0
 10
5.6943
 20
-32.9959
 30
0.0
 10
5.4949
 20
-32.9959
 30
0.0
 10
5.4949
 20
-32.9959
 30
0.0
 10
5.2954
 20
-32.9959
 30
0.0
 10
5.135
 20
-32.9371
 30
0.0
 10
5.0127
 20
-32.8191
 30
0.0
 10
5.0127
 20
-32.8191
 30
0.0
 10
4.8904
 20
-32.701
 30
0.0
 10
4.8293
 20
-32.5538
 30
0.0
 10
4.8293
 20
-32.3774
 30
0.0
 10
4.8293
 20
-32.3774
 30
0.0
 10
4.8293
 20
-32.2462
 30
0.0
 10
4.8627
 20
-32.1361
 30
0.0
 10
4.9295
 20
-32.0472
 30
0.0
 10
4.9295
 20
-32.0472
 30
0.0
 10
4.9958
 20
-31.9588
 30
0.0
 10
5.0908
 20
-31.8981
 30
0.0
 10
5.2141
 20
-31.8661
 30
0.0
  0
SPLINE
  5
42
330
1F
100
AcDbEntity
  8
DATUMS
 62
   250
100
AcDbSpline
210
0.0
220
0.0
230
1.0
 70
    11
 71
     3
 72
    36
 73
    32
 74
     0
 42
0.0000000001
 43
0.0000000001
 40
0.0
 40
0.0
 40
0.0
 40
0.0
 40
0.1111111111111111
 40
0.1111111111111111
 40
0.1111111111111111
 40
0.1111111111111111
 40
0.2222222222222222
 40
0.2222222222222222
 40
0.2222222222222222
 40
0.2222222222222222
 40
0.3333333333333333
 40
0.3333333333333333
 40
0.3333333333333333
 40
0.3333333333333333
 40
0.4444444444444444
 40
0.4444444444444444
 40
0.4444444444444444
 40
0.4444444444444444
 40
0.5555555555555556
 40
0.5555555555555556
 40
0.5555555555555556
 40
0.5555555555555556
 40
0.6666666666666666
 40
0.6666666666666666
 40
0.6666666666666666
 40
0.6666666666666666
 40
0.7777777777777778
 40
0.7777777777777778
 40
0.7777777777777778
 40
0.7777777777777778
 40
1.0
 40
1.0
 40
1.0
 40
1.0
 10
5.1642
 20
-31.4456
 30
0.0
 10
5.1642
 20
-31.5411
 30
0.0
 10
5.1952
 20
-31.6192
 30
0.0
 10
5.2564
 20
-31.6799
 30
0.0
 10
5.2564
 20
-31.6799
 30
0.0
 10
5.318
 20
-31.7405
 30
0.0
 10
5.398
 20
-31.7711
 30
0.0
 10
5.4963
 20
-31.7711
 30
0.0
 10
5.4963
 20
-31.7711
 30
0.0
 10
5.5918
 20
-31.7711
 30
0.0
 10
5.6703
 20
-31.741
 30
0.0
 10
5.7315
 20
-31.6808
 30
0.0
 10
5.7315
 20
-31.6808
 30
0.0
 10
5.7926
 20
-31.6206
 30
0.0
 10
5.8227
 20
-31.5467
 30
0.0
 10
5.8227
 20
-31.4597
 30
0.0
 10
5.8227
 20
-31.4597
 30
0.0
 10
5.8227
 20
-31.3685
 30
0.0
 10
5.7917
 20
-31.2923
 30
0.0
 10
5.7286
 20
-31.2302
 30
0.0
 10
5.7286
 20
-31.2302
 30
0.0
 10
5.6656
 20
-31.1681
 30
0.0
 10
5.5875
 20
-31.137
 30
0.0
 10
5.4935
 20
-31.137
 30
0.0
 10
5.4935
 20
-31.137
 30
0.0
 10
5.3989
 20
-31.137
 30
0.0
 10
5.3204
 20
-31.1676
 30
0.0
 10
5.2578
 20
-31.2278
 30
0.0
 10
5.2578
 20
-31.2278
 30
0.0
 10
5.1952
 20
-31.2885
 30
0.0
 10
5.1642
 20
-31.3614
 30
0.0
 10
5.1642
 20
-31.4456
 30
0.0
  0
SPLINE
  5
43
330
1F
100
AcDbEntity
  8
DATUMS
 62
   250
100
AcDbSpline
210
0.0
220
0.0
230
1.0
 70
    11
 71
     3
 72
    40
 73
    36
 74
     0
 42
0.0000000001
 43
0.0000000001
 40
0.0
 40
0.0
 40
0.0
 40
0.0
 40
0.1
 40
0.1
 40
0.1
 40
0.1
 40
0.2
 40
0.2
 40
0.2
 40
0.2
 40
0.3
 40
0.3
 40
0.3
 40
0.3
 40
0.4
 40
0.4
 40
0.4
 40
0.4
 40
0.5
 40
0.5
 40
0.5
 40
0.5
 40
0.6
 40
0.6
 40
0.6
 40
0.6
 40
0.7
 40
0.7
 40
0.7
 40
0.7
 40
0.8
 40
0.8
 40
0.8
 40
0.8
 40
1.0
 40
1.0
 40
1.0
 40
1.0
 10
5.0842
 20
-32.3788
 30
0.0
 10
5.0842
 20
-32.4494
 30
0.0
 10
5.1012
 20
-32.518
 30
0.0
 10
5.1346
 20
-32.5839
 30
0.0
 10
5.1346
 20
-32.5839
 30
0.0
 10
5.168
 20
-32.6502
 30
0.0
 10
5.2178
 20
-32.7015
 30
0.0
 10
5.2841
 20
-32.7377
 30
0.0
 10
5.2841
 20
-32.7377
 30
0.0
 10
5.3505
 20
-32.7739
 30
0.0
 10
5.4215
 20
-32.7923
 30
0.0
 10
5.4977
 20
-32.7923
 30
0.0
 10
5.4977
 20
-32.7923
 30
0.0
 10
5.6162
 20
-32.7923
 30
0.0
 10
5.7141
 20
-32.7542
 30
0.0
 10
5.7912
 20
-32.6775
 30
0.0
 10
5.7912
 20
-32.6775
 30
0.0
 10
5.8683
 20
-32.6013
 30
0.0
 10
5.9069
 20
-32.5044
 30
0.0
 10
5.9069
 20
-32.3868
 30
0.0
 10
5.9069
 20
-32.3868
 30
0.0
 10
5.9069
 20
-32.2673
 30
0.0
 10
5.8674
 20
-32.1686
 30
0.0
 10
5.7879
 20
-32.0905
 30
0.0
 10
5.7879
 20
-32.0905
 30
0.0
 10
5.7084
 20
-32.0124
 30
0.0
 10
5.6087
 20
-31.9734
 30
0.0
 10
5.4892
 20
-31.9734
 30
0.0
 10
5.4892
 20
-31.9734
 30
0.0
 10
5.3726
 20
-31.9734
 30
0.0
 10
5.2761
 20
-32.0119
 30
0.0
 10
5.1995
 20
-32.0891
 30
0.0
 10
5.1995
 20
-32.0891
 30
0.0
 10
5.1228
 20
-32.1667
 30
0.0
 10
5.0842
 20
-32.2631
 30
0.0
 10
5.0842
 20
-32.3788
 30
0.0
  0
SPLINE
  5
44
330
1F
100
AcDbEntity
  8
DATUMS
 62
   250
100
AcDbSpline
210
0.0
220
0.0
230
1.0
 70
    11
 71
     3
 72
    92
 73
    88
 74
     0
 42
0.0000000001
 43
0.0000000001
 40
0.0
 40
0.0
 40
0.0
 40
0.0
 40
0.0434782608695652
 40
0.0434782608695652
 40
0.0434782608695652
 40
0.0434782608695652
 40
0.0869565217391304
 40
0.0869565217391304
 40
0.0869565217391304
 40
0.0869565217391304
 40
0.1304347826086956
 40
0.1304347826086956
 40
0.1304347826086956
 40
0.1304347826086956
 40
0.1739130434782609
 40
0.1739130434782609
 40
0.1739130434782609
 40
0.1739130434782609
 40
0.2173913043478261
 40
0.2173913043478261
 40
0.2173913043478261
 40
0.2173913043478261
 40
0.2608695652173913
 40
0.2608695652173913
 40
0.2608695652173913
 40
0.2608695652173913
 40
0.3043478260869565
 40
0.3043478260869565
 40
0.3043478260869565
 40
0.3043478260869565
 40
0.3478260869565217
 40
0.3478260869565217
 40
0.3478260869565217
 40
0.3478260869565217
 40
0.391304347826087
 40
0.391304347826087
 40
0.391304347826087
 40
0.391304347826087
 40
0.4347826086956522
 40
0.4347826086956522
 40
0.4347826086956522
 40
0.4347826086956522
 40
0.4782608695652174
 40
0.4782608695652174
 40
0.4782608695652174
 40
0.4782608695652174
 40
0.5217391304347826
 40
0.5217391304347826
 40
0.5217391304347826
 40
0.5217391304347826
 40
0.5652173913043478
 40
0.5652173913043478
 40
0.5652173913043478
 40
0.5652173913043478
 40
0.6086956521739131
 40
0.6086956521739131
 40
0.6086956521739131
 40
0.6086956521739131
 40
0.6521739130434783
 40
0.6521739130434783
 40
0.6521739130434783
 40
0.6521739130434783
 40
0.6956521739130435
 40
0.6956521739130435
 40
0.6956521739130435
 40
0.6956521739130435
 40
0.7391304347826086
 40
0.7391304347826086
 40
0.7391304347826086
 40
0.7391304347826086
 40
0.782608695652174
 40
0.782608695652174
 40
0.782608695652174
 40
0.782608695652174
 40
0.8260869565217391
 40
0.8260869565217391
 40
0.8260869565217391
 40
0.8260869565217391
 40
0.8695652173913043
 40
0.8695652173913043
 40
0.8695652173913043
 40
0.8695652173913043
 40
0.9130434782608695
 40
0.9130434782608695
 40
0.9130434782608695
 40
0.9130434782608695
 40
1.0
 40
1.0
 40
1.0
 40
1.0
 10
6.4017
 20
-32.4324
 30
0.0
 10
6.4017
 20
-32.4324
 30
0.0
 10
6.6623
 20
-32.4103
 30
0.0
 10
6.6623
 20
-32.4103
 30
0.0
 10
6.6623
 20
-32.4103
 30
0.0
 10
6.6816
 20
-32.5373
 30
0.0
 10
6.7263
 20
-32.6323
 30
0.0
 10
6.7964
 20
-32.6963
 30
0.0
 10
6.7964
 20
-32.6963
 30
0.0
 10
6.8669
 20
-32.7603
 30
0.0
 10
6.9516
 20
-32.7923
 30
0.0
 10
7.0508
 20
-32.7923
 30
0.0
 10
7.0508
 20
-32.7923
 30
0.0
 10
7.1703
 20
-32.7923
 30
0.0
 10
7.2714
 20
-32.7471
 30
0.0
 10
7.3537
 20
-32.6573
 30
0.0
 10
7.3537
 20
-32.6573
 30
0.0
 10
7.4365
 20
-32.567
 30
0.0
 10
7.4779
 20
-32.4475
 30
0.0
 10
7.4779
 20
-32.2989
 30
0.0
 10
7.4779
 20
-32.2989
 30
0.0
 10
7.4779
 20
-32.1573
 30
0.0
 10
7.4384
 20
-32.0458
 30
0.0
 10
7.3589
 20
-31.964
 30
0.0
 10
7.3589
 20
-31.964
 30
0.0
 10
7.2794
 20
-31.8821
 30
0.0
 10
7.1755
 20
-31.8412
 30
0.0
 10
7.0466
 20
-31.8412
 30
0.0
 10
7.0466
 20
-31.8412
 30
0.0
 10
6.9666
 20
-31.8412
 30
0.0
 10
6.8947
 20
-31.8595
 30
0.0
 10
6.8302
 20
-31.8957
 30
0.0
 10
6.8302
 20
-31.8957
 30
0.0
 10
6.7658
 20
-31.932
 30
0.0
 10
6.7155
 20
-31.979
 30
0.0
 10
6.6788
 20
-32.0369
 30
0.0
 10
6.6788
 20
-32.0369
 30
0.0
 10
6.6788
 20
-32.0369
 30
0.0
 10
6.4459
 20
-32.0068
 30
0.0
 10
6.4459
 20
-32.0068
 30
0.0
 10
6.4459
 20
-32.0068
 30
0.0
 10
6.4459
 20
-32.0068
 30
0.0
 10
6.6416
 20
-30.9691
 30
0.0
 10
6.6416
 20
-30.9691
 30
0.0
 10
6.6416
 20
-30.9691
 30
0.0
 10
6.6416
 20
-30.9691
 30
0.0
 10
7.6463
 20
-30.9691
 30
0.0
 10
7.6463
 20
-30.9691
 30
0.0
 10
7.6463
 20
-30.9691
 30
0.0
 10
7.6463
 20
-30.9691
 30
0.0
 10
7.6463
 20
-31.2062
 30
0.0
 10
7.6463
 20
-31.2062
 30
0.0
 10
7.6463
 20
-31.2062
 30
0.0
 10
7.6463
 20
-31.2062
 30
0.0
 10
6.8401
 20
-31.2062
 30
0.0
 10
6.8401
 20
-31.2062
 30
0.0
 10
6.8401
 20
-31.2062
 30
0.0
 10
6.8401
 20
-31.2062
 30
0.0
 10
6.731
 20
-31.749
 30
0.0
 10
6.731
 20
-31.749
 30
0.0
 10
6.731
 20
-31.749
 30
0.0
 10
6.8523
 20
-31.6643
 30
0.0
 10
6.9798
 20
-31.622
 30
0.0
 10
7.1129
 20
-31.622
 30
0.0
 10
7.1129
 20
-31.622
 30
0.0
 10
7.2893
 20
-31.622
 30
0.0
 10
7.4379
 20
-31.6831
 30
0.0
 10
7.5593
 20
-31.8054
 30
0.0
 10
7.5593
 20
-31.8054
 30
0.0
 10
7.6806
 20
-31.9277
 30
0.0
 10
7.7413
 20
-32.0848
 30
0.0
 10
7.7413
 20
-32.2767
 30
0.0
 10
7.7413
 20
-32.2767
 30
0.0
 10
7.7413
 20
-32.4597
 30
0.0
 10
7.6877
 20
-32.6178
 30
0.0
 10
7.5814
 20
-32.7509
 30
0.0
 10
7.5814
 20
-32.7509
 30
0.0
 10
7.4516
 20
-32.9141
 30
0.0
 10
7.2747
 20
-32.9959
 30
0.0
 10
7.0508
 20
-32.9959
 30
0.0
 10
7.0508
 20
-32.9959
 30
0.0
 10
6.8669
 20
-32.9959
 30
0.0
 10
6.7169
 20
-32.9447
 30
0.0
 10
6.6007
 20
-32.8417
 30
0.0
 10
6.6007
 20
-32.8417
 30
0.0
 10
6.4845
 20
-32.7386
 30
0.0
 10
6.4182
 20
-32.6022
 30
0.0
 10
6.4017
 20
-32.4324
 30
0.0
  0
SPLINE
  5
45
330
1F
100
AcDbEntity
  8
DATUMS
 62
   250
100
AcDbSpline
210
0.0
220
0.0
230
1.0
 70
    11
 71
     3
 72
    20
 73
    16
 74
     0
 42
0.0000000001
 43
0.0000000001
 40
0.0
 40
0.0
 40
0.0
 40
0.0
 40
0.2
 40
0.2
 40
0.2
 40
0.2
 40
0.4
 40
0.4
 40
0.4
 40
0.4
 40
0.6
 40
0.6
 40
0.6
 40
0.6
 40
1.0
 40
1.0
 40
1.0
 40
1.0
 10
16.217
 20
-28.8491
 30
0.0
 10
16.217
 20
-28.8491
 30
0.0
 10
19.217
 20
-29.2725
 30
0.0
 10
19.217
 20
-29.2725
 30
0.0
 10
19.217
 20
-29.2725
 30
0.0
 10
19.217
 20
-29.2725
 30
0.0
 10
19.217
 20
-29.3665
 30
0.0
 10
19.217
 20
-29.3665
 30
0.0
 10
19.217
 20
-29.3665
 30
0.0
 10
19.217
 20
-29.3665
 30
0.0
 10
16.217
 20
-29.8181
 30
0.0
 10
16.217
 20
-29.8181
 30
0.0
 10
16.217
 20
-29.8181
 30
0.0
 10
16.217
 20
-29.8181
 30
0.0
 10
16.217
 20
-28.8491
 30
0.0
 10
16.217
 20
-28.8491
 30
0.0
  0
SPLINE
  5
46
330
1F
100
AcDbEntity
  8
DATUMS
 62
   250
100
AcDbSpline
210
0.0
220
0.0
230
1.0
 70
    11
 71
     3
 72
    20
 73
    16
 74
     0
 42
0.0000000001
 43
0.0000000001
 40
0.0
 40
0.0
 40
0.0
 40
0.0
 40
0.2
 40
0.2
 40
0.2
 40
0.2
 40
0.4
 40
0.4
 40
0.4
 40
0.4
 40
0.6
 40
0.6
 40
0.6
 40
0.6
 40
1.0
 40
1.0
 40
1.0
 40
1.0
 10
28.8078
 20
-29.7532
 30
0.0
 10
28.8078
 20
-29.7532
 30
0.0
 10
25.8078
 20
-29.3298
 30
0.0
 10
25.8078
 20
-29.3298
 30
0.0
 10
25.8078
 20
-29.3298
 30
0.0
 10
25.8078
 20
-29.3298
 30
0.0
 10
25.8078
 20
-29.2358
 30
0.0
 10
25.8078
 20
-29.2358
 30
0.0
 10
25.8078
 20
-29.2358
 30
0.0
 10
25.8078
 20
-29.2358
 30
0.0
 10
28.8078
 20
-28.7843
 30
0.0
 10
28.8078
 20
-28.7843
 30
0.0
 10
28.8078
 20
-28.7843
 30
0.0
 10
28.8078
 20
-28.7843
 30
0.0
 10
28.8078
 20
-29.7532
 30
0.0
 10
28.8078
 20
-29.7532
 30
0.0
  0
SPLINE
  5
47
330
1F
100
AcDbEntity
  8
DATUMS
 62
   250
100
AcDbSpline
210
0.0
220
0.0
230
1.0
 70
    11
 71
     3
 72
    92
 73
    88
 74
     0
 42
0.0000000001
 43
0.0000000001
 40
0.0
 40
0.0
 40
0.0
 40
0.0
 40
0.0434782608695652
 40
0.0434782608695652
 40
0.0434782608695652
 40
0.0434782608695652
 40
0.0869565217391304
 40
0.0869565217391304
 40
0.0869565217391304
 40
0.0869565217391304
 40
0.1304347826086956
 40
0.1304347826086956
 40
0.1304347826086956
 40
0.1304347826086956
 40
0.1739130434782609
 40
0.1739130434782609
 40
0.1739130434782609
 40
0.1739130434782609
 40
0.2173913043478261
 40
0.2173913043478261
 40
0.2173913043478261
 40
0.2173913043478261
 40
0.2608695652173913
 40
0.2608695652173913
 40
0.2608695652173913
 40
0.2608695652173913
 40
0.3043478260869565
 40
0.3043478260869565
 40
0.3043478260869565
 40
0.3043478260869565
 40
0.3478260869565217
 40
0.3478260869565217
 40
0.3478260869565217
 40
0.3478260869565217
 40
0.391304347826087
 40
0.391304347826087
 40
0.391304347826087
 40
0.391304347826087
 40
0.4347826086956522
 40
0.4347826086956522
 40
0.4347826086956522
 40
0.4347826086956522
 40
0.4782608695652174
 40
0.4782608695652174
 40
0.4782608695652174
 40
0.4782608695652174
 40
0.5217391304347826
 40
0.5217391304347826
 40
0.5217391304347826
 40
0.5217391304347826
 40
0.5652173913043478
 40
0.5652173913043478
 40
0.5652173913043478
 40
0.5652173913043478
 40
0.6086956521739131
 40
0.6086956521739131
 40
0.6086956521739131
 40
0.6086956521739131
 40
0.6521739130434783
 40
0.6521739130434783
 40
0.6521739130434783
 40
0.6521739130434783
 40
0.6956521739130435
 40
0.6956521739130435
 40
0.6956521739130435
 40
0.6956521739130435
 40
0.7391304347826086
 40
0.7391304347826086
 40
0.7391304347826086
 40
0.7391304347826086
 40
0.782608695652174
 40
0.782608695652174
 40
0.782608695652174
 40
0.782608695652174
 40
0.8260869565217391
 40
0.8260869565217391
 40
0.8260869565217391
 40
0.8260869565217391
 40
0.8695652173913043
 40
0.8695652173913043
 40
0.8695652173913043
 40
0.8695652173913043
 40
0.9130434782608695
 40
0.9130434782608695
 40
0.9130434782608695
 40
0.9130434782608695
 40
1.0
 40
1.0
 40
1.0
 40
1.0
 10
-27.5255
 20
-8.4388
 30
0.0
 10
-27.5255
 20
-8.4388
 30
0.0
 10
-27.5476
 20
-8.1782
 30
0.0
 10
-27.5476
 20
-8.1782
 30
0.0
 10
-27.5476
 20
-8.1782
 30
0.0
 10
-27.4206
 20
-8.1589
 30
0.0
 10
-27.3256
 20
-8.1142
 30
0.0
 10
-27.2616
 20
-8.0441
 30
0.0
 10
-27.2616
 20
-8.0441
 30
0.0
 10
-27.1976
 20
-7.9736
 30
0.0
 10
-27.1656
 20
-7.8889
 30
0.0
 10
-27.1656
 20
-7.7897
 30
0.0
 10
-27.1656
 20
-7.7897
 30
0.0
 10
-27.1656
 20
-7.6702
 30
0.0
 10
-27.2108
 20
-7.5691
 30
0.0
 10
-27.3006
 20
-7.4868
 30
0.0
 10
-27.3006
 20
-7.4868
 30
0.0
 10
-27.3909
 20
-7.404
 30
0.0
 10
-27.5104
 20
-7.3626
 30
0.0
 10
-27.659
 20
-7.3626
 30
0.0
 10
-27.659
 20
-7.3626
 30
0.0
 10
-27.8006
 20
-7.3626
 30
0.0
 10
-27.9121
 20
-7.4021
 30
0.0
 10
-27.9939
 20
-7.4816
 30
0.0
 10
-27.9939
 20
-7.4816
 30
0.0
 10
-28.0758
 20
-7.5611
 30
0.0
 10
-28.1167
 20
-7.665
 30
0.0
 10
-28.1167
 20
-7.7939
 30
0.0
 10
-28.1167
 20
-7.7939
 30
0.0
 10
-28.1167
 20
-7.8739
 30
0.0
 10
-28.0984
 20
-7.9458
 30
0.0
 10
-28.0622
 20
-8.0103
 30
0.0
 10
-28.0622
 20
-8.0103
 30
0.0
 10
-28.0259
 20
-8.0747
 30
0.0
 10
-27.9789
 20
-8.125
 30
0.0
 10
-27.921
 20
-8.1617
 30
0.0
 10
-27.921
 20
-8.1617
 30
0.0
 10
-27.921
 20
-8.1617
 30
0.0
 10
-27.9511
 20
-8.3946
 30
0.0
 10
-27.9511
 20
-8.3946
 30
0.0
 10
-27.9511
 20
-8.3946
 30
0.0
 10
-27.9511
 20
-8.3946
 30
0.0
 10
-28.9888
 20
-8.1989
 30
0.0
 10
-28.9888
 20
-8.1989
 30
0.0
 10
-28.9888
 20
-8.1989
 30
0.0
 10
-28.9888
 20
-8.1989
 30
0.0
 10
-28.9888
 20
-7.1942
 30
0.0
 10
-28.9888
 20
-7.1942
 30
0.0
 10
-28.9888
 20
-7.1942
 30
0.0
 10
-28.9888
 20
-7.1942
 30
0.0
 10
-28.7517
 20
-7.1942
 30
0.0
 10
-28.7517
 20
-7.1942
 30
0.0
 10
-28.7517
 20
-7.1942
 30
0.0
 10
-28.7517
 20
-7.1942
 30
0.0
 10
-28.7517
 20
-8.0004
 30
0.0
 10
-28.7517
 20
-8.0004
 30
0.0
 10
-28.7517
 20
-8.0004
 30
0.0
 10
-28.7517
 20
-8.0004
 30
0.0
 10
-28.2089
 20
-8.1095
 30
0.0
 10
-28.2089
 20
-8.1095
 30
0.0
 10
-28.2089
 20
-8.1095
 30
0.0
 10
-28.2936
 20
-7.9882
 30
0.0
 10
-28.3359
 20
-7.8607
 30
0.0
 10
-28.3359
 20
-7.7276
 30
0.0
 10
-28.3359
 20
-7.7276
 30
0.0
 10
-28.3359
 20
-7.5512
 30
0.0
 10
-28.2748
 20
-7.4026
 30
0.0
 10
-28.1525
 20
-7.2812
 30
0.0
 10
-28.1525
 20
-7.2812
 30
0.0
 10
-28.0302
 20
-7.1599
 30
0.0
 10
-27.8731
 20
-7.0992
 30
0.0
 10
-27.6812
 20
-7.0992
 30
0.0
 10
-27.6812
 20
-7.0992
 30
0.0
 10
-27.4982
 20
-7.0992
 30
0.0
 10
-27.3401
 20
-7.1528
 30
0.0
 10
-27.207
 20
-7.2591
 30
0.0
 10
-27.207
 20
-7.2591
 30
0.0
 10
-27.0438
 20
-7.3889
 30
0.0
 10
-26.962
 20
-7.5658
 30
0.0
 10
-26.962
 20
-7.7897
 30
0.0
 10
-26.962
 20
-7.7897
 30
0.0
 10
-26.962
 20
-7.9736
 30
0.0
 10
-27.0132
 20
-8.1236
 30
0.0
 10
-27.1162
 20
-8.2398
 30
0.0
 10
-27.1162
 20
-8.2398
 30
0.0
 10
-27.2193
 20
-8.356
 30
0.0
 10
-27.3557
 20
-8.4223
 30
0.0
 10
-27.5255
 20
-8.4388
 30
0.0
  0
SPLINE
  5
48
330
1F
100
AcDbEntity
  8
DATUMS
 62
   250
100
AcDbSpline
210
0.0
220
0.0
230
1.0
 70
    11
 71
     3
 72
    68
 73
    64
 74
     0
 42
0.0000000001
 43
0.0000000001
 40
0.0
 40
0.0
 40
0.0
 40
0.0
 40
0.0588235294117647
 40
0.0588235294117647
 40
0.0588235294117647
 40
0.0588235294117647
 40
0.1176470588235294
 40
0.1176470588235294
 40
0.1176470588235294
 40
0.1176470588235294
 40
0.1764705882352941
 40
0.1764705882352941
 40
0.1764705882352941
 40
0.1764705882352941
 40
0.2352941176470588
 40
0.2352941176470588
 40
0.2352941176470588
 40
0.2352941176470588
 40
0.2941176470588235
 40
0.2941176470588235
 40
0.2941176470588235
 40
0.2941176470588235
 40
0.3529411764705883
 40
0.3529411764705883
 40
0.3529411764705883
 40
0.3529411764705883
 40
0.4117647058823529
 40
0.4117647058823529
 40
0.4117647058823529
 40
0.4117647058823529
 40
0.4705882352941176
 40
0.4705882352941176
 40
0.4705882352941176
 40
0.4705882352941176
 40
0.5294117647058824
 40
0.5294117647058824
 40
0.5294117647058824
 40
0.5294117647058824
 40
0.5882352941176471
 40
0.5882352941176471
 40
0.5882352941176471
 40
0.5882352941176471
 40
0.6470588235294118
 40
0.6470588235294118
 40
0.6470588235294118
 40
0.6470588235294118
 40
0.7058823529411765
 40
0.7058823529411765
 40
0.7058823529411765
 40
0.7058823529411765
 40
0.7647058823529411
 40
0.7647058823529411
 40
0.7647058823529411
 40
0.7647058823529411
 40
0.8235294117647058
 40
0.8235294117647058
 40
0.8235294117647058
 40
0.8235294117647058
 40
0.8823529411764706
 40
0.8823529411764706
 40
0.8823529411764706
 40
0.8823529411764706
 40
1.0
 40
1.0
 40
1.0
 40
1.0
 10
-28.0918
 20
-6.4872
 30
0.0
 10
-28.1294
 20
-6.5903
 30
0.0
 10
-28.183
 20
-6.6665
 30
0.0
 10
-28.2531
 20
-6.7163
 30
0.0
 10
-28.2531
 20
-6.7163
 30
0.0
 10
-28.3227
 20
-6.7657
 30
0.0
 10
-28.4065
 20
-6.7906
 30
0.0
 10
-28.5038
 20
-6.7906
 30
0.0
 10
-28.5038
 20
-6.7906
 30
0.0
 10
-28.651
 20
-6.7906
 30
0.0
 10
-28.7743
 20
-6.7379
 30
0.0
 10
-28.8745
 20
-6.6321
 30
0.0
 10
-28.8745
 20
-6.6321
 30
0.0
 10
-28.9747
 20
-6.5263
 30
0.0
 10
-29.025
 20
-6.3861
 30
0.0
 10
-29.025
 20
-6.2107
 30
0.0
 10
-29.025
 20
-6.2107
 30
0.0
 10
-29.025
 20
-6.0343
 30
0.0
 10
-28.9737
 20
-5.8922
 30
0.0
 10
-28.8712
 20
-5.7845
 30
0.0
 10
-28.8712
 20
-5.7845
 30
0.0
 10
-28.7686
 20
-5.6773
 30
0.0
 10
-28.644
 20
-5.6236
 30
0.0
 10
-28.4968
 20
-5.6236
 30
0.0
 10
-28.4968
 20
-5.6236
 30
0.0
 10
-28.4032
 20
-5.6236
 30
0.0
 10
-28.3218
 20
-5.6481
 30
0.0
 10
-28.2522
 20
-5.697
 30
0.0
 10
-28.2522
 20
-5.697
 30
0.0
 10
-28.183
 20
-5.7464
 30
0.0
 10
-28.1294
 20
-5.8207
 30
0.0
 10
-28.0918
 20
-5.9209
 30
0.0
 10
-28.0918
 20
-5.9209
 30
0.0
 10
-28.0513
 20
-5.7972
 30
0.0
 10
-27.9864
 20
-5.7027
 30
0.0
 10
-27.8961
 20
-5.6378
 30
0.0
 10
-27.8961
 20
-5.6378
 30
0.0
 10
-27.8063
 20
-5.5733
 30
0.0
 10
-27.6986
 20
-5.5409
 30
0.0
 10
-27.5739
 20
-5.5409
 30
0.0
 10
-27.5739
 20
-5.5409
 30
0.0
 10
-27.4008
 20
-5.5409
 30
0.0
 10
-27.2559
 20
-5.602
 30
0.0
 10
-27.1384
 20
-5.7238
 30
0.0
 10
-27.1384
 20
-5.7238
 30
0.0
 10
-27.0208
 20
-5.8461
 30
0.0
 10
-26.962
 20
-6.007
 30
0.0
 10
-26.962
 20
-6.2064
 30
0.0
 10
-26.962
 20
-6.2064
 30
0.0
 10
-26.962
 20
-6.4059
 30
0.0
 10
-27.0208
 20
-6.5663
 30
0.0
 10
-27.1388
 20
-6.6886
 30
0.0
 10
-27.1388
 20
-6.6886
 30
0.0
 10
-27.2569
 20
-6.8109
 30
0.0
 10
-27.4041
 20
-6.872
 30
0.0
 10
-27.5805
 20
-6.872
 30
0.0
 10
-27.5805
 20
-6.872
 30
0.0
 10
-27.7117
 20
-6.872
 30
0.0
 10
-27.8218
 20
-6.8386
 30
0.0
 10
-27.9107
 20
-6.7718
 30
0.0
 10
-27.9107
 20
-6.7718
 30
0.0
 10
-27.9991
 20
-6.7055
 30
0.0
 10
-28.0598
 20
-6.6105
 30
0.0
 10
-28.0918
 20
-6.4872
 30
0.0
  0
SPLINE
  5
49
330
1F
100
AcDbEntity
  8
DATUMS
 62
   250
100
AcDbSpline
210
0.0
220
0.0
230
1.0
 70
    11
 71
     3
 72
    36
 73
    32
 74
     0
 42
0.0000000001
 43
0.0000000001
 40
0.0
 40
0.0
 40
0.0
 40
0.0
 40
0.1111111111111111
 40
0.1111111111111111
 40
0.1111111111111111
 40
0.1111111111111111
 40
0.2222222222222222
 40
0.2222222222222222
 40
0.2222222222222222
 40
0.2222222222222222
 40
0.3333333333333333
 40
0.3333333333333333
 40
0.3333333333333333
 40
0.3333333333333333
 40
0.4444444444444444
 40
0.4444444444444444
 40
0.4444444444444444
 40
0.4444444444444444
 40
0.5555555555555556
 40
0.5555555555555556
 40
0.5555555555555556
 40
0.5555555555555556
 40
0.6666666666666666
 40
0.6666666666666666
 40
0.6666666666666666
 40
0.6666666666666666
 40
0.7777777777777778
 40
0.7777777777777778
 40
0.7777777777777778
 40
0.7777777777777778
 40
1.0
 40
1.0
 40
1.0
 40
1.0
 10
-28.5123
 20
-6.5371
 30
0.0
 10
-28.4168
 20
-6.5371
 30
0.0
 10
-28.3387
 20
-6.5061
 30
0.0
 10
-28.278
 20
-6.4449
 30
0.0
 10
-28.278
 20
-6.4449
 30
0.0
 10
-28.2174
 20
-6.3833
 30
0.0
 10
-28.1868
 20
-6.3033
 30
0.0
 10
-28.1868
 20
-6.205
 30
0.0
 10
-28.1868
 20
-6.205
 30
0.0
 10
-28.1868
 20
-6.1095
 30
0.0
 10
-28.2169
 20
-6.031
 30
0.0
 10
-28.2771
 20
-5.9698
 30
0.0
 10
-28.2771
 20
-5.9698
 30
0.0
 10
-28.3373
 20
-5.9087
 30
0.0
 10
-28.4112
 20
-5.8786
 30
0.0
 10
-28.4982
 20
-5.8786
 30
0.0
 10
-28.4982
 20
-5.8786
 30
0.0
 10
-28.5894
 20
-5.8786
 30
0.0
 10
-28.6656
 20
-5.9096
 30
0.0
 10
-28.7277
 20
-5.9727
 30
0.0
 10
-28.7277
 20
-5.9727
 30
0.0
 10
-28.7898
 20
-6.0357
 30
0.0
 10
-28.8209
 20
-6.1138
 30
0.0
 10
-28.8209
 20
-6.2078
 30
0.0
 10
-28.8209
 20
-6.2078
 30
0.0
 10
-28.8209
 20
-6.3024
 30
0.0
 10
-28.7903
 20
-6.3809
 30
0.0
 10
-28.7301
 20
-6.4435
 30
0.0
 10
-28.7301
 20
-6.4435
 30
0.0
 10
-28.6694
 20
-6.5061
 30
0.0
 10
-28.5965
 20
-6.5371
 30
0.0
 10
-28.5123
 20
-6.5371
 30
0.0
  0
SPLINE
  5
4A
330
1F
100
AcDbEntity
  8
DATUMS
 62
   250
100
AcDbSpline
210
0.0
220
0.0
230
1.0
 70
    11
 71
     3
 72
    40
 73
    36
 74
     0
 42
0.0000000001
 43
0.0000000001
 40
0.0
 40
0.0
 40
0.0
 40
0.0
 40
0.1
 40
0.1
 40
0.1
 40
0.1
 40
0.2
 40
0.2
 40
0.2
 40
0.2
 40
0.3
 40
0.3
 40
0.3
 40
0.3
 40
0.4
 40
0.4
 40
0.4
 40
0.4
 40
0.5
 40
0.5
 40
0.5
 40
0.5
 40
0.6
 40
0.6
 40
0.6
 40
0.6
 40
0.7
 40
0.7
 40
0.7
 40
0.7
 40
0.8
 40
0.8
 40
0.8
 40
0.8
 40
1.0
 40
1.0
 40
1.0
 40
1.0
 10
-27.5791
 20
-6.6171
 30
0.0
 10
-27.5085
 20
-6.6171
 30
0.0
 10
-27.4399
 20
-6.6001
 30
0.0
 10
-27.374
 20
-6.5667
 30
0.0
 10
-27.374
 20
-6.5667
 30
0.0
 10
-27.3077
 20
-6.5333
 30
0.0
 10
-27.2564
 20
-6.4835
 30
0.0
 10
-27.2202
 20
-6.4172
 30
0.0
 10
-27.2202
 20
-6.4172
 30
0.0
 10
-27.184
 20
-6.3508
 30
0.0
 10
-27.1656
 20
-6.2798
 30
0.0
 10
-27.1656
 20
-6.2036
 30
0.0
 10
-27.1656
 20
-6.2036
 30
0.0
 10
-27.1656
 20
-6.0851
 30
0.0
 10
-27.2037
 20
-5.9872
 30
0.0
 10
-27.2804
 20
-5.9101
 30
0.0
 10
-27.2804
 20
-5.9101
 30
0.0
 10
-27.3566
 20
-5.833
 30
0.0
 10
-27.4535
 20
-5.7944
 30
0.0
 10
-27.5711
 20
-5.7944
 30
0.0
 10
-27.5711
 20
-5.7944
 30
0.0
 10
-27.6906
 20
-5.7944
 30
0.0
 10
-27.7893
 20
-5.8339
 30
0.0
 10
-27.8674
 20
-5.9134
 30
0.0
 10
-27.8674
 20
-5.9134
 30
0.0
 10
-27.9455
 20
-5.9929
 30
0.0
 10
-27.9845
 20
-6.0926
 30
0.0
 10
-27.9845
 20
-6.2121
 30
0.0
 10
-27.9845
 20
-6.2121
 30
0.0
 10
-27.9845
 20
-6.3287
 30
0.0
 10
-27.946
 20
-6.4252
 30
0.0
 10
-27.8688
 20
-6.5018
 30
0.0
 10
-27.8688
 20
-6.5018
 30
0.0
 10
-27.7912
 20
-6.5785
 30
0.0
 10
-27.6948
 20
-6.6171
 30
0.0
 10
-27.5791
 20
-6.6171
 30
0.0
  0
SPLINE
  5
4B
330
1F
100
AcDbEntity
  8
DATUMS
 62
   250
100
AcDbSpline
210
0.0
220
0.0
230
1.0
 70
    11
 71
     3
 72
    20
 73
    16
 74
     0
 42
0.0000000001
 43
0.0000000001
 40
0.0
 40
0.0
 40
0.0
 40
0.0
 40
0.2
 40
0.2
 40
0.2
 40
0.2
 40
0.4
 40
0.4
 40
0.4
 40
0.4
 40
0.6
 40
0.6
 40
0.6
 40
0.6
 40
1.0
 40
1.0
 40
1.0
 40
1.0
 10
-27.1207
 20
1.147
 30
0.0
 10
-27.1207
 20
1.147
 30
0.0
 10
-26.6973
 20
4.147
 30
0.0
 10
-26.6973
 20
4.147
 30
0.0
 10
-26.6973
 20
4.147
 30
0.0
 10
-26.6973
 20
4.147
 30
0.0
 10
-26.6033
 20
4.147
 30
0.0
 10
-26.6033
 20
4.147
 30
0.0
 10
-26.6033
 20
4.147
 30
0.0
 10
-26.6033
 20
4.147
 30
0.0
 10
-26.1518
 20
1.147
 30
0.0
 10
-26.1518
 20
1.147
 30
0.0
 10
-26.1518
 20
1.147
 30
0.0
 10
-26.1518
 20
1.147
 30
0.0
 10
-27.1207
 20
1.147
 30
0.0
 10
-27.1207
 20
1.147
 30
0.0
  0
SPLINE
  5
4C
330
1F
100
AcDbEntity
  8
DATUMS
 62
   250
100
AcDbSpline
210
0.0
220
0.0
230
1.0
 70
    11
 71
     3
 72
    20
 73
    16
 74
     0
 42
0.0000000001
 43
0.0000000001
 40
0.0
 40
0.0
 40
0.0
 40
0.0
 40
0.2
 40
0.2
 40
0.2
 40
0.2
 40
0.4
 40
0.4
 40
0.4
 40
0.4
 40
0.6
 40
0.6
 40
0.6
 40
0.6
 40
1.0
 40
1.0
 40
1.0
 40
1.0
 10
-26.1641
 20
-15.2008
 30
0.0
 10
-26.1641
 20
-15.2008
 30
0.0
 10
-26.5875
 20
-18.2008
 30
0.0
 10
-26.5875
 20
-18.2008
 30
0.0
 10
-26.5875
 20
-18.2008
 30
0.0
 10
-26.5875
 20
-18.2008
 30
0.0
 10
-26.6815
 20
-18.2008
 30
0.0
 10
-26.6815
 20
-18.2008
 30
0.0
 10
-26.6815
 20
-18.2008
 30
0.0
 10
-26.6815
 20
-18.2008
 30
0.0
 10
-27.1331
 20
-15.2008
 30
0.0
 10
-27.1331
 20
-15.2008
 30
0.0
 10
-27.1331
 20
-15.2008
 30
0.0
 10
-27.1331
 20
-15.2008
 30
0.0
 10
-26.1641
 20
-15.2008
 30
0.0
 10
-26.1641
 20
-15.2008
 30
0.0
  0
SPLINE
  5
4D
330
1F
100
AcDbEntity
  8
DATUMS
 62
   250
100
AcDbSpline
210
0.0
220
0.0
230
1.0
 70
    11
 71
     3
 72
    84
 73
    80
 74
     0
 42
0.0000000001
 43
0.0000000001
 40
0.0
 40
0.0
 40
0.0
 40
0.0
 40
0.0476190476190476
 40
0.0476190476190476
 40
0.0476190476190476
 40
0.0476190476190476
 40
0.0952380952380952
 40
0.0952380952380952
 40
0.0952380952380952
 40
0.0952380952380952
 40
0.1428571428571428
 40
0.1428571428571428
 40
0.1428571428571428
 40
0.1428571428571428
 40
0.1904761904761905
 40
0.1904761904761905
 40
0.1904761904761905
 40
0.1904761904761905
 40
0.2380952380952381
 40
0.2380952380952381
 40
0.2380952380952381
 40
0.2380952380952381
 40
0.2857142857142857
 40
0.2857142857142857
 40
0.2857142857142857
 40
0.2857142857142857
 40
0.3333333333333333
 40
0.3333333333333333
 40
0.3333333333333333
 40
0.3333333333333333
 40
0.3809523809523809
 40
0.3809523809523809
 40
0.3809523809523809
 40
0.3809523809523809
 40
0.4285714285714285
 40
0.4285714285714285
 40
0.4285714285714285
 40
0.4285714285714285
 40
0.4761904761904762
 40
0.4761904761904762
 40
0.4761904761904762
 40
0.4761904761904762
 40
0.5238095238095238
 40
0.5238095238095238
 40
0.5238095238095238
 40
0.5238095238095238
 40
0.5714285714285714
 40
0.5714285714285714
 40
0.5714285714285714
 40
0.5714285714285714
 40
0.6190476190476191
 40
0.6190476190476191
 40
0.6190476190476191
 40
0.6190476190476191
 40
0.6666666666666666
 40
0.6666666666666666
 40
0.6666666666666666
 40
0.6666666666666666
 40
0.7142857142857143
 40
0.7142857142857143
 40
0.7142857142857143
 40
0.7142857142857143
 40
0.7619047619047619
 40
0.7619047619047619
 40
0.7619047619047619
 40
0.7619047619047619
 40
0.8095238095238095
 40
0.8095238095238095
 40
0.8095238095238095
 40
0.8095238095238095
 40
0.8571428571428571
 40
0.8571428571428571
 40
0.8571428571428571
 40
0.8571428571428571
 40
0.9047619047619048
 40
0.9047619047619048
 40
0.9047619047619048
 40
0.9047619047619048
 40
1.0
 40
1.0
 40
1.0
 40
1.0
 10
13.2985
 20
-26.9155
 30
0.0
 10
13.2985
 20
-26.9155
 30
0.0
 10
13.5299
 20
-26.6564
 30
0.0
 10
13.5299
 20
-26.6564
 30
0.0
 10
13.5299
 20
-26.6564
 30
0.0
 10
13.5299
 20
-26.6564
 30
0.0
 10
13.6663
 20
-26.7721
 30
0.0
 10
13.6663
 20
-26.7721
 30
0.0
 10
13.6663
 20
-26.7721
 30
0.0
 10
13.6663
 20
-26.7721
 30
0.0
 10
13.4241
 20
-27.0449
 30
0.0
 10
13.4241
 20
-27.0449
 30
0.0
 10
13.4241
 20
-27.0449
 30
0.0
 10
13.5031
 20
-27.1625
 30
0.0
 10
13.5562
 20
-27.2655
 30
0.0
 10
13.584
 20
-27.3534
 30
0.0
 10
13.584
 20
-27.3534
 30
0.0
 10
13.6207
 20
-27.4692
 30
0.0
 10
13.639
 20
-27.599
 30
0.0
 10
13.639
 20
-27.742
 30
0.0
 10
13.639
 20
-27.742
 30
0.0
 10
13.639
 20
-27.9489
 30
0.0
 10
13.5972
 20
-28.1333
 30
0.0
 10
13.5134
 20
-28.2946
 30
0.0
 10
13.5134
 20
-28.2946
 30
0.0
 10
13.4297
 20
-28.4565
 30
0.0
 10
13.3126
 20
-28.5787
 30
0.0
 10
13.1616
 20
-28.6615
 30
0.0
 10
13.1616
 20
-28.6615
 30
0.0
 10
13.0101
 20
-28.7438
 30
0.0
 10
12.8498
 20
-28.7852
 30
0.0
 10
12.68
 20
-28.7852
 30
0.0
 10
12.68
 20
-28.7852
 30
0.0
 10
12.553
 20
-28.7852
 30
0.0
 10
12.4382
 20
-28.7674
 30
0.0
 10
12.3352
 20
-28.7316
 30
0.0
 10
12.3352
 20
-28.7316
 30
0.0
 10
12.2562
 20
-28.7039
 30
0.0
 10
12.164
 20
-28.6512
 30
0.0
 10
12.0581
 20
-28.5731
 30
0.0
 10
12.0581
 20
-28.5731
 30
0.0
 10
12.0581
 20
-28.5731
 30
0.0
 10
11.8267
 20
-28.8323
 30
0.0
 10
11.8267
 20
-28.8323
 30
0.0
 10
11.8267
 20
-28.8323
 30
0.0
 10
11.8267
 20
-28.8323
 30
0.0
 10
11.6903
 20
-28.7166
 30
0.0
 10
11.6903
 20
-28.7166
 30
0.0
 10
11.6903
 20
-28.7166
 30
0.0
 10
11.6903
 20
-28.7166
 30
0.0
 10
11.933
 20
-28.4452
 30
0.0
 10
11.933
 20
-28.4452
 30
0.0
 10
11.933
 20
-28.4452
 30
0.0
 10
11.8427
 20
-28.3083
 30
0.0
 10
11.7825
 20
-28.1912
 30
0.0
 10
11.7524
 20
-28.0943
 30
0.0
 10
11.7524
 20
-28.0943
 30
0.0
 10
11.7223
 20
-27.9974
 30
0.0
 10
11.7068
 20
-27.8807
 30
0.0
 10
11.7068
 20
-27.7448
 30
0.0
 10
11.7068
 20
-27.7448
 30
0.0
 10
11.7068
 20
-27.5374
 30
0.0
 10
11.7482
 20
-27.3525
 30
0.0
 10
11.8309
 20
-27.1902
 30
0.0
 10
11.8309
 20
-27.1902
 30
0.0
 10
11.9137
 20
-27.0279
 30
0.0
 10
12.0294
 20
-26.9052
 30
0.0
 10
12.179
 20
-26.8215
 30
0.0
 10
12.179
 20
-26.8215
 30
0.0
 10
12.3281
 20
-26.7382
 30
0.0
 10
12.4942
 20
-26.6963
 30
0.0
 10
12.6771
 20
-26.6963
 30
0.0
 10
12.6771
 20
-26.6963
 30
0.0
 10
12.8004
 20
-26.6963
 30
0.0
 10
12.9081
 20
-26.7123
 30
0.0
 10
13.0003
 20
-26.7453
 30
0.0
 10
13.0003
 20
-26.7453
 30
0.0
 10
13.0925
 20
-26.7777
 30
0.0
 10
13.1922
 20
-26.8346
 30
0.0
 10
13.2985
 20
-26.9155
 30
0.0
  0
SPLINE
  5
4E
330
1F
100
AcDbEntity
  8
DATUMS
 62
   250
100
AcDbSpline
210
0.0
220
0.0
230
1.0
 70
    11
 71
     3
 72
    32
 73
    28
 74
     0
 42
0.0000000001
 43
0.0000000001
 40
0.0
 40
0.0
 40
0.0
 40
0.0
 40
0.125
 40
0.125
 40
0.125
 40
0.125
 40
0.25
 40
0.25
 40
0.25
 40
0.25
 40
0.375
 40
0.375
 40
0.375
 40
0.375
 40
0.5
 40
0.5
 40
0.5
 40
0.5
 40
0.625
 40
0.625
 40
0.625
 40
0.625
 40
0.75
 40
0.75
 40
0.75
 40
0.75
 40
1.0
 40
1.0
 40
1.0
 40
1.0
 10
13.1334
 20
-27.1013
 30
0.0
 10
13.0468
 20
-27.0336
 30
0.0
 10
12.9711
 20
-26.987
 30
0.0
 10
12.9067
 20
-26.9621
 30
0.0
 10
12.9067
 20
-26.9621
 30
0.0
 10
12.8418
 20
-26.9376
 30
0.0
 10
12.7656
 20
-26.9249
 30
0.0
 10
12.6785
 20
-26.9249
 30
0.0
 10
12.6785
 20
-26.9249
 30
0.0
 10
12.4772
 20
-26.9249
 30
0.0
 10
12.3112
 20
-26.9931
 30
0.0
 10
12.1795
 20
-27.1295
 30
0.0
 10
12.1795
 20
-27.1295
 30
0.0
 10
12.0482
 20
-27.266
 30
0.0
 10
11.9824
 20
-27.4696
 30
0.0
 10
11.9824
 20
-27.741
 30
0.0
 10
11.9824
 20
-27.741
 30
0.0
 10
11.9824
 20
-27.8473
 30
0.0
 10
11.9927
 20
-27.9419
 30
0.0
 10
12.013
 20
-28.0247
 30
0.0
 10
12.013
 20
-28.0247
 30
0.0
 10
12.0276
 20
-28.0863
 30
0.0
 10
12.0581
 20
-28.162
 30
0.0
 10
12.1052
 20
-28.2518
 30
0.0
 10
12.1052
 20
-28.2518
 30
0.0
 10
12.1052
 20
-28.2518
 30
0.0
 10
13.1334
 20
-27.1013
 30
0.0
 10
13.1334
 20
-27.1013
 30
0.0
  0
SPLINE
  5
4F
330
1F
100
AcDbEntity
  8
DATUMS
 62
   250
100
AcDbSpline
210
0.0
220
0.0
230
1.0
 70
    11
 71
     3
 72
    28
 73
    24
 74
     0
 42
0.0000000001
 43
0.0000000001
 40
0.0
 40
0.0
 40
0.0
 40
0.0
 40
0.1428571428571428
 40
0.1428571428571428
 40
0.1428571428571428
 40
0.1428571428571428
 40
0.2857142857142857
 40
0.2857142857142857
 40
0.2857142857142857
 40
0.2857142857142857
 40
0.4285714285714285
 40
0.4285714285714285
 40
0.4285714285714285
 40
0.4285714285714285
 40
0.5714285714285714
 40
0.5714285714285714
 40
0.5714285714285714
 40
0.5714285714285714
 40
0.7142857142857143
 40
0.7142857142857143
 40
0.7142857142857143
 40
0.7142857142857143
 40
1.0
 40
1.0
 40
1.0
 40
1.0
 10
13.2463
 20
-27.2434
 30
0.0
 10
13.2463
 20
-27.2434
 30
0.0
 10
12.2223
 20
-28.3897
 30
0.0
 10
12.2223
 20
-28.3897
 30
0.0
 10
12.2223
 20
-28.3897
 30
0.0
 10
12.2928
 20
-28.4475
 30
0.0
 10
12.3582
 20
-28.488
 30
0.0
 10
12.418
 20
-28.511
 30
0.0
 10
12.418
 20
-28.511
 30
0.0
 10
12.496
 20
-28.5416
 30
0.0
 10
12.5807
 20
-28.5566
 30
0.0
 10
12.6715
 20
-28.5566
 30
0.0
 10
12.6715
 20
-28.5566
 30
0.0
 10
12.8719
 20
-28.5566
 30
0.0
 10
13.037
 20
-28.4861
 30
0.0
 10
13.1677
 20
-28.3445
 30
0.0
 10
13.1677
 20
-28.3445
 30
0.0
 10
13.298
 20
-28.2029
 30
0.0
 10
13.3634
 20
-28.0044
 30
0.0
 10
13.3634
 20
-27.749
 30
0.0
 10
13.3634
 20
-27.749
 30
0.0
 10
13.3634
 20
-27.5581
 30
0.0
 10
13.3244
 20
-27.3892
 30
0.0
 10
13.2463
 20
-27.2434
 30
0.0
  0
SPLINE
  5
50
330
1F
100
AcDbEntity
  8
DATUMS
 62
   250
100
AcDbSpline
210
0.0
220
0.0
230
1.0
 70
    11
 71
     3
 72
    40
 73
    36
 74
     0
 42
0.0000000001
 43
0.0000000001
 40
0.0
 40
0.0
 40
0.0
 40
0.0
 40
0.1
 40
0.1
 40
0.1
 40
0.1
 40
0.2
 40
0.2
 40
0.2
 40
0.2
 40
0.3
 40
0.3
 40
0.3
 40
0.3
 40
0.4
 40
0.4
 40
0.4
 40
0.4
 40
0.5
 40
0.5
 40
0.5
 40
0.5
 40
0.6
 40
0.6
 40
0.6
 40
0.6
 40
0.7
 40
0.7
 40
0.7
 40
0.7
 40
0.8
 40
0.8
 40
0.8
 40
0.8
 40
1.0
 40
1.0
 40
1.0
 40
1.0
 10
14.8225
 20
-28.7509
 30
0.0
 10
14.8225
 20
-28.7509
 30
0.0
 10
14.5746
 20
-28.7509
 30
0.0
 10
14.5746
 20
-28.7509
 30
0.0
 10
14.5746
 20
-28.7509
 30
0.0
 10
14.5746
 20
-28.7509
 30
0.0
 10
14.5746
 20
-27.1705
 30
0.0
 10
14.5746
 20
-27.1705
 30
0.0
 10
14.5746
 20
-27.1705
 30
0.0
 10
14.5148
 20
-27.2274
 30
0.0
 10
14.4368
 20
-27.2843
 30
0.0
 10
14.3399
 20
-27.3412
 30
0.0
 10
14.3399
 20
-27.3412
 30
0.0
 10
14.2425
 20
-27.3981
 30
0.0
 10
14.1555
 20
-27.4409
 30
0.0
 10
14.0783
 20
-27.4692
 30
0.0
 10
14.0783
 20
-27.4692
 30
0.0
 10
14.0783
 20
-27.4692
 30
0.0
 10
14.0783
 20
-27.2297
 30
0.0
 10
14.0783
 20
-27.2297
 30
0.0
 10
14.0783
 20
-27.2297
 30
0.0
 10
14.2171
 20
-27.1644
 30
0.0
 10
14.3385
 20
-27.0853
 30
0.0
 10
14.4424
 20
-26.9927
 30
0.0
 10
14.4424
 20
-26.9927
 30
0.0
 10
14.5459
 20
-26.8995
 30
0.0
 10
14.6197
 20
-26.8097
 30
0.0
 10
14.663
 20
-26.7222
 30
0.0
 10
14.663
 20
-26.7222
 30
0.0
 10
14.663
 20
-26.7222
 30
0.0
 10
14.8225
 20
-26.7222
 30
0.0
 10
14.8225
 20
-26.7222
 30
0.0
 10
14.8225
 20
-26.7222
 30
0.0
 10
14.8225
 20
-26.7222
 30
0.0
 10
14.8225
 20
-28.7509
 30
0.0
 10
14.8225
 20
-28.7509
 30
0.0
  0
SPLINE
  5
51
330
1F
100
AcDbEntity
  8
DATUMS
 62
   250
100
AcDbSpline
210
0.0
220
0.0
230
1.0
 70
    11
 71
     3
 72
    48
 73
    44
 74
     0
 42
0.0000000001
 43
0.0000000001
 40
0.0
 40
0.0
 40
0.0
 40
0.0
 40
0.0833333333333333
 40
0.0833333333333333
 40
0.0833333333333333
 40
0.0833333333333333
 40
0.1666666666666667
 40
0.1666666666666667
 40
0.1666666666666667
 40
0.1666666666666667
 40
0.25
 40
0.25
 40
0.25
 40
0.25
 40
0.3333333333333333
 40
0.3333333333333333
 40
0.3333333333333333
 40
0.3333333333333333
 40
0.4166666666666667
 40
0.4166666666666667
 40
0.4166666666666667
 40
0.4166666666666667
 40
0.5
 40
0.5
 40
0.5
 40
0.5
 40
0.5833333333333334
 40
0.5833333333333334
 40
0.5833333333333334
 40
0.5833333333333334
 40
0.6666666666666666
 40
0.6666666666666666
 40
0.6666666666666666
 40
0.6666666666666666
 40
0.75
 40
0.75
 40
0.75
 40
0.75
 40
0.8333333333333334
 40
0.8333333333333334
 40
0.8333333333333334
 40
0.8333333333333334
 40
1.0
 40
1.0
 40
1.0
 40
1.0
 10
15.4744
 20
-26.9955
 30
0.0
 10
15.4744
 20
-26.9955
 30
0.0
 10
15.4744
 20
-26.757
 30
0.0
 10
15.4744
 20
-26.757
 30
0.0
 10
15.4744
 20
-26.757
 30
0.0
 10
15.4744
 20
-26.757
 30
0.0
 10
16.782
 20
-26.757
 30
0.0
 10
16.782
 20
-26.757
 30
0.0
 10
16.782
 20
-26.757
 30
0.0
 10
16.782
 20
-26.757
 30
0.0
 10
16.782
 20
-26.9499
 30
0.0
 10
16.782
 20
-26.9499
 30
0.0
 10
16.782
 20
-26.9499
 30
0.0
 10
16.6536
 20
-27.0867
 30
0.0
 10
16.5261
 20
-27.2688
 30
0.0
 10
16.3996
 20
-27.4955
 30
0.0
 10
16.3996
 20
-27.4955
 30
0.0
 10
16.2735
 20
-27.7222
 30
0.0
 10
16.1757
 20
-27.956
 30
0.0
 10
16.107
 20
-28.1954
 30
0.0
 10
16.107
 20
-28.1954
 30
0.0
 10
16.0572
 20
-28.3647
 30
0.0
 10
16.0257
 20
-28.5496
 30
0.0
 10
16.012
 20
-28.7509
 30
0.0
 10
16.012
 20
-28.7509
 30
0.0
 10
16.012
 20
-28.7509
 30
0.0
 10
15.7571
 20
-28.7509
 30
0.0
 10
15.7571
 20
-28.7509
 30
0.0
 10
15.7571
 20
-28.7509
 30
0.0
 10
15.7599
 20
-28.5919
 30
0.0
 10
15.7909
 20
-28.4
 30
0.0
 10
15.8507
 20
-28.1747
 30
0.0
 10
15.8507
 20
-28.1747
 30
0.0
 10
15.9104
 20
-27.9499
 30
0.0
 10
15.996
 20
-27.7326
 30
0.0
 10
16.1075
 20
-27.5237
 30
0.0
 10
16.1075
 20
-27.5237
 30
0.0
 10
16.2194
 20
-27.3149
 30
0.0
 10
16.338
 20
-27.1385
 30
0.0
 10
16.464
 20
-26.9955
 30
0.0
 10
16.464
 20
-26.9955
 30
0.0
 10
16.464
 20
-26.9955
 30
0.0
 10
15.4744
 20
-26.9955
 30
0.0
 10
15.4744
 20
-26.9955
 30
0.0
  0
SPLINE
  5
52
330
1F
100
AcDbEntity
  8
DATUMS
 62
   250
100
AcDbSpline
210
0.0
220
0.0
230
1.0
 70
    11
 71
     3
 72
    20
 73
    16
 74
     0
 42
0.0000000001
 43
0.0000000001
 40
0.0
 40
0.0
 40
0.0
 40
0.0
 40
0.2
 40
0.2
 40
0.2
 40
0.2
 40
0.4
 40
0.4
 40
0.4
 40
0.4
 40
0.6
 40
0.6
 40
0.6
 40
0.6
 40
1.0
 40
1.0
 40
1.0
 40
1.0
 10
19.3804
 20
-32.9497
 30
0.0
 10
19.3804
 20
-32.9497
 30
0.0
 10
22.3804
 20
-33.3731
 30
0.0
 10
22.3804
 20
-33.3731
 30
0.0
 10
22.3804
 20
-33.3731
 30
0.0
 10
22.3804
 20
-33.3731
 30
0.0
 10
22.3804
 20
-33.4671
 30
0.0
 10
22.3804
 20
-33.4671
 30
0.0
 10
22.3804
 20
-33.4671
 30
0.0
 10
22.3804
 20
-33.4671
 30
0.0
 10
19.3804
 20
-33.9187
 30
0.0
 10
19.3804
 20
-33.9187
 30
0.0
 10
19.3804
 20
-33.9187
 30
0.0
 10
19.3804
 20
-33.9187
 30
0.0
 10
19.3804
 20
-32.9497
 30
0.0
 10
19.3804
 20
-32.9497
 30
0.0
  0
SPLINE
  5
53
330
1F
100
AcDbEntity
  8
DATUMS
 62
   250
100
AcDbSpline
210
0.0
220
0.0
230
1.0
 70
    11
 71
     3
 72
    20
 73
    16
 74
     0
 42
0.0000000001
 43
0.0000000001
 40
0.0
 40
0.0
 40
0.0
 40
0.0
 40
0.2
 40
0.2
 40
0.2
 40
0.2
 40
0.4
 40
0.4
 40
0.4
 40
0.4
 40
0.6
 40
0.6
 40
0.6
 40
0.6
 40
1.0
 40
1.0
 40
1.0
 40
1.0
 10
-5.9366
 20
-33.9468
 30
0.0
 10
-5.9366
 20
-33.9468
 30
0.0
 10
-8.9366
 20
-33.5234
 30
0.0
 10
-8.9366
 20
-33.5234
 30
0.0
 10
-8.9366
 20
-33.5234
 30
0.0
 10
-8.9366
 20
-33.5234
 30
0.0
 10
-8.9366
 20
-33.4294
 30
0.0
 10
-8.9366
 20
-33.4294
 30
0.0
 10
-8.9366
 20
-33.4294
 30
0.0
 10
-8.9366
 20
-33.4294
 30
0.0
 10
-5.9366
 20
-32.9779
 30
0.0
 10
-5.9366
 20
-32.9779
 30
0.0
 10
-5.9366
 20
-32.9779
 30
0.0
 10
-5.9366
 20
-32.9779
 30
0.0
 10
-5.9366
 20
-33.9468
 30
0.0
 10
-5.9366
 20
-33.9468
 30
0.0
  0
SPLINE
  5
54
330
1F
100
AcDbEntity
  8
DATUMS
 62
   250
100
AcDbSpline
210
0.0
220
0.0
230
1.0
 70
    11
 71
     3
 72
   120
 73
   116
 74
     0
 42
0.0000000001
 43
0.0000000001
 40
0.0
 40
0.0
 40
0.0
 40
0.0
 40
0.0333333333333333
 40
0.0333333333333333
 40
0.0333333333333333
 40
0.0333333333333333
 40
0.0666666666666667
 40
0.0666666666666667
 40
0.0666666666666667
 40
0.0666666666666667
 40
0.1
 40
0.1
 40
0.1
 40
0.1
 40
0.1333333333333333
 40
0.1333333333333333
 40
0.1333333333333333
 40
0.1333333333333333
 40
0.1666666666666667
 40
0.1666666666666667
 40
0.1666666666666667
 40
0.1666666666666667
 40
0.2
 40
0.2
 40
0.2
 40
0.2
 40
0.2333333333333333
 40
0.2333333333333333
 40
0.2333333333333333
 40
0.2333333333333333
 40
0.2666666666666667
 40
0.2666666666666667
 40
0.2666666666666667
 40
0.2666666666666667
 40
0.3
 40
0.3
 40
0.3
 40
0.3
 40
0.3333333333333333
 40
0.3333333333333333
 40
0.3333333333333333
 40
0.3333333333333333
 40
0.3666666666666666
 40
0.3666666666666666
 40
0.3666666666666666
 40
0.3666666666666666
 40
0.4
 40
0.4
 40
0.4
 40
0.4
 40
0.4333333333333333
 40
0.4333333333333333
 40
0.4333333333333333
 40
0.4333333333333333
 40
0.4666666666666667
 40
0.4666666666666667
 40
0.4666666666666667
 40
0.4666666666666667
 40
0.5
 40
0.5
 40
0.5
 40
0.5
 40
0.5333333333333333
 40
0.5333333333333333
 40
0.5333333333333333
 40
0.5333333333333333
 40
0.5666666666666667
 40
0.5666666666666667
 40
0.5666666666666667
 40
0.5666666666666667
 40
0.6
 40
0.6
 40
0.6
 40
0.6
 40
0.6333333333333333
 40
0.6333333333333333
 40
0.6333333333333333
 40
0.6333333333333333
 40
0.6666666666666666
 40
0.6666666666666666
 40
0.6666666666666666
 40
0.6666666666666666
 40
0.7
 40
0.7
 40
0.7
 40
0.7
 40
0.7333333333333333
 40
0.7333333333333333
 40
0.7333333333333333
 40
0.7333333333333333
 40
0.7666666666666667
 40
0.7666666666666667
 40
0.7666666666666667
 40
0.7666666666666667
 40
0.8
 40
0.8
 40
0.8
 40
0.8
 40
0.8333333333333334
 40
0.8333333333333334
 40
0.8333333333333334
 40
0.8333333333333334
 40
0.8666666666666667
 40
0.8666666666666667
 40
0.8666666666666667
 40
0.8666666666666667
 40
0.9
 40
0.9
 40
0.9
 40
0.9
 40
0.9333333333333333
 40
0.9333333333333333
 40
0.9333333333333333
 40
0.9333333333333333
 40
1.0
 40
1.0
 40
1.0
 40
1.0
 10
-11.685
 20
-21.3614
 30
0.0
 10
-11.685
 20
-21.3614
 30
0.0
 10
-11.685
 20
-21.1248
 30
0.0
 10
-11.685
 20
-21.1248
 30
0.0
 10
-11.685
 20
-21.1248
 30
0.0
 10
-11.685
 20
-21.1248
 30
0.0
 10
-10.8294
 20
-21.1234
 30
0.0
 10
-10.8294
 20
-21.1234
 30
0.0
 10
-10.8294
 20
-21.1234
 30
0.0
 10
-10.8294
 20
-21.1234
 30
0.0
 10
-10.8294
 20
-21.8727
 30
0.0
 10
-10.8294
 20
-21.8727
 30
0.0
 10
-10.8294
 20
-21.8727
 30
0.0
 10
-10.9606
 20
-21.9776
 30
0.0
 10
-11.0961
 20
-22.0562
 30
0.0
 10
-11.2358
 20
-22.1093
 30
0.0
 10
-11.2358
 20
-22.1093
 30
0.0
 10
-11.3755
 20
-22.162
 30
0.0
 10
-11.5189
 20
-22.1883
 30
0.0
 10
-11.6657
 20
-22.1883
 30
0.0
 10
-11.6657
 20
-22.1883
 30
0.0
 10
-11.8642
 20
-22.1883
 30
0.0
 10
-12.0448
 20
-22.146
 30
0.0
 10
-12.2066
 20
-22.0609
 30
0.0
 10
-12.2066
 20
-22.0609
 30
0.0
 10
-12.3689
 20
-21.9762
 30
0.0
 10
-12.4912
 20
-21.853
 30
0.0
 10
-12.574
 20
-21.6926
 30
0.0
 10
-12.574
 20
-21.6926
 30
0.0
 10
-12.6568
 20
-21.5317
 30
0.0
 10
-12.6982
 20
-21.352
 30
0.0
 10
-12.6982
 20
-21.1535
 30
0.0
 10
-12.6982
 20
-21.1535
 30
0.0
 10
-12.6982
 20
-20.9569
 30
0.0
 10
-12.6568
 20
-20.7735
 30
0.0
 10
-12.5744
 20
-20.6032
 30
0.0
 10
-12.5744
 20
-20.6032
 30
0.0
 10
-12.4926
 20
-20.4325
 30
0.0
 10
-12.3741
 20
-20.3059
 30
0.0
 10
-12.2198
 20
-20.2231
 30
0.0
 10
-12.2198
 20
-20.2231
 30
0.0
 10
-12.0655
 20
-20.1408
 30
0.0
 10
-11.8877
 20
-20.0994
 30
0.0
 10
-11.6864
 20
-20.0994
 30
0.0
 10
-11.6864
 20
-20.0994
 30
0.0
 10
-11.5406
 20
-20.0994
 30
0.0
 10
-11.4084
 20
-20.123
 30
0.0
 10
-11.2903
 20
-20.1705
 30
0.0
 10
-11.2903
 20
-20.1705
 30
0.0
 10
-11.1723
 20
-20.2175
 30
0.0
 10
-11.0796
 20
-20.2834
 30
0.0
 10
-11.0128
 20
-20.368
 30
0.0
 10
-11.0128
 20
-20.368
 30
0.0
 10
-10.9456
 20
-20.4527
 30
0.0
 10
-10.8948
 20
-20.5627
 30
0.0
 10
-10.8595
 20
-20.6987
 30
0.0
 10
-10.8595
 20
-20.6987
 30
0.0
 10
-10.8595
 20
-20.6987
 30
0.0
 10
-11.1008
 20
-20.765
 30
0.0
 10
-11.1008
 20
-20.765
 30
0.0
 10
-11.1008
 20
-20.765
 30
0.0
 10
-11.1314
 20
-20.662
 30
0.0
 10
-11.169
 20
-20.5811
 30
0.0
 10
-11.2137
 20
-20.5223
 30
0.0
 10
-11.2137
 20
-20.5223
 30
0.0
 10
-11.2588
 20
-20.4635
 30
0.0
 10
-11.3233
 20
-20.4165
 30
0.0
 10
-11.407
 20
-20.3812
 30
0.0
 10
-11.407
 20
-20.3812
 30
0.0
 10
-11.4903
 20
-20.3459
 30
0.0
 10
-11.5834
 20
-20.328
 30
0.0
 10
-11.685
 20
-20.328
 30
0.0
 10
-11.685
 20
-20.328
 30
0.0
 10
-11.8073
 20
-20.328
 30
0.0
 10
-11.9131
 20
-20.3469
 30
0.0
 10
-12.002
 20
-20.384
 30
0.0
 10
-12.002
 20
-20.384
 30
0.0
 10
-12.0914
 20
-20.4212
 30
0.0
 10
-12.1629
 20
-20.4701
 30
0.0
 10
-12.2179
 20
-20.5308
 30
0.0
 10
-12.2179
 20
-20.5308
 30
0.0
 10
-12.2725
 20
-20.5914
 30
0.0
 10
-12.3148
 20
-20.6578
 30
0.0
 10
-12.3454
 20
-20.7307
 30
0.0
 10
-12.3454
 20
-20.7307
 30
0.0
 10
-12.3966
 20
-20.8553
 30
0.0
 10
-12.4225
 20
-20.9908
 30
0.0
 10
-12.4225
 20
-21.1371
 30
0.0
 10
-12.4225
 20
-21.1371
 30
0.0
 10
-12.4225
 20
-21.3172
 30
0.0
 10
-12.3915
 20
-21.4677
 30
0.0
 10
-12.3294
 20
-21.5891
 30
0.0
 10
-12.3294
 20
-21.5891
 30
0.0
 10
-12.2673
 20
-21.7104
 30
0.0
 10
-12.177
 20
-21.8003
 30
0.0
 10
-12.0585
 20
-21.8591
 30
0.0
 10
-12.0585
 20
-21.8591
 30
0.0
 10
-11.9399
 20
-21.9179
 30
0.0
 10
-11.8143
 20
-21.9475
 30
0.0
 10
-11.6812
 20
-21.9475
 30
0.0
 10
-11.6812
 20
-21.9475
 30
0.0
 10
-11.565
 20
-21.9475
 30
0.0
 10
-11.4522
 20
-21.9249
 30
0.0
 10
-11.3421
 20
-21.8802
 30
0.0
 10
-11.3421
 20
-21.8802
 30
0.0
 10
-11.2315
 20
-21.836
 30
0.0
 10
-11.1483
 20
-21.7885
 30
0.0
 10
-11.0914
 20
-21.7377
 30
0.0
 10
-11.0914
 20
-21.7377
 30
0.0
 10
-11.0914
 20
-21.7377
 30
0.0
 10
-11.0914
 20
-21.3614
 30
0.0
 10
-11.0914
 20
-21.3614
 30
0.0
 10
-11.0914
 20
-21.3614
 30
0.0
 10
-11.0914
 20
-21.3614
 30
0.0
 10
-11.685
 20
-21.3614
 30
0.0
 10
-11.685
 20
-21.3614
 30
0.0
  0
SPLINE
  5
55
330
1F
100
AcDbEntity
  8
DATUMS
 62
   250
100
AcDbSpline
210
0.0
220
0.0
230
1.0
 70
    11
 71
     3
 72
    80
 73
    76
 74
     0
 42
0.0000000001
 43
0.0000000001
 40
0.0
 40
0.0
 40
0.0
 40
0.0
 40
0.05
 40
0.05
 40
0.05
 40
0.05
 40
0.1
 40
0.1
 40
0.1
 40
0.1
 40
0.15
 40
0.15
 40
0.15
 40
0.15
 40
0.2
 40
0.2
 40
0.2
 40
0.2
 40
0.25
 40
0.25
 40
0.25
 40
0.25
 40
0.3
 40
0.3
 40
0.3
 40
0.3
 40
0.35
 40
0.35
 40
0.35
 40
0.35
 40
0.4
 40
0.4
 40
0.4
 40
0.4
 40
0.45
 40
0.45
 40
0.45
 40
0.45
 40
0.5
 40
0.5
 40
0.5
 40
0.5
 40
0.55
 40
0.55
 40
0.55
 40
0.55
 40
0.6
 40
0.6
 40
0.6
 40
0.6
 40
0.65
 40
0.65
 40
0.65
 40
0.65
 40
0.7
 40
0.7
 40
0.7
 40
0.7
 40
0.75
 40
0.75
 40
0.75
 40
0.75
 40
0.8
 40
0.8
 40
0.8
 40
0.8
 40
0.85
 40
0.85
 40
0.85
 40
0.85
 40
0.9
 40
0.9
 40
0.9
 40
0.9
 40
1.0
 40
1.0
 40
1.0
 40
1.0
 10
-8.4649
 20
-20.6286
 30
0.0
 10
-8.4649
 20
-20.6286
 30
0.0
 10
-8.7113
 20
-20.6479
 30
0.0
 10
-8.7113
 20
-20.6479
 30
0.0
 10
-8.7113
 20
-20.6479
 30
0.0
 10
-8.7334
 20
-20.5505
 30
0.0
 10
-8.7645
 20
-20.4795
 30
0.0
 10
-8.8049
 20
-20.4358
 30
0.0
 10
-8.8049
 20
-20.4358
 30
0.0
 10
-8.8722
 20
-20.3647
 30
0.0
 10
-8.955
 20
-20.3294
 30
0.0
 10
-9.0533
 20
-20.3294
 30
0.0
 10
-9.0533
 20
-20.3294
 30
0.0
 10
-9.1323
 20
-20.3294
 30
0.0
 10
-9.2014
 20
-20.3516
 30
0.0
 10
-9.2612
 20
-20.3958
 30
0.0
 10
-9.2612
 20
-20.3958
 30
0.0
 10
-9.3393
 20
-20.4527
 30
0.0
 10
-9.4009
 20
-20.5359
 30
0.0
 10
-9.446
 20
-20.6451
 30
0.0
 10
-9.446
 20
-20.6451
 30
0.0
 10
-9.4907
 20
-20.7542
 30
0.0
 10
-9.5142
 20
-20.9099
 30
0.0
 10
-9.5161
 20
-21.1121
 30
0.0
 10
-9.5161
 20
-21.1121
 30
0.0
 10
-9.4564
 20
-21.0214
 30
0.0
 10
-9.3835
 20
-20.9536
 30
0.0
 10
-9.2969
 20
-20.9094
 30
0.0
 10
-9.2969
 20
-20.9094
 30
0.0
 10
-9.2109
 20
-20.8657
 30
0.0
 10
-9.1201
 20
-20.8436
 30
0.0
 10
-9.0255
 20
-20.8436
 30
0.0
 10
-9.0255
 20
-20.8436
 30
0.0
 10
-8.86
 20
-20.8436
 30
0.0
 10
-8.7193
 20
-20.9042
 30
0.0
 10
-8.6031
 20
-21.0261
 30
0.0
 10
-8.6031
 20
-21.0261
 30
0.0
 10
-8.487
 20
-21.1479
 30
0.0
 10
-8.4286
 20
-21.305
 30
0.0
 10
-8.4286
 20
-21.4978
 30
0.0
 10
-8.4286
 20
-21.4978
 30
0.0
 10
-8.4286
 20
-21.6248
 30
0.0
 10
-8.4564
 20
-21.7424
 30
0.0
 10
-8.511
 20
-21.8516
 30
0.0
 10
-8.511
 20
-21.8516
 30
0.0
 10
-8.5655
 20
-21.9602
 30
0.0
 10
-8.6408
 20
-22.0439
 30
0.0
 10
-8.7363
 20
-22.1018
 30
0.0
 10
-8.7363
 20
-22.1018
 30
0.0
 10
-8.8317
 20
-22.1596
 30
0.0
 10
-8.9399
 20
-22.1883
 30
0.0
 10
-9.0613
 20
-22.1883
 30
0.0
 10
-9.0613
 20
-22.1883
 30
0.0
 10
-9.2682
 20
-22.1883
 30
0.0
 10
-9.4366
 20
-22.1126
 30
0.0
 10
-9.5669
 20
-21.9602
 30
0.0
 10
-9.5669
 20
-21.9602
 30
0.0
 10
-9.6977
 20
-21.8083
 30
0.0
 10
-9.7626
 20
-21.5576
 30
0.0
 10
-9.7626
 20
-21.2086
 30
0.0
 10
-9.7626
 20
-21.2086
 30
0.0
 10
-9.7626
 20
-20.8182
 30
0.0
 10
-9.6906
 20
-20.5345
 30
0.0
 10
-9.5462
 20
-20.3572
 30
0.0
 10
-9.5462
 20
-20.3572
 30
0.0
 10
-9.4206
 20
-20.2029
 30
0.0
 10
-9.2513
 20
-20.1253
 30
0.0
 10
-9.0378
 20
-20.1253
 30
0.0
 10
-9.0378
 20
-20.1253
 30
0.0
 10
-8.8792
 20
-20.1253
 30
0.0
 10
-8.749
 20
-20.17
 30
0.0
 10
-8.6474
 20
-20.2594
 30
0.0
 10
-8.6474
 20
-20.2594
 30
0.0
 10
-8.5458
 20
-20.3483
 30
0.0
 10
-8.4851
 20
-20.4715
 30
0.0
 10
-8.4649
 20
-20.6286
 30
0.0
  0
SPLINE
  5
56
330
1F
100
AcDbEntity
  8
DATUMS
 62
   250
100
AcDbSpline
210
0.0
220
0.0
230
1.0
 70
    11
 71
     3
 72
    40
 73
    36
 74
     0
 42
0.0000000001
 43
0.0000000001
 40
0.0
 40
0.0
 40
0.0
 40
0.0
 40
0.1
 40
0.1
 40
0.1
 40
0.1
 40
0.2
 40
0.2
 40
0.2
 40
0.2
 40
0.3
 40
0.3
 40
0.3
 40
0.3
 40
0.4
 40
0.4
 40
0.4
 40
0.4
 40
0.5
 40
0.5
 40
0.5
 40
0.5
 40
0.6
 40
0.6
 40
0.6
 40
0.6
 40
0.7
 40
0.7
 40
0.7
 40
0.7
 40
0.8
 40
0.8
 40
0.8
 40
0.8
 40
1.0
 40
1.0
 40
1.0
 40
1.0
 10
-9.4776
 20
-21.4992
 30
0.0
 10
-9.4776
 20
-21.5849
 30
0.0
 10
-9.4592
 20
-21.6667
 30
0.0
 10
-9.423
 20
-21.7448
 30
0.0
 10
-9.423
 20
-21.7448
 30
0.0
 10
-9.3868
 20
-21.8229
 30
0.0
 10
-9.336
 20
-21.8821
 30
0.0
 10
-9.2711
 20
-21.923
 30
0.0
 10
-9.2711
 20
-21.923
 30
0.0
 10
-9.2057
 20
-21.964
 30
0.0
 10
-9.137
 20
-21.9847
 30
0.0
 10
-9.0655
 20
-21.9847
 30
0.0
 10
-9.0655
 20
-21.9847
 30
0.0
 10
-8.9606
 20
-21.9847
 30
0.0
 10
-8.8708
 20
-21.9423
 30
0.0
 10
-8.7955
 20
-21.8577
 30
0.0
 10
-8.7955
 20
-21.8577
 30
0.0
 10
-8.7203
 20
-21.773
 30
0.0
 10
-8.6826
 20
-21.6582
 30
0.0
 10
-8.6826
 20
-21.5134
 30
0.0
 10
-8.6826
 20
-21.5134
 30
0.0
 10
-8.6826
 20
-21.3737
 30
0.0
 10
-8.7198
 20
-21.2636
 30
0.0
 10
-8.7941
 20
-21.1832
 30
0.0
 10
-8.7941
 20
-21.1832
 30
0.0
 10
-8.8684
 20
-21.1027
 30
0.0
 10
-8.962
 20
-21.0627
 30
0.0
 10
-9.0749
 20
-21.0627
 30
0.0
 10
-9.0749
 20
-21.0627
 30
0.0
 10
-9.1873
 20
-21.0627
 30
0.0
 10
-9.2824
 20
-21.1027
 30
0.0
 10
-9.3604
 20
-21.1832
 30
0.0
 10
-9.3604
 20
-21.1832
 30
0.0
 10
-9.4385
 20
-21.2636
 30
0.0
 10
-9.4776
 20
-21.369
 30
0.0
 10
-9.4776
 20
-21.4992
 30
0.0
  0
SPLINE
  5
57
330
1F
100
AcDbEntity
  8
DATUMS
 62
   250
100
AcDbSpline
210
0.0
220
0.0
230
1.0
 70
    11
 71
     3
 72
    20
 73
    16
 74
     0
 42
0.0000000001
 43
0.0000000001
 40
0.0
 40
0.0
 40
0.0
 40
0.0
 40
0.2
 40
0.2
 40
0.2
 40
0.2
 40
0.4
 40
0.4
 40
0.4
 40
0.4
 40
0.6
 40
0.6
 40
0.6
 40
0.6
 40
1.0
 40
1.0
 40
1.0
 40
1.0
 10
-8.2993
 20
-22.1883
 30
0.0
 10
-8.2993
 20
-22.1883
 30
0.0
 10
-7.7137
 20
-20.0994
 30
0.0
 10
-7.7137
 20
-20.0994
 30
0.0
 10
-7.7137
 20
-20.0994
 30
0.0
 10
-7.7137
 20
-20.0994
 30
0.0
 10
-7.5152
 20
-20.0994
 30
0.0
 10
-7.5152
 20
-20.0994
 30
0.0
 10
-7.5152
 20
-20.0994
 30
0.0
 10
-7.5152
 20
-20.0994
 30
0.0
 10
-8.0994
 20
-22.1883
 30
0.0
 10
-8.0994
 20
-22.1883
 30
0.0
 10
-8.0994
 20
-22.1883
 30
0.0
 10
-8.0994
 20
-22.1883
 30
0.0
 10
-8.2993
 20
-22.1883
 30
0.0
 10
-8.2993
 20
-22.1883
 30
0.0
  0
SPLINE
  5
58
330
1F
100
AcDbEntity
  8
DATUMS
 62
   250
100
AcDbSpline
210
0.0
220
0.0
230
1.0
 70
    11
 71
     3
 72
    48
 73
    44
 74
     0
 42
0.0000000001
 43
0.0000000001
 40
0.0
 40
0.0
 40
0.0
 40
0.0
 40
0.0833333333333333
 40
0.0833333333333333
 40
0.0833333333333333
 40
0.0833333333333333
 40
0.1666666666666667
 40
0.1666666666666667
 40
0.1666666666666667
 40
0.1666666666666667
 40
0.25
 40
0.25
 40
0.25
 40
0.25
 40
0.3333333333333333
 40
0.3333333333333333
 40
0.3333333333333333
 40
0.3333333333333333
 40
0.4166666666666667
 40
0.4166666666666667
 40
0.4166666666666667
 40
0.4166666666666667
 40
0.5
 40
0.5
 40
0.5
 40
0.5
 40
0.5833333333333334
 40
0.5833333333333334
 40
0.5833333333333334
 40
0.5833333333333334
 40
0.6666666666666666
 40
0.6666666666666666
 40
0.6666666666666666
 40
0.6666666666666666
 40
0.75
 40
0.75
 40
0.75
 40
0.75
 40
0.8333333333333334
 40
0.8333333333333334
 40
0.8333333333333334
 40
0.8333333333333334
 40
1.0
 40
1.0
 40
1.0
 40
1.0
 10
-6.6032
 20
-22.154
 30
0.0
 10
-6.6032
 20
-22.154
 30
0.0
 10
-6.6032
 20
-21.6705
 30
0.0
 10
-6.6032
 20
-21.6705
 30
0.0
 10
-6.6032
 20
-21.6705
 30
0.0
 10
-6.6032
 20
-21.6705
 30
0.0
 10
-7.4795
 20
-21.6705
 30
0.0
 10
-7.4795
 20
-21.6705
 30
0.0
 10
-7.4795
 20
-21.6705
 30
0.0
 10
-7.4795
 20
-21.6705
 30
0.0
 10
-7.4795
 20
-21.4428
 30
0.0
 10
-7.4795
 20
-21.4428
 30
0.0
 10
-7.4795
 20
-21.4428
 30
0.0
 10
-7.4795
 20
-21.4428
 30
0.0
 10
-6.5575
 20
-20.1338
 30
0.0
 10
-6.5575
 20
-20.1338
 30
0.0
 10
-6.5575
 20
-20.1338
 30
0.0
 10
-6.5575
 20
-20.1338
 30
0.0
 10
-6.3548
 20
-20.1338
 30
0.0
 10
-6.3548
 20
-20.1338
 30
0.0
 10
-6.3548
 20
-20.1338
 30
0.0
 10
-6.3548
 20
-20.1338
 30
0.0
 10
-6.3548
 20
-21.4428
 30
0.0
 10
-6.3548
 20
-21.4428
 30
0.0
 10
-6.3548
 20
-21.4428
 30
0.0
 10
-6.3548
 20
-21.4428
 30
0.0
 10
-6.082
 20
-21.4428
 30
0.0
 10
-6.082
 20
-21.4428
 30
0.0
 10
-6.082
 20
-21.4428
 30
0.0
 10
-6.082
 20
-21.4428
 30
0.0
 10
-6.082
 20
-21.6705
 30
0.0
 10
-6.082
 20
-21.6705
 30
0.0
 10
-6.082
 20
-21.6705
 30
0.0
 10
-6.082
 20
-21.6705
 30
0.0
 10
-6.3548
 20
-21.6705
 30
0.0
 10
-6.3548
 20
-21.6705
 30
0.0
 10
-6.3548
 20
-21.6705
 30
0.0
 10
-6.3548
 20
-21.6705
 30
0.0
 10
-6.3548
 20
-22.154
 30
0.0
 10
-6.3548
 20
-22.154
 30
0.0
 10
-6.3548
 20
-22.154
 30
0.0
 10
-6.3548
 20
-22.154
 30
0.0
 10
-6.6032
 20
-22.154
 30
0.0
 10
-6.6032
 20
-22.154
 30
0.0
  0
SPLINE
  5
59
330
1F
100
AcDbEntity
  8
DATUMS
 62
   250
100
AcDbSpline
210
0.0
220
0.0
230
1.0
 70
    11
 71
     3
 72
    16
 73
    12
 74
     0
 42
0.0000000001
 43
0.0000000001
 40
0.0
 40
0.0
 40
0.0
 40
0.0
 40
0.25
 40
0.25
 40
0.25
 40
0.25
 40
0.5
 40
0.5
 40
0.5
 40
0.5
 40
1.0
 40
1.0
 40
1.0
 40
1.0
 10
-6.6032
 20
-21.4428
 30
0.0
 10
-6.6032
 20
-21.4428
 30
0.0
 10
-6.6032
 20
-20.5322
 30
0.0
 10
-6.6032
 20
-20.5322
 30
0.0
 10
-6.6032
 20
-20.5322
 30
0.0
 10
-6.6032
 20
-20.5322
 30
0.0
 10
-7.2353
 20
-21.4428
 30
0.0
 10
-7.2353
 20
-21.4428
 30
0.0
 10
-7.2353
 20
-21.4428
 30
0.0
 10
-7.2353
 20
-21.4428
 30
0.0
 10
-6.6032
 20
-21.4428
 30
0.0
 10
-6.6032
 20
-21.4428
 30
0.0
  0
SPLINE
  5
5A
330
1F
100
AcDbEntity
  8
DATUMS
 62
   250
100
AcDbSpline
210
0.0
220
0.0
230
1.0
 70
    11
 71
     3
 72
    28
 73
    24
 74
     0
 42
0.0000000001
 43
0.0000000001
 40
0.0
 40
0.0
 40
0.0
 40
0.0
 40
0.1428571428571428
 40
0.1428571428571428
 40
0.1428571428571428
 40
0.1428571428571428
 40
0.2857142857142857
 40
0.2857142857142857
 40
0.2857142857142857
 40
0.2857142857142857
 40
0.4285714285714285
 40
0.4285714285714285
 40
0.4285714285714285
 40
0.4285714285714285
 40
0.5714285714285714
 40
0.5714285714285714
 40
0.5714285714285714
 40
0.5714285714285714
 40
0.7142857142857143
 40
0.7142857142857143
 40
0.7142857142857143
 40
0.7142857142857143
 40
1.0
 40
1.0
 40
1.0
 40
1.0
 10
-5.7471
 20
-20.8492
 30
0.0
 10
-5.7471
 20
-20.8492
 30
0.0
 10
-5.8162
 20
-20.4644
 30
0.0
 10
-5.8162
 20
-20.4644
 30
0.0
 10
-5.8162
 20
-20.4644
 30
0.0
 10
-5.8162
 20
-20.4644
 30
0.0
 10
-5.8162
 20
-20.1338
 30
0.0
 10
-5.8162
 20
-20.1338
 30
0.0
 10
-5.8162
 20
-20.1338
 30
0.0
 10
-5.8162
 20
-20.1338
 30
0.0
 10
-5.5336
 20
-20.1338
 30
0.0
 10
-5.5336
 20
-20.1338
 30
0.0
 10
-5.5336
 20
-20.1338
 30
0.0
 10
-5.5336
 20
-20.1338
 30
0.0
 10
-5.5336
 20
-20.4644
 30
0.0
 10
-5.5336
 20
-20.4644
 30
0.0
 10
-5.5336
 20
-20.4644
 30
0.0
 10
-5.5336
 20
-20.4644
 30
0.0
 10
-5.5956
 20
-20.8492
 30
0.0
 10
-5.5956
 20
-20.8492
 30
0.0
 10
-5.5956
 20
-20.8492
 30
0.0
 10
-5.5956
 20
-20.8492
 30
0.0
 10
-5.7471
 20
-20.8492
 30
0.0
 10
-5.7471
 20
-20.8492
 30
0.0
  0
SPLINE
  5
5B
330
1F
100
AcDbEntity
  8
DATUMS
 62
   250
100
AcDbSpline
210
0.0
220
0.0
230
1.0
 70
    11
 71
     3
 72
    28
 73
    24
 74
     0
 42
0.0000000001
 43
0.0000000001
 40
0.0
 40
0.0
 40
0.0
 40
0.0
 40
0.1428571428571428
 40
0.1428571428571428
 40
0.1428571428571428
 40
0.1428571428571428
 40
0.2857142857142857
 40
0.2857142857142857
 40
0.2857142857142857
 40
0.2857142857142857
 40
0.4285714285714285
 40
0.4285714285714285
 40
0.4285714285714285
 40
0.4285714285714285
 40
0.5714285714285714
 40
0.5714285714285714
 40
0.5714285714285714
 40
0.5714285714285714
 40
0.7142857142857143
 40
0.7142857142857143
 40
0.7142857142857143
 40
0.7142857142857143
 40
1.0
 40
1.0
 40
1.0
 40
1.0
 10
-5.2908
 20
-20.8492
 30
0.0
 10
-5.2908
 20
-20.8492
 30
0.0
 10
-5.3586
 20
-20.4644
 30
0.0
 10
-5.3586
 20
-20.4644
 30
0.0
 10
-5.3586
 20
-20.4644
 30
0.0
 10
-5.3586
 20
-20.4644
 30
0.0
 10
-5.3586
 20
-20.1338
 30
0.0
 10
-5.3586
 20
-20.1338
 30
0.0
 10
-5.3586
 20
-20.1338
 30
0.0
 10
-5.3586
 20
-20.1338
 30
0.0
 10
-5.0759
 20
-20.1338
 30
0.0
 10
-5.0759
 20
-20.1338
 30
0.0
 10
-5.0759
 20
-20.1338
 30
0.0
 10
-5.0759
 20
-20.1338
 30
0.0
 10
-5.0759
 20
-20.4644
 30
0.0
 10
-5.0759
 20
-20.4644
 30
0.0
 10
-5.0759
 20
-20.4644
 30
0.0
 10
-5.0759
 20
-20.4644
 30
0.0
 10
-5.1422
 20
-20.8492
 30
0.0
 10
-5.1422
 20
-20.8492
 30
0.0
 10
-5.1422
 20
-20.8492
 30
0.0
 10
-5.1422
 20
-20.8492
 30
0.0
 10
-5.2908
 20
-20.8492
 30
0.0
 10
-5.2908
 20
-20.8492
 30
0.0
  0
SPLINE
  5
5C
330
1F
100
AcDbEntity
  8
DATUMS
 62
   250
100
AcDbSpline
210
0.0
220
0.0
230
1.0
 70
    11
 71
     3
 72
    20
 73
    16
 74
     0
 42
0.0000000001
 43
0.0000000001
 40
0.0
 40
0.0
 40
0.0
 40
0.0
 40
0.2
 40
0.2
 40
0.2
 40
0.2
 40
0.4
 40
0.4
 40
0.4
 40
0.4
 40
0.6
 40
0.6
 40
0.6
 40
0.6
 40
1.0
 40
1.0
 40
1.0
 40
1.0
 10
-3.4535
 20
-22.2384
 30
0.0
 10
-3.4535
 20
-22.2384
 30
0.0
 10
-0.4535
 20
-22.6618
 30
0.0
 10
-0.4535
 20
-22.6618
 30
0.0
 10
-0.4535
 20
-22.6618
 30
0.0
 10
-0.4535
 20
-22.6618
 30
0.0
 10
-0.4535
 20
-22.7558
 30
0.0
 10
-0.4535
 20
-22.7558
 30
0.0
 10
-0.4535
 20
-22.7558
 30
0.0
 10
-0.4535
 20
-22.7558
 30
0.0
 10
-3.4535
 20
-23.2074
 30
0.0
 10
-3.4535
 20
-23.2074
 30
0.0
 10
-3.4535
 20
-23.2074
 30
0.0
 10
-3.4535
 20
-23.2074
 30
0.0
 10
-3.4535
 20
-22.2384
 30
0.0
 10
-3.4535
 20
-22.2384
 30
0.0
  0
SPLINE
  5
5D
330
1F
100
AcDbEntity
  8
DATUMS
 62
   250
100
AcDbSpline
210
0.0
220
0.0
230
1.0
 70
    11
 71
     3
 72
    20
 73
    16
 74
     0
 42
0.0000000001
 43
0.0000000001
 40
0.0
 40
0.0
 40
0.0
 40
0.0
 40
0.2
 40
0.2
 40
0.2
 40
0.2
 40
0.4
 40
0.4
 40
0.4
 40
0.4
 40
0.6
 40
0.6
 40
0.6
 40
0.6
 40
1.0
 40
1.0
 40
1.0
 40
1.0
 10
-14.6082
 20
-23.21
 30
0.0
 10
-14.6082
 20
-23.21
 30
0.0
 10
-17.6082
 20
-22.7866
 30
0.0
 10
-17.6082
 20
-22.7866
 30
0.0
 10
-17.6082
 20
-22.7866
 30
0.0
 10
-17.6082
 20
-22.7866
 30
0.0
 10
-17.6082
 20
-22.6926
 30
0.0
 10
-17.6082
 20
-22.6926
 30
0.0
 10
-17.6082
 20
-22.6926
 30
0.0
 10
-17.6082
 20
-22.6926
 30
0.0
 10
-14.6082
 20
-22.2411
 30
0.0
 10
-14.6082
 20
-22.2411
 30
0.0
 10
-14.6082
 20
-22.2411
 30
0.0
 10
-14.6082
 20
-22.2411
 30
0.0
 10
-14.6082
 20
-23.21
 30
0.0
 10
-14.6082
 20
-23.21
 30
0.0
  0
SPLINE
  5
5E
330
1F
100
AcDbEntity
  8
DATUMS
 62
   250
100
AcDbSpline
210
0.0
220
0.0
230
1.0
 70
    11
 71
     3
 72
    20
 73
    16
 74
     0
 42
0.0000000001
 43
0.0000000001
 40
0.0
 40
0.0
 40
0.0
 40
0.0
 40
0.2
 40
0.2
 40
0.2
 40
0.2
 40
0.4
 40
0.4
 40
0.4
 40
0.4
 40
0.6
 40
0.6
 40
0.6
 40
0.6
 40
1.0
 40
1.0
 40
1.0
 40
1.0
 10
-26.1876
 20
15.1422
 30
0.0
 10
-26.1876
 20
15.1422
 30
0.0
 10
-26.611
 20
12.1422
 30
0.0
 10
-26.611
 20
12.1422
 30
0.0
 10
-26.611
 20
12.1422
 30
0.0
 10
-26.611
 20
12.1422
 30
0.0
 10
-26.705
 20
12.1422
 30
0.0
 10
-26.705
 20
12.1422
 30
0.0
 10
-26.705
 20
12.1422
 30
0.0
 10
-26.705
 20
12.1422
 30
0.0
 10
-27.1566
 20
15.1422
 30
0.0
 10
-27.1566
 20
15.1422
 30
0.0
 10
-27.1566
 20
15.1422
 30
0.0
 10
-27.1566
 20
15.1422
 30
0.0
 10
-26.1876
 20
15.1422
 30
0.0
 10
-26.1876
 20
15.1422
 30
0.0
  0
SPLINE
  5
5F
330
1F
100
AcDbEntity
  8
DATUMS
 62
   250
100
AcDbSpline
210
0.0
220
0.0
230
1.0
 70
    11
 71
     3
 72
    92
 73
    88
 74
     0
 42
0.0000000001
 43
0.0000000001
 40
0.0
 40
0.0
 40
0.0
 40
0.0
 40
0.0434782608695652
 40
0.0434782608695652
 40
0.0434782608695652
 40
0.0434782608695652
 40
0.0869565217391304
 40
0.0869565217391304
 40
0.0869565217391304
 40
0.0869565217391304
 40
0.1304347826086956
 40
0.1304347826086956
 40
0.1304347826086956
 40
0.1304347826086956
 40
0.1739130434782609
 40
0.1739130434782609
 40
0.1739130434782609
 40
0.1739130434782609
 40
0.2173913043478261
 40
0.2173913043478261
 40
0.2173913043478261
 40
0.2173913043478261
 40
0.2608695652173913
 40
0.2608695652173913
 40
0.2608695652173913
 40
0.2608695652173913
 40
0.3043478260869565
 40
0.3043478260869565
 40
0.3043478260869565
 40
0.3043478260869565
 40
0.3478260869565217
 40
0.3478260869565217
 40
0.3478260869565217
 40
0.3478260869565217
 40
0.391304347826087
 40
0.391304347826087
 40
0.391304347826087
 40
0.391304347826087
 40
0.4347826086956522
 40
0.4347826086956522
 40
0.4347826086956522
 40
0.4347826086956522
 40
0.4782608695652174
 40
0.4782608695652174
 40
0.4782608695652174
 40
0.4782608695652174
 40
0.5217391304347826
 40
0.5217391304347826
 40
0.5217391304347826
 40
0.5217391304347826
 40
0.5652173913043478
 40
0.5652173913043478
 40
0.5652173913043478
 40
0.5652173913043478
 40
0.6086956521739131
 40
0.6086956521739131
 40
0.6086956521739131
 40
0.6086956521739131
 40
0.6521739130434783
 40
0.6521739130434783
 40
0.6521739130434783
 40
0.6521739130434783
 40
0.6956521739130435
 40
0.6956521739130435
 40
0.6956521739130435
 40
0.6956521739130435
 40
0.7391304347826086
 40
0.7391304347826086
 40
0.7391304347826086
 40
0.7391304347826086
 40
0.782608695652174
 40
0.782608695652174
 40
0.782608695652174
 40
0.782608695652174
 40
0.8260869565217391
 40
0.8260869565217391
 40
0.8260869565217391
 40
0.8260869565217391
 40
0.8695652173913043
 40
0.8695652173913043
 40
0.8695652173913043
 40
0.8695652173913043
 40
0.9130434782608695
 40
0.9130434782608695
 40
0.9130434782608695
 40
0.9130434782608695
 40
1.0
 40
1.0
 40
1.0
 40
1.0
 10
-27.5255
 20
-8.4388
 30
0.0
 10
-27.5255
 20
-8.4388
 30
0.0
 10
-27.5476
 20
-8.1782
 30
0.0
 10
-27.5476
 20
-8.1782
 30
0.0
 10
-27.5476
 20
-8.1782
 30
0.0
 10
-27.4206
 20
-8.1589
 30
0.0
 10
-27.3256
 20
-8.1142
 30
0.0
 10
-27.2616
 20
-8.0441
 30
0.0
 10
-27.2616
 20
-8.0441
 30
0.0
 10
-27.1976
 20
-7.9736
 30
0.0
 10
-27.1656
 20
-7.8889
 30
0.0
 10
-27.1656
 20
-7.7897
 30
0.0
 10
-27.1656
 20
-7.7897
 30
0.0
 10
-27.1656
 20
-7.6702
 30
0.0
 10
-27.2108
 20
-7.5691
 30
0.0
 10
-27.3006
 20
-7.4868
 30
0.0
 10
-27.3006
 20
-7.4868
 30
0.0
 10
-27.3909
 20
-7.404
 30
0.0
 10
-27.5104
 20
-7.3626
 30
0.0
 10
-27.659
 20
-7.3626
 30
0.0
 10
-27.659
 20
-7.3626
 30
0.0
 10
-27.8006
 20
-7.3626
 30
0.0
 10
-27.9121
 20
-7.4021
 30
0.0
 10
-27.9939
 20
-7.4816
 30
0.0
 10
-27.9939
 20
-7.4816
 30
0.0
 10
-28.0758
 20
-7.5611
 30
0.0
 10
-28.1167
 20
-7.665
 30
0.0
 10
-28.1167
 20
-7.7939
 30
0.0
 10
-28.1167
 20
-7.7939
 30
0.0
 10
-28.1167
 20
-7.8739
 30
0.0
 10
-28.0984
 20
-7.9458
 30
0.0
 10
-28.0622
 20
-8.0103
 30
0.0
 10
-28.0622
 20
-8.0103
 30
0.0
 10
-28.0259
 20
-8.0747
 30
0.0
 10
-27.9789
 20
-8.125
 30
0.0
 10
-27.921
 20
-8.1617
 30
0.0
 10
-27.921
 20
-8.1617
 30
0.0
 10
-27.921
 20
-8.1617
 30
0.0
 10
-27.9511
 20
-8.3946
 30
0.0
 10
-27.9511
 20
-8.3946
 30
0.0
 10
-27.9511
 20
-8.3946
 30
0.0
 10
-27.9511
 20
-8.3946
 30
0.0
 10
-28.9888
 20
-8.1989
 30
0.0
 10
-28.9888
 20
-8.1989
 30
0.0
 10
-28.9888
 20
-8.1989
 30
0.0
 10
-28.9888
 20
-8.1989
 30
0.0
 10
-28.9888
 20
-7.1942
 30
0.0
 10
-28.9888
 20
-7.1942
 30
0.0
 10
-28.9888
 20
-7.1942
 30
0.0
 10
-28.9888
 20
-7.1942
 30
0.0
 10
-28.7517
 20
-7.1942
 30
0.0
 10
-28.7517
 20
-7.1942
 30
0.0
 10
-28.7517
 20
-7.1942
 30
0.0
 10
-28.7517
 20
-7.1942
 30
0.0
 10
-28.7517
 20
-8.0004
 30
0.0
 10
-28.7517
 20
-8.0004
 30
0.0
 10
-28.7517
 20
-8.0004
 30
0.0
 10
-28.7517
 20
-8.0004
 30
0.0
 10
-28.2089
 20
-8.1095
 30
0.0
 10
-28.2089
 20
-8.1095
 30
0.0
 10
-28.2089
 20
-8.1095
 30
0.0
 10
-28.2936
 20
-7.9882
 30
0.0
 10
-28.3359
 20
-7.8607
 30
0.0
 10
-28.3359
 20
-7.7276
 30
0.0
 10
-28.3359
 20
-7.7276
 30
0.0
 10
-28.3359
 20
-7.5512
 30
0.0
 10
-28.2748
 20
-7.4026
 30
0.0
 10
-28.1525
 20
-7.2812
 30
0.0
 10
-28.1525
 20
-7.2812
 30
0.0
 10
-28.0302
 20
-7.1599
 30
0.0
 10
-27.8731
 20
-7.0992
 30
0.0
 10
-27.6812
 20
-7.0992
 30
0.0
 10
-27.6812
 20
-7.0992
 30
0.0
 10
-27.4982
 20
-7.0992
 30
0.0
 10
-27.3401
 20
-7.1528
 30
0.0
 10
-27.207
 20
-7.2591
 30
0.0
 10
-27.207
 20
-7.2591
 30
0.0
 10
-27.0438
 20
-7.3889
 30
0.0
 10
-26.962
 20
-7.5658
 30
0.0
 10
-26.962
 20
-7.7897
 30
0.0
 10
-26.962
 20
-7.7897
 30
0.0
 10
-26.962
 20
-7.9736
 30
0.0
 10
-27.0132
 20
-8.1236
 30
0.0
 10
-27.1162
 20
-8.2398
 30
0.0
 10
-27.1162
 20
-8.2398
 30
0.0
 10
-27.2193
 20
-8.356
 30
0.0
 10
-27.3557
 20
-8.4223
 30
0.0
 10
-27.5255
 20
-8.4388
 30
0.0
  0
SPLINE
  5
60
330
1F
100
AcDbEntity
  8
DATUMS
 62
   250
100
AcDbSpline
210
0.0
220
0.0
230
1.0
 70
    11
 71
     3
 72
    68
 73
    64
 74
     0
 42
0.0000000001
 43
0.0000000001
 40
0.0
 40
0.0
 40
0.0
 40
0.0
 40
0.0588235294117647
 40
0.0588235294117647
 40
0.0588235294117647
 40
0.0588235294117647
 40
0.1176470588235294
 40
0.1176470588235294
 40
0.1176470588235294
 40
0.1176470588235294
 40
0.1764705882352941
 40
0.1764705882352941
 40
0.1764705882352941
 40
0.1764705882352941
 40
0.2352941176470588
 40
0.2352941176470588
 40
0.2352941176470588
 40
0.2352941176470588
 40
0.2941176470588235
 40
0.2941176470588235
 40
0.2941176470588235
 40
0.2941176470588235
 40
0.3529411764705883
 40
0.3529411764705883
 40
0.3529411764705883
 40
0.3529411764705883
 40
0.4117647058823529
 40
0.4117647058823529
 40
0.4117647058823529
 40
0.4117647058823529
 40
0.4705882352941176
 40
0.4705882352941176
 40
0.4705882352941176
 40
0.4705882352941176
 40
0.5294117647058824
 40
0.5294117647058824
 40
0.5294117647058824
 40
0.5294117647058824
 40
0.5882352941176471
 40
0.5882352941176471
 40
0.5882352941176471
 40
0.5882352941176471
 40
0.6470588235294118
 40
0.6470588235294118
 40
0.6470588235294118
 40
0.6470588235294118
 40
0.7058823529411765
 40
0.7058823529411765
 40
0.7058823529411765
 40
0.7058823529411765
 40
0.7647058823529411
 40
0.7647058823529411
 40
0.7647058823529411
 40
0.7647058823529411
 40
0.8235294117647058
 40
0.8235294117647058
 40
0.8235294117647058
 40
0.8235294117647058
 40
0.8823529411764706
 40
0.8823529411764706
 40
0.8823529411764706
 40
0.8823529411764706
 40
1.0
 40
1.0
 40
1.0
 40
1.0
 10
-28.0918
 20
-6.4872
 30
0.0
 10
-28.1294
 20
-6.5903
 30
0.0
 10
-28.183
 20
-6.6665
 30
0.0
 10
-28.2531
 20
-6.7163
 30
0.0
 10
-28.2531
 20
-6.7163
 30
0.0
 10
-28.3227
 20
-6.7657
 30
0.0
 10
-28.4065
 20
-6.7906
 30
0.0
 10
-28.5038
 20
-6.7906
 30
0.0
 10
-28.5038
 20
-6.7906
 30
0.0
 10
-28.651
 20
-6.7906
 30
0.0
 10
-28.7743
 20
-6.7379
 30
0.0
 10
-28.8745
 20
-6.6321
 30
0.0
 10
-28.8745
 20
-6.6321
 30
0.0
 10
-28.9747
 20
-6.5263
 30
0.0
 10
-29.025
 20
-6.3861
 30
0.0
 10
-29.025
 20
-6.2107
 30
0.0
 10
-29.025
 20
-6.2107
 30
0.0
 10
-29.025
 20
-6.0343
 30
0.0
 10
-28.9737
 20
-5.8922
 30
0.0
 10
-28.8712
 20
-5.7845
 30
0.0
 10
-28.8712
 20
-5.7845
 30
0.0
 10
-28.7686
 20
-5.6773
 30
0.0
 10
-28.644
 20
-5.6236
 30
0.0
 10
-28.4968
 20
-5.6236
 30
0.0
 10
-28.4968
 20
-5.6236
 30
0.0
 10
-28.4032
 20
-5.6236
 30
0.0
 10
-28.3218
 20
-5.6481
 30
0.0
 10
-28.2522
 20
-5.697
 30
0.0
 10
-28.2522
 20
-5.697
 30
0.0
 10
-28.183
 20
-5.7464
 30
0.0
 10
-28.1294
 20
-5.8207
 30
0.0
 10
-28.0918
 20
-5.9209
 30
0.0
 10
-28.0918
 20
-5.9209
 30
0.0
 10
-28.0513
 20
-5.7972
 30
0.0
 10
-27.9864
 20
-5.7027
 30
0.0
 10
-27.8961
 20
-5.6378
 30
0.0
 10
-27.8961
 20
-5.6378
 30
0.0
 10
-27.8063
 20
-5.5733
 30
0.0
 10
-27.6986
 20
-5.5409
 30
0.0
 10
-27.5739
 20
-5.5409
 30
0.0
 10
-27.5739
 20
-5.5409
 30
0.0
 10
-27.4008
 20
-5.5409
 30
0.0
 10
-27.2559
 20
-5.602
 30
0.0
 10
-27.1384
 20
-5.7238
 30
0.0
 10
-27.1384
 20
-5.7238
 30
0.0
 10
-27.0208
 20
-5.8461
 30
0.0
 10
-26.962
 20
-6.007
 30
0.0
 10
-26.962
 20
-6.2064
 30
0.0
 10
-26.962
 20
-6.2064
 30
0.0
 10
-26.962
 20
-6.4059
 30
0.0
 10
-27.0208
 20
-6.5663
 30
0.0
 10
-27.1388
 20
-6.6886
 30
0.0
 10
-27.1388
 20
-6.6886
 30
0.0
 10
-27.2569
 20
-6.8109
 30
0.0
 10
-27.4041
 20
-6.872
 30
0.0
 10
-27.5805
 20
-6.872
 30
0.0
 10
-27.5805
 20
-6.872
 30
0.0
 10
-27.7117
 20
-6.872
 30
0.0
 10
-27.8218
 20
-6.8386
 30
0.0
 10
-27.9107
 20
-6.7718
 30
0.0
 10
-27.9107
 20
-6.7718
 30
0.0
 10
-27.9991
 20
-6.7055
 30
0.0
 10
-28.0598
 20
-6.6105
 30
0.0
 10
-28.0918
 20
-6.4872
 30
0.0
  0
SPLINE
  5
61
330
1F
100
AcDbEntity
  8
DATUMS
 62
   250
100
AcDbSpline
210
0.0
220
0.0
230
1.0
 70
    11
 71
     3
 72
    36
 73
    32
 74
     0
 42
0.0000000001
 43
0.0000000001
 40
0.0
 40
0.0
 40
0.0
 40
0.0
 40
0.1111111111111111
 40
0.1111111111111111
 40
0.1111111111111111
 40
0.1111111111111111
 40
0.2222222222222222
 40
0.2222222222222222
 40
0.2222222222222222
 40
0.2222222222222222
 40
0.3333333333333333
 40
0.3333333333333333
 40
0.3333333333333333
 40
0.3333333333333333
 40
0.4444444444444444
 40
0.4444444444444444
 40
0.4444444444444444
 40
0.4444444444444444
 40
0.5555555555555556
 40
0.5555555555555556
 40
0.5555555555555556
 40
0.5555555555555556
 40
0.6666666666666666
 40
0.6666666666666666
 40
0.6666666666666666
 40
0.6666666666666666
 40
0.7777777777777778
 40
0.7777777777777778
 40
0.7777777777777778
 40
0.7777777777777778
 40
1.0
 40
1.0
 40
1.0
 40
1.0
 10
-28.5123
 20
-6.5371
 30
0.0
 10
-28.4168
 20
-6.5371
 30
0.0
 10
-28.3387
 20
-6.5061
 30
0.0
 10
-28.278
 20
-6.4449
 30
0.0
 10
-28.278
 20
-6.4449
 30
0.0
 10
-28.2174
 20
-6.3833
 30
0.0
 10
-28.1868
 20
-6.3033
 30
0.0
 10
-28.1868
 20
-6.205
 30
0.0
 10
-28.1868
 20
-6.205
 30
0.0
 10
-28.1868
 20
-6.1095
 30
0.0
 10
-28.2169
 20
-6.031
 30
0.0
 10
-28.2771
 20
-5.9698
 30
0.0
 10
-28.2771
 20
-5.9698
 30
0.0
 10
-28.3373
 20
-5.9087
 30
0.0
 10
-28.4112
 20
-5.8786
 30
0.0
 10
-28.4982
 20
-5.8786
 30
0.0
 10
-28.4982
 20
-5.8786
 30
0.0
 10
-28.5894
 20
-5.8786
 30
0.0
 10
-28.6656
 20
-5.9096
 30
0.0
 10
-28.7277
 20
-5.9727
 30
0.0
 10
-28.7277
 20
-5.9727
 30
0.0
 10
-28.7898
 20
-6.0357
 30
0.0
 10
-28.8209
 20
-6.1138
 30
0.0
 10
-28.8209
 20
-6.2078
 30
0.0
 10
-28.8209
 20
-6.2078
 30
0.0
 10
-28.8209
 20
-6.3024
 30
0.0
 10
-28.7903
 20
-6.3809
 30
0.0
 10
-28.7301
 20
-6.4435
 30
0.0
 10
-28.7301
 20
-6.4435
 30
0.0
 10
-28.6694
 20
-6.5061
 30
0.0
 10
-28.5965
 20
-6.5371
 30
0.0
 10
-28.5123
 20
-6.5371
 30
0.0
  0
SPLINE
  5
62
330
1F
100
AcDbEntity
  8
DATUMS
 62
   250
100
AcDbSpline
210
0.0
220
0.0
230
1.0
 70
    11
 71
     3
 72
    40
 73
    36
 74
     0
 42
0.0000000001
 43
0.0000000001
 40
0.0
 40
0.0
 40
0.0
 40
0.0
 40
0.1
 40
0.1
 40
0.1
 40
0.1
 40
0.2
 40
0.2
 40
0.2
 40
0.2
 40
0.3
 40
0.3
 40
0.3
 40
0.3
 40
0.4
 40
0.4
 40
0.4
 40
0.4
 40
0.5
 40
0.5
 40
0.5
 40
0.5
 40
0.6
 40
0.6
 40
0.6
 40
0.6
 40
0.7
 40
0.7
 40
0.7
 40
0.7
 40
0.8
 40
0.8
 40
0.8
 40
0.8
 40
1.0
 40
1.0
 40
1.0
 40
1.0
 10
-27.5791
 20
-6.6171
 30
0.0
 10
-27.5085
 20
-6.6171
 30
0.0
 10
-27.4399
 20
-6.6001
 30
0.0
 10
-27.374
 20
-6.5667
 30
0.0
 10
-27.374
 20
-6.5667
 30
0.0
 10
-27.3077
 20
-6.5333
 30
0.0
 10
-27.2564
 20
-6.4835
 30
0.0
 10
-27.2202
 20
-6.4172
 30
0.0
 10
-27.2202
 20
-6.4172
 30
0.0
 10
-27.184
 20
-6.3508
 30
0.0
 10
-27.1656
 20
-6.2798
 30
0.0
 10
-27.1656
 20
-6.2036
 30
0.0
 10
-27.1656
 20
-6.2036
 30
0.0
 10
-27.1656
 20
-6.0851
 30
0.0
 10
-27.2037
 20
-5.9872
 30
0.0
 10
-27.2804
 20
-5.9101
 30
0.0
 10
-27.2804
 20
-5.9101
 30
0.0
 10
-27.3566
 20
-5.833
 30
0.0
 10
-27.4535
 20
-5.7944
 30
0.0
 10
-27.5711
 20
-5.7944
 30
0.0
 10
-27.5711
 20
-5.7944
 30
0.0
 10
-27.6906
 20
-5.7944
 30
0.0
 10
-27.7893
 20
-5.8339
 30
0.0
 10
-27.8674
 20
-5.9134
 30
0.0
 10
-27.8674
 20
-5.9134
 30
0.0
 10
-27.9455
 20
-5.9929
 30
0.0
 10
-27.9845
 20
-6.0926
 30
0.0
 10
-27.9845
 20
-6.2121
 30
0.0
 10
-27.9845
 20
-6.2121
 30
0.0
 10
-27.9845
 20
-6.3287
 30
0.0
 10
-27.946
 20
-6.4252
 30
0.0
 10
-27.8688
 20
-6.5018
 30
0.0
 10
-27.8688
 20
-6.5018
 30
0.0
 10
-27.7912
 20
-6.5785
 30
0.0
 10
-27.6948
 20
-6.6171
 30
0.0
 10
-27.5791
 20
-6.6171
 30
0.0
  0
SPLINE
  5
63
330
1F
100
AcDbEntity
  8
DATUMS
 62
   250
100
AcDbSpline
210
0.0
220
0.0
230
1.0
 70
    11
 71
     3
 72
   116
 73
   112
 74
     0
 42
0.0000000001
 43
0.0000000001
 40
0.0
 40
0.0
 40
0.0
 40
0.0
 40
0.0344827586206897
 40
0.0344827586206897
 40
0.0344827586206897
 40
0.0344827586206897
 40
0.0689655172413793
 40
0.0689655172413793
 40
0.0689655172413793
 40
0.0689655172413793
 40
0.103448275862069
 40
0.103448275862069
 40
0.103448275862069
 40
0.103448275862069
 40
0.1379310344827586
 40
0.1379310344827586
 40
0.1379310344827586
 40
0.1379310344827586
 40
0.1724137931034483
 40
0.1724137931034483
 40
0.1724137931034483
 40
0.1724137931034483
 40
0.2068965517241379
 40
0.2068965517241379
 40
0.2068965517241379
 40
0.2068965517241379
 40
0.2413793103448276
 40
0.2413793103448276
 40
0.2413793103448276
 40
0.2413793103448276
 40
0.2758620689655172
 40
0.2758620689655172
 40
0.2758620689655172
 40
0.2758620689655172
 40
0.3103448275862069
 40
0.3103448275862069
 40
0.3103448275862069
 40
0.3103448275862069
 40
0.3448275862068966
 40
0.3448275862068966
 40
0.3448275862068966
 40
0.3448275862068966
 40
0.3793103448275862
 40
0.3793103448275862
 40
0.3793103448275862
 40
0.3793103448275862
 40
0.4137931034482759
 40
0.4137931034482759
 40
0.4137931034482759
 40
0.4137931034482759
 40
0.4482758620689655
 40
0.4482758620689655
 40
0.4482758620689655
 40
0.4482758620689655
 40
0.4827586206896552
 40
0.4827586206896552
 40
0.4827586206896552
 40
0.4827586206896552
 40
0.5172413793103449
 40
0.5172413793103449
 40
0.5172413793103449
 40
0.5172413793103449
 40
0.5517241379310345
 40
0.5517241379310345
 40
0.5517241379310345
 40
0.5517241379310345
 40
0.5862068965517241
 40
0.5862068965517241
 40
0.5862068965517241
 40
0.5862068965517241
 40
0.6206896551724138
 40
0.6206896551724138
 40
0.6206896551724138
 40
0.6206896551724138
 40
0.6551724137931034
 40
0.6551724137931034
 40
0.6551724137931034
 40
0.6551724137931034
 40
0.6896551724137931
 40
0.6896551724137931
 40
0.6896551724137931
 40
0.6896551724137931
 40
0.7241379310344828
 40
0.7241379310344828
 40
0.7241379310344828
 40
0.7241379310344828
 40
0.7586206896551724
 40
0.7586206896551724
 40
0.7586206896551724
 40
0.7586206896551724
 40
0.7931034482758621
 40
0.7931034482758621
 40
0.7931034482758621
 40
0.7931034482758621
 40
0.8275862068965517
 40
0.8275862068965517
 40
0.8275862068965517
 40
0.8275862068965517
 40
0.8620689655172413
 40
0.8620689655172413
 40
0.8620689655172413
 40
0.8620689655172413
 40
0.896551724137931
 40
0.896551724137931
 40
0.896551724137931
 40
0.896551724137931
 40
0.9310344827586207
 40
0.9310344827586207
 40
0.9310344827586207
 40
0.9310344827586207
 40
1.0
 40
1.0
 40
1.0
 40
1.0
 10
-27.5237
 20
5.7511
 30
0.0
 10
-27.5237
 20
5.7511
 30
0.0
 10
-28.987
 20
5.7511
 30
0.0
 10
-28.987
 20
5.7511
 30
0.0
 10
-28.987
 20
5.7511
 30
0.0
 10
-28.987
 20
5.7511
 30
0.0
 10
-28.987
 20
5.9726
 30
0.0
 10
-28.987
 20
5.9726
 30
0.0
 10
-28.987
 20
5.9726
 30
0.0
 10
-28.987
 20
5.9726
 30
0.0
 10
-28.7819
 20
5.9726
 30
0.0
 10
-28.7819
 20
5.9726
 30
0.0
 10
-28.7819
 20
5.9726
 30
0.0
 10
-28.8534
 20
6.0187
 30
0.0
 10
-28.9113
 20
6.0799
 30
0.0
 10
-28.9546
 20
6.1561
 30
0.0
 10
-28.9546
 20
6.1561
 30
0.0
 10
-28.9983
 20
6.2323
 30
0.0
 10
-29.0204
 20
6.3193
 30
0.0
 10
-29.0204
 20
6.4166
 30
0.0
 10
-29.0204
 20
6.4166
 30
0.0
 10
-29.0204
 20
6.5248
 30
0.0
 10
-28.9978
 20
6.6137
 30
0.0
 10
-28.9527
 20
6.6829
 30
0.0
 10
-28.9527
 20
6.6829
 30
0.0
 10
-28.9075
 20
6.7525
 30
0.0
 10
-28.845
 20
6.8014
 30
0.0
 10
-28.7641
 20
6.8296
 30
0.0
 10
-28.7641
 20
6.8296
 30
0.0
 10
-28.9348
 20
6.9458
 30
0.0
 10
-29.0204
 20
7.0963
 30
0.0
 10
-29.0204
 20
7.2816
 30
0.0
 10
-29.0204
 20
7.2816
 30
0.0
 10
-29.0204
 20
7.427
 30
0.0
 10
-28.98
 20
7.5385
 30
0.0
 10
-28.8995
 20
7.6165
 30
0.0
 10
-28.8995
 20
7.6165
 30
0.0
 10
-28.8191
 20
7.6946
 30
0.0
 10
-28.6954
 20
7.7337
 30
0.0
 10
-28.5284
 20
7.7337
 30
0.0
 10
-28.5284
 20
7.7337
 30
0.0
 10
-28.5284
 20
7.7337
 30
0.0
 10
-27.5237
 20
7.7337
 30
0.0
 10
-27.5237
 20
7.7337
 30
0.0
 10
-27.5237
 20
7.7337
 30
0.0
 10
-27.5237
 20
7.7337
 30
0.0
 10
-27.5237
 20
7.4872
 30
0.0
 10
-27.5237
 20
7.4872
 30
0.0
 10
-27.5237
 20
7.4872
 30
0.0
 10
-27.5237
 20
7.4872
 30
0.0
 10
-28.4456
 20
7.4872
 30
0.0
 10
-28.4456
 20
7.4872
 30
0.0
 10
-28.4456
 20
7.4872
 30
0.0
 10
-28.5449
 20
7.4872
 30
0.0
 10
-28.6164
 20
7.4792
 30
0.0
 10
-28.6601
 20
7.4632
 30
0.0
 10
-28.6601
 20
7.4632
 30
0.0
 10
-28.7034
 20
7.4467
 30
0.0
 10
-28.7387
 20
7.4176
 30
0.0
 10
-28.7655
 20
7.3757
 30
0.0
 10
-28.7655
 20
7.3757
 30
0.0
 10
-28.7918
 20
7.3334
 30
0.0
 10
-28.8054
 20
7.2835
 30
0.0
 10
-28.8054
 20
7.2266
 30
0.0
 10
-28.8054
 20
7.2266
 30
0.0
 10
-28.8054
 20
7.1236
 30
0.0
 10
-28.7711
 20
7.0385
 30
0.0
 10
-28.7024
 20
6.9703
 30
0.0
 10
-28.7024
 20
6.9703
 30
0.0
 10
-28.6342
 20
6.9025
 30
0.0
 10
-28.5246
 20
6.8682
 30
0.0
 10
-28.3741
 20
6.8682
 30
0.0
 10
-28.3741
 20
6.8682
 30
0.0
 10
-28.3741
 20
6.8682
 30
0.0
 10
-27.5237
 20
6.8682
 30
0.0
 10
-27.5237
 20
6.8682
 30
0.0
 10
-27.5237
 20
6.8682
 30
0.0
 10
-27.5237
 20
6.8682
 30
0.0
 10
-27.5237
 20
6.6203
 30
0.0
 10
-27.5237
 20
6.6203
 30
0.0
 10
-27.5237
 20
6.6203
 30
0.0
 10
-27.5237
 20
6.6203
 30
0.0
 10
-28.4743
 20
6.6203
 30
0.0
 10
-28.4743
 20
6.6203
 30
0.0
 10
-28.4743
 20
6.6203
 30
0.0
 10
-28.5848
 20
6.6203
 30
0.0
 10
-28.6676
 20
6.6001
 30
0.0
 10
-28.7227
 20
6.5596
 30
0.0
 10
-28.7227
 20
6.5596
 30
0.0
 10
-28.7777
 20
6.5192
 30
0.0
 10
-28.8054
 20
6.4533
 30
0.0
 10
-28.8054
 20
6.3611
 30
0.0
 10
-28.8054
 20
6.3611
 30
0.0
 10
-28.8054
 20
6.2915
 30
0.0
 10
-28.7871
 20
6.2271
 30
0.0
 10
-28.7499
 20
6.1678
 30
0.0
 10
-28.7499
 20
6.1678
 30
0.0
 10
-28.7133
 20
6.1085
 30
0.0
 10
-28.6596
 20
6.0653
 30
0.0
 10
-28.5891
 20
6.0389
 30
0.0
 10
-28.5891
 20
6.0389
 30
0.0
 10
-28.5181
 20
6.0121
 30
0.0
 10
-28.416
 20
5.9989
 30
0.0
 10
-28.2829
 20
5.9989
 30
0.0
 10
-28.2829
 20
5.9989
 30
0.0
 10
-28.2829
 20
5.9989
 30
0.0
 10
-27.5237
 20
5.9989
 30
0.0
 10
-27.5237
 20
5.9989
 30
0.0
 10
-27.5237
 20
5.9989
 30
0.0
 10
-27.5237
 20
5.9989
 30
0.0
 10
-27.5237
 20
5.7511
 30
0.0
 10
-27.5237
 20
5.7511
 30
0.0
  0
SPLINE
  5
64
330
1F
100
AcDbEntity
  8
DATUMS
 62
   250
100
AcDbSpline
210
0.0
220
0.0
230
1.0
 70
    11
 71
     3
 72
   112
 73
   108
 74
     0
 42
0.0000000001
 43
0.0000000001
 40
0.0
 40
0.0
 40
0.0
 40
0.0
 40
0.0357142857142857
 40
0.0357142857142857
 40
0.0357142857142857
 40
0.0357142857142857
 40
0.0714285714285714
 40
0.0714285714285714
 40
0.0714285714285714
 40
0.0714285714285714
 40
0.1071428571428571
 40
0.1071428571428571
 40
0.1071428571428571
 40
0.1071428571428571
 40
0.1428571428571428
 40
0.1428571428571428
 40
0.1428571428571428
 40
0.1428571428571428
 40
0.1785714285714286
 40
0.1785714285714286
 40
0.1785714285714286
 40
0.1785714285714286
 40
0.2142857142857143
 40
0.2142857142857143
 40
0.2142857142857143
 40
0.2142857142857143
 40
0.25
 40
0.25
 40
0.25
 40
0.25
 40
0.2857142857142857
 40
0.2857142857142857
 40
0.2857142857142857
 40
0.2857142857142857
 40
0.3214285714285715
 40
0.3214285714285715
 40
0.3214285714285715
 40
0.3214285714285715
 40
0.3571428571428572
 40
0.3571428571428572
 40
0.3571428571428572
 40
0.3571428571428572
 40
0.3928571428571428
 40
0.3928571428571428
 40
0.3928571428571428
 40
0.3928571428571428
 40
0.4285714285714285
 40
0.4285714285714285
 40
0.4285714285714285
 40
0.4285714285714285
 40
0.4642857142857143
 40
0.4642857142857143
 40
0.4642857142857143
 40
0.4642857142857143
 40
0.5
 40
0.5
 40
0.5
 40
0.5
 40
0.5357142857142857
 40
0.5357142857142857
 40
0.5357142857142857
 40
0.5357142857142857
 40
0.5714285714285714
 40
0.5714285714285714
 40
0.5714285714285714
 40
0.5714285714285714
 40
0.6071428571428571
 40
0.6071428571428571
 40
0.6071428571428571
 40
0.6071428571428571
 40
0.6428571428571429
 40
0.6428571428571429
 40
0.6428571428571429
 40
0.6428571428571429
 40
0.6785714285714286
 40
0.6785714285714286
 40
0.6785714285714286
 40
0.6785714285714286
 40
0.7142857142857143
 40
0.7142857142857143
 40
0.7142857142857143
 40
0.7142857142857143
 40
0.75
 40
0.75
 40
0.75
 40
0.75
 40
0.7857142857142857
 40
0.7857142857142857
 40
0.7857142857142857
 40
0.7857142857142857
 40
0.8214285714285714
 40
0.8214285714285714
 40
0.8214285714285714
 40
0.8214285714285714
 40
0.8571428571428571
 40
0.8571428571428571
 40
0.8571428571428571
 40
0.8571428571428571
 40
0.8928571428571429
 40
0.8928571428571429
 40
0.8928571428571429
 40
0.8928571428571429
 40
0.9285714285714286
 40
0.9285714285714286
 40
0.9285714285714286
 40
0.9285714285714286
 40
1.0
 40
1.0
 40
1.0
 40
1.0
 10
-27.7043
 20
9.0568
 30
0.0
 10
-27.6262
 20
8.9646
 30
0.0
 10
-27.5712
 20
8.8762
 30
0.0
 10
-27.5388
 20
8.7915
 30
0.0
 10
-27.5388
 20
8.7915
 30
0.0
 10
-27.5068
 20
8.7064
 30
0.0
 10
-27.4908
 20
8.6151
 30
0.0
 10
-27.4908
 20
8.5178
 30
0.0
 10
-27.4908
 20
8.5178
 30
0.0
 10
-27.4908
 20
8.3569
 30
0.0
 10
-27.5298
 20
8.2337
 30
0.0
 10
-27.6084
 20
8.1471
 30
0.0
 10
-27.6084
 20
8.1471
 30
0.0
 10
-27.6869
 20
8.061
 30
0.0
 10
-27.7876
 20
8.0178
 30
0.0
 10
-27.9094
 20
8.0178
 30
0.0
 10
-27.9094
 20
8.0178
 30
0.0
 10
-27.9814
 20
8.0178
 30
0.0
 10
-28.0467
 20
8.0338
 30
0.0
 10
-28.106
 20
8.0667
 30
0.0
 10
-28.106
 20
8.0667
 30
0.0
 10
-28.1653
 20
8.0991
 30
0.0
 10
-28.2128
 20
8.1419
 30
0.0
 10
-28.2485
 20
8.1946
 30
0.0
 10
-28.2485
 20
8.1946
 30
0.0
 10
-28.2843
 20
8.2478
 30
0.0
 10
-28.3116
 20
8.307
 30
0.0
 10
-28.3299
 20
8.3734
 30
0.0
 10
-28.3299
 20
8.3734
 30
0.0
 10
-28.3426
 20
8.4218
 30
0.0
 10
-28.3553
 20
8.4952
 30
0.0
 10
-28.3671
 20
8.5935
 30
0.0
 10
-28.3671
 20
8.5935
 30
0.0
 10
-28.3911
 20
8.7939
 30
0.0
 10
-28.4193
 20
8.9416
 30
0.0
 10
-28.4527
 20
9.0361
 30
0.0
 10
-28.4527
 20
9.0361
 30
0.0
 10
-28.4865
 20
9.0371
 30
0.0
 10
-28.5082
 20
9.0375
 30
0.0
 10
-28.5171
 20
9.0375
 30
0.0
 10
-28.5171
 20
9.0375
 30
0.0
 10
-28.6182
 20
9.0375
 30
0.0
 10
-28.6897
 20
9.014
 30
0.0
 10
-28.7307
 20
8.967
 30
0.0
 10
-28.7307
 20
8.967
 30
0.0
 10
-28.7871
 20
8.9039
 30
0.0
 10
-28.8149
 20
8.8094
 30
0.0
 10
-28.8149
 20
8.6847
 30
0.0
 10
-28.8149
 20
8.6847
 30
0.0
 10
-28.8149
 20
8.5681
 30
0.0
 10
-28.7946
 20
8.482
 30
0.0
 10
-28.7537
 20
8.426
 30
0.0
 10
-28.7537
 20
8.426
 30
0.0
 10
-28.7128
 20
8.3705
 30
0.0
 10
-28.6404
 20
8.3296
 30
0.0
 10
-28.5364
 20
8.3028
 30
0.0
 10
-28.5364
 20
8.3028
 30
0.0
 10
-28.5364
 20
8.3028
 30
0.0
 10
-28.5698
 20
8.0606
 30
0.0
 10
-28.5698
 20
8.0606
 30
0.0
 10
-28.5698
 20
8.0606
 30
0.0
 10
-28.6733
 20
8.0827
 30
0.0
 10
-28.7575
 20
8.1189
 30
0.0
 10
-28.821
 20
8.1692
 30
0.0
 10
-28.821
 20
8.1692
 30
0.0
 10
-28.8849
 20
8.2196
 30
0.0
 10
-28.9343
 20
8.2929
 30
0.0
 10
-28.9687
 20
8.3884
 30
0.0
 10
-28.9687
 20
8.3884
 30
0.0
 10
-29.003
 20
8.4839
 30
0.0
 10
-29.0204
 20
8.5944
 30
0.0
 10
-29.0204
 20
8.7205
 30
0.0
 10
-29.0204
 20
8.7205
 30
0.0
 10
-29.0204
 20
8.8456
 30
0.0
 10
-29.0054
 20
8.9467
 30
0.0
 10
-28.9762
 20
9.0248
 30
0.0
 10
-28.9762
 20
9.0248
 30
0.0
 10
-28.9466
 20
9.1029
 30
0.0
 10
-28.9099
 20
9.1603
 30
0.0
 10
-28.8652
 20
9.1974
 30
0.0
 10
-28.8652
 20
9.1974
 30
0.0
 10
-28.8205
 20
9.2341
 30
0.0
 10
-28.7645
 20
9.2595
 30
0.0
 10
-28.6963
 20
9.2746
 30
0.0
 10
-28.6963
 20
9.2746
 30
0.0
 10
-28.654
 20
9.2826
 30
0.0
 10
-28.5778
 20
9.2868
 30
0.0
 10
-28.4677
 20
9.2868
 30
0.0
 10
-28.4677
 20
9.2868
 30
0.0
 10
-28.4677
 20
9.2868
 30
0.0
 10
-28.1371
 20
9.2868
 30
0.0
 10
-28.1371
 20
9.2868
 30
0.0
 10
-28.1371
 20
9.2868
 30
0.0
 10
-27.9061
 20
9.2868
 30
0.0
 10
-27.7603
 20
9.292
 30
0.0
 10
-27.6996
 20
9.3028
 30
0.0
 10
-27.6996
 20
9.3028
 30
0.0
 10
-27.6385
 20
9.3132
 30
0.0
 10
-27.5797
 20
9.3343
 30
0.0
 10
-27.5237
 20
9.3654
 30
0.0
 10
-27.5237
 20
9.3654
 30
0.0
 10
-27.5237
 20
9.3654
 30
0.0
 10
-27.5237
 20
9.1062
 30
0.0
 10
-27.5237
 20
9.1062
 30
0.0
 10
-27.5237
 20
9.1062
 30
0.0
 10
-27.575
 20
9.0808
 30
0.0
 10
-27.6352
 20
9.0639
 30
0.0
 10
-27.7043
 20
9.0568
 30
0.0
  0
SPLINE
  5
65
330
1F
100
AcDbEntity
  8
DATUMS
 62
   250
100
AcDbSpline
210
0.0
220
0.0
230
1.0
 70
    11
 71
     3
 72
    44
 73
    40
 74
     0
 42
0.0000000001
 43
0.0000000001
 40
0.0
 40
0.0
 40
0.0
 40
0.0
 40
0.0909090909090909
 40
0.0909090909090909
 40
0.0909090909090909
 40
0.0909090909090909
 40
0.1818181818181818
 40
0.1818181818181818
 40
0.1818181818181818
 40
0.1818181818181818
 40
0.2727272727272727
 40
0.2727272727272727
 40
0.2727272727272727
 40
0.2727272727272727
 40
0.3636363636363636
 40
0.3636363636363636
 40
0.3636363636363636
 40
0.3636363636363636
 40
0.4545454545454545
 40
0.4545454545454545
 40
0.4545454545454545
 40
0.4545454545454545
 40
0.5454545454545454
 40
0.5454545454545454
 40
0.5454545454545454
 40
0.5454545454545454
 40
0.6363636363636364
 40
0.6363636363636364
 40
0.6363636363636364
 40
0.6363636363636364
 40
0.7272727272727273
 40
0.7272727272727273
 40
0.7272727272727273
 40
0.7272727272727273
 40
0.8181818181818182
 40
0.8181818181818182
 40
0.8181818181818182
 40
0.8181818181818182
 40
1.0
 40
1.0
 40
1.0
 40
1.0
 10
-28.2584
 20
9.0361
 30
0.0
 10
-28.2213
 20
8.9458
 30
0.0
 10
-28.1902
 20
8.8108
 30
0.0
 10
-28.1643
 20
8.6311
 30
0.0
 10
-28.1643
 20
8.6311
 30
0.0
 10
-28.1498
 20
8.5291
 30
0.0
 10
-28.1333
 20
8.4566
 30
0.0
 10
-28.115
 20
8.4148
 30
0.0
 10
-28.115
 20
8.4148
 30
0.0
 10
-28.0966
 20
8.3724
 30
0.0
 10
-28.0698
 20
8.3395
 30
0.0
 10
-28.034
 20
8.3169
 30
0.0
 10
-28.034
 20
8.3169
 30
0.0
 10
-27.9988
 20
8.2939
 30
0.0
 10
-27.9597
 20
8.2821
 30
0.0
 10
-27.9165
 20
8.2821
 30
0.0
 10
-27.9165
 20
8.2821
 30
0.0
 10
-27.8501
 20
8.2821
 30
0.0
 10
-27.7951
 20
8.3075
 30
0.0
 10
-27.7509
 20
8.3574
 30
0.0
 10
-27.7509
 20
8.3574
 30
0.0
 10
-27.7071
 20
8.4072
 30
0.0
 10
-27.685
 20
8.4806
 30
0.0
 10
-27.685
 20
8.577
 30
0.0
 10
-27.685
 20
8.577
 30
0.0
 10
-27.685
 20
8.6725
 30
0.0
 10
-27.7057
 20
8.7577
 30
0.0
 10
-27.7476
 20
8.832
 30
0.0
 10
-27.7476
 20
8.832
 30
0.0
 10
-27.7895
 20
8.9063
 30
0.0
 10
-27.8468
 20
8.9613
 30
0.0
 10
-27.9193
 20
8.9961
 30
0.0
 10
-27.9193
 20
8.9961
 30
0.0
 10
-27.9753
 20
9.0229
 30
0.0
 10
-28.058
 20
9.0361
 30
0.0
 10
-28.1672
 20
9.0361
 30
0.0
 10
-28.1672
 20
9.0361
 30
0.0
 10
-28.1672
 20
9.0361
 30
0.0
 10
-28.2584
 20
9.0361
 30
0.0
 10
-28.2584
 20
9.0361
 30
0.0
  0
SPLINE
  5
66
330
1F
100
AcDbEntity
  8
DATUMS
 62
   250
100
AcDbSpline
210
0.0
220
0.0
230
1.0
 70
    11
 71
     3
 72
    64
 73
    60
 74
     0
 42
0.0000000001
 43
0.0000000001
 40
0.0
 40
0.0
 40
0.0
 40
0.0
 40
0.0625
 40
0.0625
 40
0.0625
 40
0.0625
 40
0.125
 40
0.125
 40
0.125
 40
0.125
 40
0.1875
 40
0.1875
 40
0.1875
 40
0.1875
 40
0.25
 40
0.25
 40
0.25
 40
0.25
 40
0.3125
 40
0.3125
 40
0.3125
 40
0.3125
 40
0.375
 40
0.375
 40
0.375
 40
0.375
 40
0.4375
 40
0.4375
 40
0.4375
 40
0.4375
 40
0.5
 40
0.5
 40
0.5
 40
0.5
 40
0.5625
 40
0.5625
 40
0.5625
 40
0.5625
 40
0.625
 40
0.625
 40
0.625
 40
0.625
 40
0.6875
 40
0.6875
 40
0.6875
 40
0.6875
 40
0.75
 40
0.75
 40
0.75
 40
0.75
 40
0.8125
 40
0.8125
 40
0.8125
 40
0.8125
 40
0.875
 40
0.875
 40
0.875
 40
0.875
 40
1.0
 40
1.0
 40
1.0
 40
1.0
 10
-27.5237
 20
9.506
 30
0.0
 10
-27.5237
 20
9.506
 30
0.0
 10
-28.2843
 20
10.0408
 30
0.0
 10
-28.2843
 20
10.0408
 30
0.0
 10
-28.2843
 20
10.0408
 30
0.0
 10
-28.2843
 20
10.0408
 30
0.0
 10
-28.987
 20
9.546
 30
0.0
 10
-28.987
 20
9.546
 30
0.0
 10
-28.987
 20
9.546
 30
0.0
 10
-28.987
 20
9.546
 30
0.0
 10
-28.987
 20
9.8559
 30
0.0
 10
-28.987
 20
9.8559
 30
0.0
 10
-28.987
 20
9.8559
 30
0.0
 10
-28.987
 20
9.8559
 30
0.0
 10
-28.6441
 20
10.0808
 30
0.0
 10
-28.6441
 20
10.0808
 30
0.0
 10
-28.6441
 20
10.0808
 30
0.0
 10
-28.5787
 20
10.1226
 30
0.0
 10
-28.5242
 20
10.157
 30
0.0
 10
-28.48
 20
10.1824
 30
0.0
 10
-28.48
 20
10.1824
 30
0.0
 10
-28.5406
 20
10.2228
 30
0.0
 10
-28.5943
 20
10.26
 30
0.0
 10
-28.6413
 20
10.2943
 30
0.0
 10
-28.6413
 20
10.2943
 30
0.0
 10
-28.6413
 20
10.2943
 30
0.0
 10
-28.987
 20
10.5408
 30
0.0
 10
-28.987
 20
10.5408
 30
0.0
 10
-28.987
 20
10.5408
 30
0.0
 10
-28.987
 20
10.5408
 30
0.0
 10
-28.987
 20
10.8371
 30
0.0
 10
-28.987
 20
10.8371
 30
0.0
 10
-28.987
 20
10.8371
 30
0.0
 10
-28.987
 20
10.8371
 30
0.0
 10
-28.2979
 20
10.3315
 30
0.0
 10
-28.2979
 20
10.3315
 30
0.0
 10
-28.2979
 20
10.3315
 30
0.0
 10
-28.2979
 20
10.3315
 30
0.0
 10
-27.5237
 20
10.8757
 30
0.0
 10
-27.5237
 20
10.8757
 30
0.0
 10
-27.5237
 20
10.8757
 30
0.0
 10
-27.5237
 20
10.8757
 30
0.0
 10
-27.5237
 20
10.5714
 30
0.0
 10
-27.5237
 20
10.5714
 30
0.0
 10
-27.5237
 20
10.5714
 30
0.0
 10
-27.5237
 20
10.5714
 30
0.0
 10
-27.9785
 20
10.2708
 30
0.0
 10
-27.9785
 20
10.2708
 30
0.0
 10
-27.9785
 20
10.2708
 30
0.0
 10
-27.9785
 20
10.2708
 30
0.0
 10
-28.1013
 20
10.1909
 30
0.0
 10
-28.1013
 20
10.1909
 30
0.0
 10
-28.1013
 20
10.1909
 30
0.0
 10
-28.1013
 20
10.1909
 30
0.0
 10
-27.5237
 20
9.8066
 30
0.0
 10
-27.5237
 20
9.8066
 30
0.0
 10
-27.5237
 20
9.8066
 30
0.0
 10
-27.5237
 20
9.8066
 30
0.0
 10
-27.5237
 20
9.506
 30
0.0
 10
-27.5237
 20
9.506
 30
0.0
  0
SPLINE
  5
67
330
1F
100
AcDbEntity
  8
DATUMS
 62
   250
100
AcDbSpline
210
0.0
220
0.0
230
1.0
 70
    11
 71
     3
 72
    40
 73
    36
 74
     0
 42
0.0000000001
 43
0.0000000001
 40
0.0
 40
0.0
 40
0.0
 40
0.0
 40
0.1
 40
0.1
 40
0.1
 40
0.1
 40
0.2
 40
0.2
 40
0.2
 40
0.2
 40
0.3
 40
0.3
 40
0.3
 40
0.3
 40
0.4
 40
0.4
 40
0.4
 40
0.4
 40
0.5
 40
0.5
 40
0.5
 40
0.5
 40
0.6
 40
0.6
 40
0.6
 40
0.6
 40
0.7
 40
0.7
 40
0.7
 40
0.7
 40
0.8
 40
0.8
 40
0.8
 40
0.8
 40
1.0
 40
1.0
 40
1.0
 40
1.0
 10
-27.5237
 20
12.7318
 30
0.0
 10
-27.5237
 20
12.7318
 30
0.0
 10
-27.5237
 20
12.4839
 30
0.0
 10
-27.5237
 20
12.4839
 30
0.0
 10
-27.5237
 20
12.4839
 30
0.0
 10
-27.5237
 20
12.4839
 30
0.0
 10
-29.1041
 20
12.4839
 30
0.0
 10
-29.1041
 20
12.4839
 30
0.0
 10
-29.1041
 20
12.4839
 30
0.0
 10
-29.0472
 20
12.4241
 30
0.0
 10
-28.9903
 20
12.3461
 30
0.0
 10
-28.9334
 20
12.2492
 30
0.0
 10
-28.9334
 20
12.2492
 30
0.0
 10
-28.8765
 20
12.1518
 30
0.0
 10
-28.8337
 20
12.0648
 30
0.0
 10
-28.8054
 20
11.9876
 30
0.0
 10
-28.8054
 20
11.9876
 30
0.0
 10
-28.8054
 20
11.9876
 30
0.0
 10
-29.0449
 20
11.9876
 30
0.0
 10
-29.0449
 20
11.9876
 30
0.0
 10
-29.0449
 20
11.9876
 30
0.0
 10
-29.1102
 20
12.1264
 30
0.0
 10
-29.1893
 20
12.2478
 30
0.0
 10
-29.2819
 20
12.3517
 30
0.0
 10
-29.2819
 20
12.3517
 30
0.0
 10
-29.3751
 20
12.4552
 30
0.0
 10
-29.4649
 20
12.529
 30
0.0
 10
-29.5524
 20
12.5723
 30
0.0
 10
-29.5524
 20
12.5723
 30
0.0
 10
-29.5524
 20
12.5723
 30
0.0
 10
-29.5524
 20
12.7318
 30
0.0
 10
-29.5524
 20
12.7318
 30
0.0
 10
-29.5524
 20
12.7318
 30
0.0
 10
-29.5524
 20
12.7318
 30
0.0
 10
-27.5237
 20
12.7318
 30
0.0
 10
-27.5237
 20
12.7318
 30
0.0
  0
SPLINE
  5
68
330
1F
100
AcDbEntity
  8
DATUMS
 62
   250
100
AcDbSpline
210
0.0
220
0.0
230
1.0
 70
    11
 71
     3
 72
    80
 73
    76
 74
     0
 42
0.0000000001
 43
0.0000000001
 40
0.0
 40
0.0
 40
0.0
 40
0.0
 40
0.05
 40
0.05
 40
0.05
 40
0.05
 40
0.1
 40
0.1
 40
0.1
 40
0.1
 40
0.15
 40
0.15
 40
0.15
 40
0.15
 40
0.2
 40
0.2
 40
0.2
 40
0.2
 40
0.25
 40
0.25
 40
0.25
 40
0.25
 40
0.3
 40
0.3
 40
0.3
 40
0.3
 40
0.35
 40
0.35
 40
0.35
 40
0.35
 40
0.4
 40
0.4
 40
0.4
 40
0.4
 40
0.45
 40
0.45
 40
0.45
 40
0.45
 40
0.5
 40
0.5
 40
0.5
 40
0.5
 40
0.55
 40
0.55
 40
0.55
 40
0.55
 40
0.6
 40
0.6
 40
0.6
 40
0.6
 40
0.65
 40
0.65
 40
0.65
 40
0.65
 40
0.7
 40
0.7
 40
0.7
 40
0.7
 40
0.75
 40
0.75
 40
0.75
 40
0.75
 40
0.8
 40
0.8
 40
0.8
 40
0.8
 40
0.85
 40
0.85
 40
0.85
 40
0.85
 40
0.9
 40
0.9
 40
0.9
 40
0.9
 40
1.0
 40
1.0
 40
1.0
 40
1.0
 10
-29.0491
 20
14.6541
 30
0.0
 10
-29.0491
 20
14.6541
 30
0.0
 10
-29.0298
 20
14.4077
 30
0.0
 10
-29.0298
 20
14.4077
 30
0.0
 10
-29.0298
 20
14.4077
 30
0.0
 10
-29.1272
 20
14.3856
 30
0.0
 10
-29.1982
 20
14.3545
 30
0.0
 10
-29.2419
 20
14.3141
 30
0.0
 10
-29.2419
 20
14.3141
 30
0.0
 10
-29.313
 20
14.2468
 30
0.0
 10
-29.3483
 20
14.164
 30
0.0
 10
-29.3483
 20
14.0657
 30
0.0
 10
-29.3483
 20
14.0657
 30
0.0
 10
-29.3483
 20
13.9867
 30
0.0
 10
-29.3261
 20
13.9176
 30
0.0
 10
-29.2819
 20
13.8578
 30
0.0
 10
-29.2819
 20
13.8578
 30
0.0
 10
-29.225
 20
13.7797
 30
0.0
 10
-29.1418
 20
13.7181
 30
0.0
 10
-29.0326
 20
13.673
 30
0.0
 10
-29.0326
 20
13.673
 30
0.0
 10
-28.9235
 20
13.6283
 30
0.0
 10
-28.7678
 20
13.6048
 30
0.0
 10
-28.5656
 20
13.6029
 30
0.0
 10
-28.5656
 20
13.6029
 30
0.0
 10
-28.6563
 20
13.6626
 30
0.0
 10
-28.7241
 20
13.7355
 30
0.0
 10
-28.7683
 20
13.8221
 30
0.0
 10
-28.7683
 20
13.8221
 30
0.0
 10
-28.812
 20
13.9081
 30
0.0
 10
-28.8341
 20
13.9989
 30
0.0
 10
-28.8341
 20
14.0935
 30
0.0
 10
-28.8341
 20
14.0935
 30
0.0
 10
-28.8341
 20
14.259
 30
0.0
 10
-28.7735
 20
14.3997
 30
0.0
 10
-28.6516
 20
14.5159
 30
0.0
 10
-28.6516
 20
14.5159
 30
0.0
 10
-28.5298
 20
14.632
 30
0.0
 10
-28.3727
 20
14.6904
 30
0.0
 10
-28.1799
 20
14.6904
 30
0.0
 10
-28.1799
 20
14.6904
 30
0.0
 10
-28.0529
 20
14.6904
 30
0.0
 10
-27.9353
 20
14.6626
 30
0.0
 10
-27.8261
 20
14.608
 30
0.0
 10
-27.8261
 20
14.608
 30
0.0
 10
-27.7175
 20
14.5535
 30
0.0
 10
-27.6338
 20
14.4782
 30
0.0
 10
-27.5759
 20
14.3827
 30
0.0
 10
-27.5759
 20
14.3827
 30
0.0
 10
-27.5181
 20
14.2873
 30
0.0
 10
-27.4894
 20
14.1791
 30
0.0
 10
-27.4894
 20
14.0577
 30
0.0
 10
-27.4894
 20
14.0577
 30
0.0
 10
-27.4894
 20
13.8508
 30
0.0
 10
-27.5651
 20
13.6824
 30
0.0
 10
-27.7175
 20
13.5521
 30
0.0
 10
-27.7175
 20
13.5521
 30
0.0
 10
-27.8694
 20
13.4213
 30
0.0
 10
-28.1201
 20
13.3564
 30
0.0
 10
-28.4691
 20
13.3564
 30
0.0
 10
-28.4691
 20
13.3564
 30
0.0
 10
-28.8595
 20
13.3564
 30
0.0
 10
-29.1432
 20
13.4284
 30
0.0
 10
-29.3205
 20
13.5728
 30
0.0
 10
-29.3205
 20
13.5728
 30
0.0
 10
-29.4748
 20
13.6984
 30
0.0
 10
-29.5524
 20
13.8677
 30
0.0
 10
-29.5524
 20
14.0812
 30
0.0
 10
-29.5524
 20
14.0812
 30
0.0
 10
-29.5524
 20
14.2398
 30
0.0
 10
-29.5077
 20
14.37
 30
0.0
 10
-29.4183
 20
14.4716
 30
0.0
 10
-29.4183
 20
14.4716
 30
0.0
 10
-29.3294
 20
14.5732
 30
0.0
 10
-29.2062
 20
14.6339
 30
0.0
 10
-29.0491
 20
14.6541
 30
0.0
  0
SPLINE
  5
69
330
1F
100
AcDbEntity
  8
DATUMS
 62
   250
100
AcDbSpline
210
0.0
220
0.0
230
1.0
 70
    11
 71
     3
 72
    40
 73
    36
 74
     0
 42
0.0000000001
 43
0.0000000001
 40
0.0
 40
0.0
 40
0.0
 40
0.0
 40
0.1
 40
0.1
 40
0.1
 40
0.1
 40
0.2
 40
0.2
 40
0.2
 40
0.2
 40
0.3
 40
0.3
 40
0.3
 40
0.3
 40
0.4
 40
0.4
 40
0.4
 40
0.4
 40
0.5
 40
0.5
 40
0.5
 40
0.5
 40
0.6
 40
0.6
 40
0.6
 40
0.6
 40
0.7
 40
0.7
 40
0.7
 40
0.7
 40
0.8
 40
0.8
 40
0.8
 40
0.8
 40
1.0
 40
1.0
 40
1.0
 40
1.0
 10
-28.1785
 20
13.6414
 30
0.0
 10
-28.0928
 20
13.6414
 30
0.0
 10
-28.011
 20
13.6598
 30
0.0
 10
-27.9329
 20
13.696
 30
0.0
 10
-27.9329
 20
13.696
 30
0.0
 10
-27.8548
 20
13.7322
 30
0.0
 10
-27.7956
 20
13.783
 30
0.0
 10
-27.7547
 20
13.8479
 30
0.0
 10
-27.7547
 20
13.8479
 30
0.0
 10
-27.7137
 20
13.9133
 30
0.0
 10
-27.693
 20
13.982
 30
0.0
 10
-27.693
 20
14.0535
 30
0.0
 10
-27.693
 20
14.0535
 30
0.0
 10
-27.693
 20
14.1584
 30
0.0
 10
-27.7354
 20
14.2482
 30
0.0
 10
-27.82
 20
14.3235
 30
0.0
 10
-27.82
 20
14.3235
 30
0.0
 10
-27.9047
 20
14.3987
 30
0.0
 10
-28.0195
 20
14.4364
 30
0.0
 10
-28.1643
 20
14.4364
 30
0.0
 10
-28.1643
 20
14.4364
 30
0.0
 10
-28.304
 20
14.4364
 30
0.0
 10
-28.4141
 20
14.3992
 30
0.0
 10
-28.4945
 20
14.3249
 30
0.0
 10
-28.4945
 20
14.3249
 30
0.0
 10
-28.575
 20
14.2506
 30
0.0
 10
-28.615
 20
14.157
 30
0.0
 10
-28.615
 20
14.0441
 30
0.0
 10
-28.615
 20
14.0441
 30
0.0
 10
-28.615
 20
13.9317
 30
0.0
 10
-28.575
 20
13.8366
 30
0.0
 10
-28.4945
 20
13.7586
 30
0.0
 10
-28.4945
 20
13.7586
 30
0.0
 10
-28.4141
 20
13.6805
 30
0.0
 10
-28.3087
 20
13.6414
 30
0.0
 10
-28.1785
 20
13.6414
 30
0.0
  0
SPLINE
  5
6A
330
1F
100
AcDbEntity
  8
DATUMS
 62
   250
100
AcDbSpline
210
0.0
220
0.0
230
1.0
 70
    11
 71
     3
 72
    20
 73
    16
 74
     0
 42
0.0000000001
 43
0.0000000001
 40
0.0
 40
0.0
 40
0.0
 40
0.0
 40
0.2
 40
0.2
 40
0.2
 40
0.2
 40
0.4
 40
0.4
 40
0.4
 40
0.4
 40
0.6
 40
0.6
 40
0.6
 40
0.6
 40
1.0
 40
1.0
 40
1.0
 40
1.0
 10
0.6388
 20
31.6753
 30
0.0
 10
0.6388
 20
31.6753
 30
0.0
 10
3.6388
 20
31.2519
 30
0.0
 10
3.6388
 20
31.2519
 30
0.0
 10
3.6388
 20
31.2519
 30
0.0
 10
3.6388
 20
31.2519
 30
0.0
 10
3.6388
 20
31.1579
 30
0.0
 10
3.6388
 20
31.1579
 30
0.0
 10
3.6388
 20
31.1579
 30
0.0
 10
3.6388
 20
31.1579
 30
0.0
 10
0.6388
 20
30.7064
 30
0.0
 10
0.6388
 20
30.7064
 30
0.0
 10
0.6388
 20
30.7064
 30
0.0
 10
0.6388
 20
30.7064
 30
0.0
 10
0.6388
 20
31.6753
 30
0.0
 10
0.6388
 20
31.6753
 30
0.0
  0
SPLINE
  5
6B
330
1F
100
AcDbEntity
  8
DATUMS
 62
   250
100
AcDbSpline
210
0.0
220
0.0
230
1.0
 70
    11
 71
     3
 72
    20
 73
    16
 74
     0
 42
0.0000000001
 43
0.0000000001
 40
0.0
 40
0.0
 40
0.0
 40
0.0
 40
0.2
 40
0.2
 40
0.2
 40
0.2
 40
0.4
 40
0.4
 40
0.4
 40
0.4
 40
0.6
 40
0.6
 40
0.6
 40
0.6
 40
1.0
 40
1.0
 40
1.0
 40
1.0
 10
-18.8385
 20
30.655
 30
0.0
 10
-18.8385
 20
30.655
 30
0.0
 10
-21.8385
 20
31.0784
 30
0.0
 10
-21.8385
 20
31.0784
 30
0.0
 10
-21.8385
 20
31.0784
 30
0.0
 10
-21.8385
 20
31.0784
 30
0.0
 10
-21.8385
 20
31.1724
 30
0.0
 10
-21.8385
 20
31.1724
 30
0.0
 10
-21.8385
 20
31.1724
 30
0.0
 10
-21.8385
 20
31.1724
 30
0.0
 10
-18.8385
 20
31.624
 30
0.0
 10
-18.8385
 20
31.624
 30
0.0
 10
-18.8385
 20
31.624
 30
0.0
 10
-18.8385
 20
31.624
 30
0.0
 10
-18.8385
 20
30.655
 30
0.0
 10
-18.8385
 20
30.655
 30
0.0
  0
SPLINE
  5
6C
330
1F
100
AcDbEntity
  8
DATUMS
 62
   250
100
AcDbSpline
210
0.0
220
0.0
230
1.0
 70
    11
 71
     3
 72
    84
 73
    80
 74
     0
 42
0.0000000001
 43
0.0000000001
 40
0.0
 40
0.0
 40
0.0
 40
0.0
 40
0.0476190476190476
 40
0.0476190476190476
 40
0.0476190476190476
 40
0.0476190476190476
 40
0.0952380952380952
 40
0.0952380952380952
 40
0.0952380952380952
 40
0.0952380952380952
 40
0.1428571428571428
 40
0.1428571428571428
 40
0.1428571428571428
 40
0.1428571428571428
 40
0.1904761904761905
 40
0.1904761904761905
 40
0.1904761904761905
 40
0.1904761904761905
 40
0.2380952380952381
 40
0.2380952380952381
 40
0.2380952380952381
 40
0.2380952380952381
 40
0.2857142857142857
 40
0.2857142857142857
 40
0.2857142857142857
 40
0.2857142857142857
 40
0.3333333333333333
 40
0.3333333333333333
 40
0.3333333333333333
 40
0.3333333333333333
 40
0.3809523809523809
 40
0.3809523809523809
 40
0.3809523809523809
 40
0.3809523809523809
 40
0.4285714285714285
 40
0.4285714285714285
 40
0.4285714285714285
 40
0.4285714285714285
 40
0.4761904761904762
 40
0.4761904761904762
 40
0.4761904761904762
 40
0.4761904761904762
 40
0.5238095238095238
 40
0.5238095238095238
 40
0.5238095238095238
 40
0.5238095238095238
 40
0.5714285714285714
 40
0.5714285714285714
 40
0.5714285714285714
 40
0.5714285714285714
 40
0.6190476190476191
 40
0.6190476190476191
 40
0.6190476190476191
 40
0.6190476190476191
 40
0.6666666666666666
 40
0.6666666666666666
 40
0.6666666666666666
 40
0.6666666666666666
 40
0.7142857142857143
 40
0.7142857142857143
 40
0.7142857142857143
 40
0.7142857142857143
 40
0.7619047619047619
 40
0.7619047619047619
 40
0.7619047619047619
 40
0.7619047619047619
 40
0.8095238095238095
 40
0.8095238095238095
 40
0.8095238095238095
 40
0.8095238095238095
 40
0.8571428571428571
 40
0.8571428571428571
 40
0.8571428571428571
 40
0.8571428571428571
 40
0.9047619047619048
 40
0.9047619047619048
 40
0.9047619047619048
 40
0.9047619047619048
 40
1.0
 40
1.0
 40
1.0
 40
1.0
 10
-9.7676
 20
33.3357
 30
0.0
 10
-9.7676
 20
33.3357
 30
0.0
 10
-9.5362
 20
33.5948
 30
0.0
 10
-9.5362
 20
33.5948
 30
0.0
 10
-9.5362
 20
33.5948
 30
0.0
 10
-9.5362
 20
33.5948
 30
0.0
 10
-9.3998
 20
33.4791
 30
0.0
 10
-9.3998
 20
33.4791
 30
0.0
 10
-9.3998
 20
33.4791
 30
0.0
 10
-9.3998
 20
33.4791
 30
0.0
 10
-9.642
 20
33.2063
 30
0.0
 10
-9.642
 20
33.2063
 30
0.0
 10
-9.642
 20
33.2063
 30
0.0
 10
-9.563
 20
33.0887
 30
0.0
 10
-9.5099
 20
32.9857
 30
0.0
 10
-9.4821
 20
32.8978
 30
0.0
 10
-9.4821
 20
32.8978
 30
0.0
 10
-9.4454
 20
32.782
 30
0.0
 10
-9.4271
 20
32.6522
 30
0.0
 10
-9.4271
 20
32.5092
 30
0.0
 10
-9.4271
 20
32.5092
 30
0.0
 10
-9.4271
 20
32.3023
 30
0.0
 10
-9.4689
 20
32.1179
 30
0.0
 10
-9.5527
 20
31.9566
 30
0.0
 10
-9.5527
 20
31.9566
 30
0.0
 10
-9.6364
 20
31.7947
 30
0.0
 10
-9.7535
 20
31.6725
 30
0.0
 10
-9.9045
 20
31.5897
 30
0.0
 10
-9.9045
 20
31.5897
 30
0.0
 10
-10.056
 20
31.5074
 30
0.0
 10
-10.2163
 20
31.466
 30
0.0
 10
-10.3861
 20
31.466
 30
0.0
 10
-10.3861
 20
31.466
 30
0.0
 10
-10.5131
 20
31.466
 30
0.0
 10
-10.6279
 20
31.4838
 30
0.0
 10
-10.7309
 20
31.5196
 30
0.0
 10
-10.7309
 20
31.5196
 30
0.0
 10
-10.8099
 20
31.5473
 30
0.0
 10
-10.9021
 20
31.6
 30
0.0
 10
-11.008
 20
31.6781
 30
0.0
 10
-11.008
 20
31.6781
 30
0.0
 10
-11.008
 20
31.6781
 30
0.0
 10
-11.2394
 20
31.4189
 30
0.0
 10
-11.2394
 20
31.4189
 30
0.0
 10
-11.2394
 20
31.4189
 30
0.0
 10
-11.2394
 20
31.4189
 30
0.0
 10
-11.3758
 20
31.5346
 30
0.0
 10
-11.3758
 20
31.5346
 30
0.0
 10
-11.3758
 20
31.5346
 30
0.0
 10
-11.3758
 20
31.5346
 30
0.0
 10
-11.1331
 20
31.806
 30
0.0
 10
-11.1331
 20
31.806
 30
0.0
 10
-11.1331
 20
31.806
 30
0.0
 10
-11.2234
 20
31.9429
 30
0.0
 10
-11.2836
 20
32.06
 30
0.0
 10
-11.3137
 20
32.1569
 30
0.0
 10
-11.3137
 20
32.1569
 30
0.0
 10
-11.3438
 20
32.2538
 30
0.0
 10
-11.3593
 20
32.3705
 30
0.0
 10
-11.3593
 20
32.5064
 30
0.0
 10
-11.3593
 20
32.5064
 30
0.0
 10
-11.3593
 20
32.7138
 30
0.0
 10
-11.3179
 20
32.8987
 30
0.0
 10
-11.2352
 20
33.061
 30
0.0
 10
-11.2352
 20
33.061
 30
0.0
 10
-11.1524
 20
33.2233
 30
0.0
 10
-11.0367
 20
33.346
 30
0.0
 10
-10.8871
 20
33.4297
 30
0.0
 10
-10.8871
 20
33.4297
 30
0.0
 10
-10.738
 20
33.513
 30
0.0
 10
-10.5719
 20
33.5549
 30
0.0
 10
-10.389
 20
33.5549
 30
0.0
 10
-10.389
 20
33.5549
 30
0.0
 10
-10.2657
 20
33.5549
 30
0.0
 10
-10.158
 20
33.5389
 30
0.0
 10
-10.0658
 20
33.5059
 30
0.0
 10
-10.0658
 20
33.5059
 30
0.0
 10
-9.9736
 20
33.4735
 30
0.0
 10
-9.8739
 20
33.4166
 30
0.0
 10
-9.7676
 20
33.3357
 30
0.0
  0
SPLINE
  5
6D
330
1F
100
AcDbEntity
  8
DATUMS
 62
   250
100
AcDbSpline
210
0.0
220
0.0
230
1.0
 70
    11
 71
     3
 72
    32
 73
    28
 74
     0
 42
0.0000000001
 43
0.0000000001
 40
0.0
 40
0.0
 40
0.0
 40
0.0
 40
0.125
 40
0.125
 40
0.125
 40
0.125
 40
0.25
 40
0.25
 40
0.25
 40
0.25
 40
0.375
 40
0.375
 40
0.375
 40
0.375
 40
0.5
 40
0.5
 40
0.5
 40
0.5
 40
0.625
 40
0.625
 40
0.625
 40
0.625
 40
0.75
 40
0.75
 40
0.75
 40
0.75
 40
1.0
 40
1.0
 40
1.0
 40
1.0
 10
-9.9327
 20
33.1499
 30
0.0
 10
-10.0193
 20
33.2176
 30
0.0
 10
-10.095
 20
33.2642
 30
0.0
 10
-10.1594
 20
33.2891
 30
0.0
 10
-10.1594
 20
33.2891
 30
0.0
 10
-10.2243
 20
33.3136
 30
0.0
 10
-10.3005
 20
33.3263
 30
0.0
 10
-10.3876
 20
33.3263
 30
0.0
 10
-10.3876
 20
33.3263
 30
0.0
 10
-10.5889
 20
33.3263
 30
0.0
 10
-10.7549
 20
33.2581
 30
0.0
 10
-10.8866
 20
33.1217
 30
0.0
 10
-10.8866
 20
33.1217
 30
0.0
 10
-11.0179
 20
32.9852
 30
0.0
 10
-11.0837
 20
32.7816
 30
0.0
 10
-11.0837
 20
32.5102
 30
0.0
 10
-11.0837
 20
32.5102
 30
0.0
 10
-11.0837
 20
32.4039
 30
0.0
 10
-11.0734
 20
32.3093
 30
0.0
 10
-11.0531
 20
32.2265
 30
0.0
 10
-11.0531
 20
32.2265
 30
0.0
 10
-11.0385
 20
32.1649
 30
0.0
 10
-11.008
 20
32.0892
 30
0.0
 10
-10.9609
 20
31.9994
 30
0.0
 10
-10.9609
 20
31.9994
 30
0.0
 10
-10.9609
 20
31.9994
 30
0.0
 10
-9.9327
 20
33.1499
 30
0.0
 10
-9.9327
 20
33.1499
 30
0.0
  0
SPLINE
  5
6E
330
1F
100
AcDbEntity
  8
DATUMS
 62
   250
100
AcDbSpline
210
0.0
220
0.0
230
1.0
 70
    11
 71
     3
 72
    28
 73
    24
 74
     0
 42
0.0000000001
 43
0.0000000001
 40
0.0
 40
0.0
 40
0.0
 40
0.0
 40
0.1428571428571428
 40
0.1428571428571428
 40
0.1428571428571428
 40
0.1428571428571428
 40
0.2857142857142857
 40
0.2857142857142857
 40
0.2857142857142857
 40
0.2857142857142857
 40
0.4285714285714285
 40
0.4285714285714285
 40
0.4285714285714285
 40
0.4285714285714285
 40
0.5714285714285714
 40
0.5714285714285714
 40
0.5714285714285714
 40
0.5714285714285714
 40
0.7142857142857143
 40
0.7142857142857143
 40
0.7142857142857143
 40
0.7142857142857143
 40
1.0
 40
1.0
 40
1.0
 40
1.0
 10
-9.8198
 20
33.0078
 30
0.0
 10
-9.8198
 20
33.0078
 30
0.0
 10
-10.8438
 20
31.8615
 30
0.0
 10
-10.8438
 20
31.8615
 30
0.0
 10
-10.8438
 20
31.8615
 30
0.0
 10
-10.7733
 20
31.8037
 30
0.0
 10
-10.7079
 20
31.7632
 30
0.0
 10
-10.6481
 20
31.7402
 30
0.0
 10
-10.6481
 20
31.7402
 30
0.0
 10
-10.5701
 20
31.7096
 30
0.0
 10
-10.4854
 20
31.6946
 30
0.0
 10
-10.3946
 20
31.6946
 30
0.0
 10
-10.3946
 20
31.6946
 30
0.0
 10
-10.1942
 20
31.6946
 30
0.0
 10
-10.0291
 20
31.7651
 30
0.0
 10
-9.8984
 20
31.9067
 30
0.0
 10
-9.8984
 20
31.9067
 30
0.0
 10
-9.7681
 20
32.0483
 30
0.0
 10
-9.7027
 20
32.2468
 30
0.0
 10
-9.7027
 20
32.5022
 30
0.0
 10
-9.7027
 20
32.5022
 30
0.0
 10
-9.7027
 20
32.6931
 30
0.0
 10
-9.7417
 20
32.862
 30
0.0
 10
-9.8198
 20
33.0078
 30
0.0
  0
SPLINE
  5
6F
330
1F
100
AcDbEntity
  8
DATUMS
 62
   250
100
AcDbSpline
210
0.0
220
0.0
230
1.0
 70
    11
 71
     3
 72
    48
 73
    44
 74
     0
 42
0.0000000001
 43
0.0000000001
 40
0.0
 40
0.0
 40
0.0
 40
0.0
 40
0.0833333333333333
 40
0.0833333333333333
 40
0.0833333333333333
 40
0.0833333333333333
 40
0.1666666666666667
 40
0.1666666666666667
 40
0.1666666666666667
 40
0.1666666666666667
 40
0.25
 40
0.25
 40
0.25
 40
0.25
 40
0.3333333333333333
 40
0.3333333333333333
 40
0.3333333333333333
 40
0.3333333333333333
 40
0.4166666666666667
 40
0.4166666666666667
 40
0.4166666666666667
 40
0.4166666666666667
 40
0.5
 40
0.5
 40
0.5
 40
0.5
 40
0.5833333333333334
 40
0.5833333333333334
 40
0.5833333333333334
 40
0.5833333333333334
 40
0.6666666666666666
 40
0.6666666666666666
 40
0.6666666666666666
 40
0.6666666666666666
 40
0.75
 40
0.75
 40
0.75
 40
0.75
 40
0.8333333333333334
 40
0.8333333333333334
 40
0.8333333333333334
 40
0.8333333333333334
 40
1.0
 40
1.0
 40
1.0
 40
1.0
 10
-9.1613
 20
33.2557
 30
0.0
 10
-9.1613
 20
33.2557
 30
0.0
 10
-9.1613
 20
33.4942
 30
0.0
 10
-9.1613
 20
33.4942
 30
0.0
 10
-9.1613
 20
33.4942
 30
0.0
 10
-9.1613
 20
33.4942
 30
0.0
 10
-7.8537
 20
33.4942
 30
0.0
 10
-7.8537
 20
33.4942
 30
0.0
 10
-7.8537
 20
33.4942
 30
0.0
 10
-7.8537
 20
33.4942
 30
0.0
 10
-7.8537
 20
33.3013
 30
0.0
 10
-7.8537
 20
33.3013
 30
0.0
 10
-7.8537
 20
33.3013
 30
0.0
 10
-7.9821
 20
33.1645
 30
0.0
 10
-8.1096
 20
32.9824
 30
0.0
 10
-8.2361
 20
32.7557
 30
0.0
 10
-8.2361
 20
32.7557
 30
0.0
 10
-8.3622
 20
32.529
 30
0.0
 10
-8.46
 20
32.2952
 30
0.0
 10
-8.5287
 20
32.0558
 30
0.0
 10
-8.5287
 20
32.0558
 30
0.0
 10
-8.5785
 20
31.8865
 30
0.0
 10
-8.61
 20
31.7016
 30
0.0
 10
-8.6237
 20
31.5003
 30
0.0
 10
-8.6237
 20
31.5003
 30
0.0
 10
-8.6237
 20
31.5003
 30
0.0
 10
-8.8786
 20
31.5003
 30
0.0
 10
-8.8786
 20
31.5003
 30
0.0
 10
-8.8786
 20
31.5003
 30
0.0
 10
-8.8758
 20
31.6593
 30
0.0
 10
-8.8448
 20
31.8512
 30
0.0
 10
-8.785
 20
32.0765
 30
0.0
 10
-8.785
 20
32.0765
 30
0.0
 10
-8.7253
 20
32.3013
 30
0.0
 10
-8.6397
 20
32.5186
 30
0.0
 10
-8.5282
 20
32.7275
 30
0.0
 10
-8.5282
 20
32.7275
 30
0.0
 10
-8.4163
 20
32.9363
 30
0.0
 10
-8.2977
 20
33.1127
 30
0.0
 10
-8.1717
 20
33.2557
 30
0.0
 10
-8.1717
 20
33.2557
 30
0.0
 10
-8.1717
 20
33.2557
 30
0.0
 10
-9.1613
 20
33.2557
 30
0.0
 10
-9.1613
 20
33.2557
 30
0.0
  0
SPLINE
  5
70
330
1F
100
AcDbEntity
  8
DATUMS
 62
   250
100
AcDbSpline
210
0.0
220
0.0
230
1.0
 70
    11
 71
     3
 72
    52
 73
    48
 74
     0
 42
0.0000000001
 43
0.0000000001
 40
0.0
 40
0.0
 40
0.0
 40
0.0
 40
0.0769230769230769
 40
0.0769230769230769
 40
0.0769230769230769
 40
0.0769230769230769
 40
0.1538461538461539
 40
0.1538461538461539
 40
0.1538461538461539
 40
0.1538461538461539
 40
0.2307692307692308
 40
0.2307692307692308
 40
0.2307692307692308
 40
0.2307692307692308
 40
0.3076923076923077
 40
0.3076923076923077
 40
0.3076923076923077
 40
0.3076923076923077
 40
0.3846153846153846
 40
0.3846153846153846
 40
0.3846153846153846
 40
0.3846153846153846
 40
0.4615384615384616
 40
0.4615384615384616
 40
0.4615384615384616
 40
0.4615384615384616
 40
0.5384615384615384
 40
0.5384615384615384
 40
0.5384615384615384
 40
0.5384615384615384
 40
0.6153846153846154
 40
0.6153846153846154
 40
0.6153846153846154
 40
0.6153846153846154
 40
0.6923076923076923
 40
0.6923076923076923
 40
0.6923076923076923
 40
0.6923076923076923
 40
0.7692307692307693
 40
0.7692307692307693
 40
0.7692307692307693
 40
0.7692307692307693
 40
0.8461538461538461
 40
0.8461538461538461
 40
0.8461538461538461
 40
0.8461538461538461
 40
1.0
 40
1.0
 40
1.0
 40
1.0
 10
-7.6082
 20
32.4965
 30
0.0
 10
-7.6082
 20
32.7355
 30
0.0
 10
-7.5837
 20
32.9279
 30
0.0
 10
-7.5343
 20
33.0732
 30
0.0
 10
-7.5343
 20
33.0732
 30
0.0
 10
-7.4854
 20
33.219
 30
0.0
 10
-7.412
 20
33.3314
 30
0.0
 10
-7.3151
 20
33.4105
 30
0.0
 10
-7.3151
 20
33.4105
 30
0.0
 10
-7.2182
 20
33.4895
 30
0.0
 10
-7.0964
 20
33.529
 30
0.0
 10
-6.9497
 20
33.529
 30
0.0
 10
-6.9497
 20
33.529
 30
0.0
 10
-6.841
 20
33.529
 30
0.0
 10
-6.746
 20
33.5069
 30
0.0
 10
-6.6642
 20
33.4631
 30
0.0
 10
-6.6642
 20
33.4631
 30
0.0
 10
-6.5823
 20
33.4199
 30
0.0
 10
-6.515
 20
33.3568
 30
0.0
 10
-6.4614
 20
33.2745
 30
0.0
 10
-6.4614
 20
33.2745
 30
0.0
 10
-6.4083
 20
33.1922
 30
0.0
 10
-6.3664
 20
33.092
 30
0.0
 10
-6.3363
 20
32.974
 30
0.0
 10
-6.3363
 20
32.974
 30
0.0
 10
-6.3057
 20
32.8559
 30
0.0
 10
-6.2907
 20
32.6969
 30
0.0
 10
-6.2907
 20
32.4965
 30
0.0
 10
-6.2907
 20
32.4965
 30
0.0
 10
-6.2907
 20
32.2595
 30
0.0
 10
-6.3151
 20
32.0685
 30
0.0
 10
-6.3636
 20
31.9227
 30
0.0
 10
-6.3636
 20
31.9227
 30
0.0
 10
-6.4125
 20
31.7769
 30
0.0
 10
-6.4854
 20
31.6645
 30
0.0
 10
-6.5823
 20
31.585
 30
0.0
 10
-6.5823
 20
31.585
 30
0.0
 10
-6.6792
 20
31.5055
 30
0.0
 10
-6.8015
 20
31.466
 30
0.0
 10
-6.9497
 20
31.466
 30
0.0
 10
-6.9497
 20
31.466
 30
0.0
 10
-7.1444
 20
31.466
 30
0.0
 10
-7.2973
 20
31.5356
 30
0.0
 10
-7.4083
 20
31.6753
 30
0.0
 10
-7.4083
 20
31.6753
 30
0.0
 10
-7.5414
 20
31.8432
 30
0.0
 10
-7.6082
 20
32.1174
 30
0.0
 10
-7.6082
 20
32.4965
 30
0.0
  0
SPLINE
  5
71
330
1F
100
AcDbEntity
  8
DATUMS
 62
   250
100
AcDbSpline
210
0.0
220
0.0
230
1.0
 70
    11
 71
     3
 72
    36
 73
    32
 74
     0
 42
0.0000000001
 43
0.0000000001
 40
0.0
 40
0.0
 40
0.0
 40
0.0
 40
0.1111111111111111
 40
0.1111111111111111
 40
0.1111111111111111
 40
0.1111111111111111
 40
0.2222222222222222
 40
0.2222222222222222
 40
0.2222222222222222
 40
0.2222222222222222
 40
0.3333333333333333
 40
0.3333333333333333
 40
0.3333333333333333
 40
0.3333333333333333
 40
0.4444444444444444
 40
0.4444444444444444
 40
0.4444444444444444
 40
0.4444444444444444
 40
0.5555555555555556
 40
0.5555555555555556
 40
0.5555555555555556
 40
0.5555555555555556
 40
0.6666666666666666
 40
0.6666666666666666
 40
0.6666666666666666
 40
0.6666666666666666
 40
0.7777777777777778
 40
0.7777777777777778
 40
0.7777777777777778
 40
0.7777777777777778
 40
1.0
 40
1.0
 40
1.0
 40
1.0
 10
-7.3532
 20
32.4965
 30
0.0
 10
-7.3532
 20
32.1649
 30
0.0
 10
-7.3142
 20
31.9443
 30
0.0
 10
-7.2366
 20
31.8343
 30
0.0
 10
-7.2366
 20
31.8343
 30
0.0
 10
-7.159
 20
31.7247
 30
0.0
 10
-7.0635
 20
31.6696
 30
0.0
 10
-6.9497
 20
31.6696
 30
0.0
 10
-6.9497
 20
31.6696
 30
0.0
 10
-6.8354
 20
31.6696
 30
0.0
 10
-6.7399
 20
31.7251
 30
0.0
 10
-6.6623
 20
31.8352
 30
0.0
 10
-6.6623
 20
31.8352
 30
0.0
 10
-6.5847
 20
31.9453
 30
0.0
 10
-6.5456
 20
32.1659
 30
0.0
 10
-6.5456
 20
32.4965
 30
0.0
 10
-6.5456
 20
32.4965
 30
0.0
 10
-6.5456
 20
32.8291
 30
0.0
 10
-6.5847
 20
33.0502
 30
0.0
 10
-6.6623
 20
33.1593
 30
0.0
 10
-6.6623
 20
33.1593
 30
0.0
 10
-6.7399
 20
33.2689
 30
0.0
 10
-6.8363
 20
33.3234
 30
0.0
 10
-6.952
 20
33.3234
 30
0.0
 10
-6.952
 20
33.3234
 30
0.0
 10
-7.0663
 20
33.3234
 30
0.0
 10
-7.1571
 20
33.275
 30
0.0
 10
-7.2253
 20
33.1786
 30
0.0
 10
-7.2253
 20
33.1786
 30
0.0
 10
-7.3104
 20
33.0558
 30
0.0
 10
-7.3532
 20
32.8281
 30
0.0
 10
-7.3532
 20
32.4965
 30
0.0
  0
SPLINE
  5
72
330
1F
100
AcDbEntity
  8
DATUMS
 62
   250
100
AcDbSpline
210
0.0
220
0.0
230
1.0
 70
    24
 71
     3
 72
     8
 73
     4
 74
     0
 42
0.0000000001
 43
0.0000000001
 40
0.0
 40
0.0
 40
0.0
 40
0.0
 40
1.0
 40
1.0
 40
1.0
 40
1.0
 10
-17.8542
 20
-17.9256
 30
0.0
 10
-17.8542
 20
-17.9256
 30
0.0
 10
-17.8542
 20
-23.2754
 30
0.0
 10
-17.8542
 20
-23.2754
 30
0.0
  0
SPLINE
  5
73
330
1F
100
AcDbEntity
  8
DATUMS
 62
   250
100
AcDbSpline
210
0.0
220
0.0
230
1.0
 70
    24
 71
     3
 72
     8
 73
     4
 74
     0
 42
0.0000000001
 43
0.0000000001
 40
0.0
 40
0.0
 40
0.0
 40
0.0
 40
1.0
 40
1.0
 40
1.0
 40
1.0
 10
-0.2925
 20
-17.9256
 30
0.0
 10
-0.2925
 20
-17.9256
 30
0.0
 10
-0.2925
 20
-23.3882
 30
0.0
 10
-0.2925
 20
-23.3882
 30
0.0
  0
SPLINE
  5
74
330
1F
100
AcDbEntity
  8
DATUMS
 62
   250
100
AcDbSpline
210
0.0
220
0.0
230
1.0
 70
    24
 71
     3
 72
     8
 73
     4
 74
     0
 42
0.0000000001
 43
0.0000000001
 40
0.0
 40
0.0
 40
0.0
 40
0.0
 40
1.0
 40
1.0
 40
1.0
 40
1.0
 10
-0.4801
 20
-22.7215
 30
0.0
 10
-0.4801
 20
-22.7215
 30
0.0
 10
-17.7603
 20
-22.7215
 30
0.0
 10
-17.7603
 20
-22.7215
 30
0.0
  0
SPLINE
  5
75
330
1F
100
AcDbEntity
  8
DATUMS
 62
   250
100
AcDbSpline
210
0.0
220
0.0
230
1.0
 70
    24
 71
     3
 72
     8
 73
     4
 74
     0
 42
0.0000000001
 43
0.0000000001
 40
0.0
 40
0.0
 40
0.0
 40
0.0
 40
1.0
 40
1.0
 40
1.0
 40
1.0
 10
25.6988
 20
-26.9603
 30
0.0
 10
25.6988
 20
-26.9603
 30
0.0
 10
25.6988
 20
-29.7112
 30
0.0
 10
25.6988
 20
-29.7112
 30
0.0
  0
SPLINE
  5
76
330
1F
100
AcDbEntity
  8
DATUMS
 62
   250
100
AcDbSpline
210
0.0
220
0.0
230
1.0
 70
    24
 71
     3
 72
     8
 73
     4
 74
     0
 42
0.0000000001
 43
0.0000000001
 40
0.0
 40
0.0
 40
0.0
 40
0.0
 40
1.0
 40
1.0
 40
1.0
 40
1.0
 10
19.3026
 20
-26.9039
 30
0.0
 10
19.3026
 20
-26.9039
 30
0.0
 10
19.3026
 20
-29.7112
 30
0.0
 10
19.3026
 20
-29.7112
 30
0.0
  0
SPLINE
  5
77
330
1F
100
AcDbEntity
  8
DATUMS
 62
   250
100
AcDbSpline
210
0.0
220
0.0
230
1.0
 70
    24
 71
     3
 72
     8
 73
     4
 74
     0
 42
0.0000000001
 43
0.0000000001
 40
0.0
 40
0.0
 40
0.0
 40
0.0
 40
1.0
 40
1.0
 40
1.0
 40
1.0
 10
29.5527
 20
-29.3414
 30
0.0
 10
29.5527
 20
-29.3414
 30
0.0
 10
10.4344
 20
-29.3414
 30
0.0
 10
10.4344
 20
-29.3414
 30
0.0
  0
SPLINE
  5
78
330
1F
100
AcDbEntity
  8
DATUMS
 62
   250
100
AcDbSpline
210
0.0
220
0.0
230
1.0
 70
    24
 71
     3
 72
     8
 73
     4
 74
     0
 42
0.0000000001
 43
0.0000000001
 40
0.0
 40
0.0
 40
0.0
 40
0.0
 40
1.0
 40
1.0
 40
1.0
 40
1.0
 10
-21.9309
 20
13.3106
 30
0.0
 10
-21.9309
 20
13.3106
 30
0.0
 10
-21.9309
 20
32.0471
 30
0.0
 10
-21.9309
 20
32.0471
 30
0.0
  0
SPLINE
  5
79
330
1F
100
AcDbEntity
  8
DATUMS
 62
   250
100
AcDbSpline
210
0.0
220
0.0
230
1.0
 70
    24
 71
     3
 72
     8
 73
     4
 74
     0
 42
0.0000000001
 43
0.0000000001
 40
0.0
 40
0.0
 40
0.0
 40
0.0
 40
1.0
 40
1.0
 40
1.0
 40
1.0
 10
3.7072
 20
13.7519
 30
0.0
 10
3.7072
 20
13.7519
 30
0.0
 10
3.7072
 20
32.1938
 30
0.0
 10
3.7072
 20
32.1938
 30
0.0
  0
SPLINE
  5
7A
330
1F
100
AcDbEntity
  8
DATUMS
 62
   250
100
AcDbSpline
210
0.0
220
0.0
230
1.0
 70
    24
 71
     3
 72
     8
 73
     4
 74
     0
 42
0.0000000001
 43
0.0000000001
 40
0.0
 40
0.0
 40
0.0
 40
0.0
 40
1.0
 40
1.0
 40
1.0
 40
1.0
 10
-21.3093
 20
31.1378
 30
0.0
 10
-21.3093
 20
31.1378
 30
0.0
 10
2.9436
 20
31.1378
 30
0.0
 10
2.9436
 20
31.1378
 30
0.0
  0
SPLINE
  5
7B
330
1F
100
AcDbEntity
  8
DATUMS
 62
   250
100
AcDbSpline
210
0.0
220
0.0
230
1.0
 70
    24
 71
     3
 72
     8
 73
     4
 74
     0
 42
0.0000000001
 43
0.0000000001
 40
0.0
 40
0.0
 40
0.0
 40
0.0
 40
1.0
 40
1.0
 40
1.0
 40
1.0
 10
-19.0187
 20
-18.2953
 30
0.0
 10
-19.0187
 20
-18.2953
 30
0.0
 10
-27.3288
 20
-18.2953
 30
0.0
 10
-27.3288
 20
-18.2953
 30
0.0
  0
SPLINE
  5
7C
330
1F
100
AcDbEntity
  8
DATUMS
 62
   250
100
AcDbSpline
210
0.0
220
0.0
230
1.0
 70
    24
 71
     3
 72
     8
 73
     4
 74
     0
 42
0.0000000001
 43
0.0000000001
 40
0.0
 40
0.0
 40
0.0
 40
0.0
 40
1.0
 40
1.0
 40
1.0
 40
1.0
 10
-23.0433
 20
4.2576
 30
0.0
 10
-23.0433
 20
4.2576
 30
0.0
 10
-27.2537
 20
4.2576
 30
0.0
 10
-27.2537
 20
4.2576
 30
0.0
  0
SPLINE
  5
7D
330
1F
100
AcDbEntity
  8
DATUMS
 62
   250
100
AcDbSpline
210
0.0
220
0.0
230
1.0
 70
    24
 71
     3
 72
     8
 73
     4
 74
     0
 42
0.0000000001
 43
0.0000000001
 40
0.0
 40
0.0
 40
0.0
 40
0.0
 40
1.0
 40
1.0
 40
1.0
 40
1.0
 10
-26.6455
 20
-18.2954
 30
0.0
 10
-26.6455
 20
-18.2954
 30
0.0
 10
-26.6455
 20
4.2054
 30
0.0
 10
-26.6455
 20
4.2054
 30
0.0
  0
SPLINE
  5
7E
330
1F
100
AcDbEntity
  8
DATUMS
 62
   250
100
AcDbSpline
210
0.0
220
0.0
230
1.0
 70
    24
 71
     3
 72
     8
 73
     4
 74
     0
 42
0.0000000001
 43
0.0000000001
 40
0.0
 40
0.0
 40
0.0
 40
0.0
 40
1.0
 40
1.0
 40
1.0
 40
1.0
 10
-22.4788
 20
12.039
 30
0.0
 10
-22.4788
 20
12.039
 30
0.0
 10
-27.0902
 20
12.039
 30
0.0
 10
-27.0902
 20
12.039
 30
0.0
  0
SPLINE
  5
7F
330
1F
100
AcDbEntity
  8
DATUMS
 62
   250
100
AcDbSpline
210
0.0
220
0.0
230
1.0
 70
    24
 71
     3
 72
     8
 73
     4
 74
     0
 42
0.0000000001
 43
0.0000000001
 40
0.0
 40
0.0
 40
0.0
 40
0.0
 40
1.0
 40
1.0
 40
1.0
 40
1.0
 10
-26.6413
 20
4.3025
 30
0.0
 10
-26.6413
 20
4.3025
 30
0.0
 10
-26.6413
 20
16.0697
 30
0.0
 10
-26.6413
 20
16.0697
 30
0.0
  0
SPLINE
  5
80
330
1F
100
AcDbEntity
  8
DATUMS
 62
   250
100
AcDbSpline
210
0.0
220
0.0
230
1.0
 70
    24
 71
     3
 72
     8
 73
     4
 74
     0
 42
0.0000000001
 43
0.0000000001
 40
0.0
 40
0.0
 40
0.0
 40
0.0
 40
1.0
 40
1.0
 40
1.0
 40
1.0
 10
-9.0734
 20
-24.9219
 30
0.0
 10
-9.0734
 20
-24.9219
 30
0.0
 10
-9.0734
 20
-34.0837
 30
0.0
 10
-9.0734
 20
-34.0837
 30
0.0
  0
SPLINE
  5
81
330
1F
100
AcDbEntity
  8
DATUMS
 62
   250
100
AcDbSpline
210
0.0
220
0.0
230
1.0
 70
    24
 71
     3
 72
     8
 73
     4
 74
     0
 42
0.0000000001
 43
0.0000000001
 40
0.0
 40
0.0
 40
0.0
 40
0.0
 40
1.0
 40
1.0
 40
1.0
 40
1.0
 10
22.5007
 20
-30.5023
 30
0.0
 10
22.5007
 20
-30.5023
 30
0.0
 10
22.5007
 20
-33.8405
 30
0.0
 10
22.5007
 20
-33.8405
 30
0.0
  0
SPLINE
  5
82
330
1F
100
AcDbEntity
  8
DATUMS
 62
   250
100
AcDbSpline
210
0.0
220
0.0
230
1.0
 70
    24
 71
     3
 72
     8
 73
     4
 74
     0
 42
0.0000000001
 43
0.0000000001
 40
0.0
 40
0.0
 40
0.0
 40
0.0
 40
1.0
 40
1.0
 40
1.0
 40
1.0
 10
22.2951
 20
-33.4708
 30
0.0
 10
22.2951
 20
-33.4708
 30
0.0
 10
-9.0181
 20
-33.4708
 30
0.0
 10
-9.0181
 20
-33.4708
 30
0.0
  0
SPLINE
  5
83
330
1F
100
AcDbEntity
  8
DATUMS
  6
NEW_LINE1
 62
   250
100
AcDbSpline
210
0.0
220
0.0
230
1.0
 70
    24
 71
     3
 72
     8
 73
     4
 74
     0
 42
0.0000000001
 43
0.0000000001
 40
0.0
 40
0.0
 40
0.0
 40
0.0
 40
1.0
 40
1.0
 40
1.0
 40
1.0
 10
-9.0734
 20
25.1774
 30
0.0
 10
-9.0734
 20
25.1774
 30
0.0
 10
-9.0734
 20
-19.2964
 30
0.0
 10
-9.0734
 20
-19.2964
 30
0.0
  0
SPLINE
  5
85
330
1F
100
AcDbEntity
  8
DATUMS
  6
NEW_LINE2
 62
   250
100
AcDbSpline
210
0.0
220
0.0
230
1.0
 70
    24
 71
     3
 72
     8
 73
     4
 74
     0
 42
0.0000000001
 43
0.0000000001
 40
0.0
 40
0.0
 40
0.0
 40
0.0
 40
1.0
 40
1.0
 40
1.0
 40
1.0
 10
-2.7881
 20
-6.4642
 30
0.0
 10
-2.7881
 20
-6.4642
 30
0.0
 10
26.9743
 20
-6.4642
 30
0.0
 10
26.9743
 20
-6.4642
 30
0.0
  0
SPLINE
  5
87
330
1F
100
AcDbEntity
  8
DATUMS
  6
NEW_LINE3
 62
   250
100
AcDbSpline
210
0.0
220
0.0
230
1.0
 70
    24
 71
     3
 72
     8
 73
     4
 74
     0
 42
0.0000000001
 43
0.0000000001
 40
0.0
 40
0.0
 40
0.0
 40
0.0
 40
1.0
 40
1.0
 40
1.0
 40
1.0
 10
22.5007
 20
-5.7248
 30
0.0
 10
22.5007
 20
-5.7248
 30
0.0
 10
22.5007
 20
-27.1944
 30
0.0
 10
22.5007
 20
-27.1944
 30
0.0
  0
SPLINE
  5
89
330
1F
100
AcDbEntity
  8
DATUMS
 62
   250
100
AcDbSpline
210
0.0
220
0.0
230
1.0
 70
    11
 71
     3
 72
    24
 73
    20
 74
     0
 42
0.0000000001
 43
0.0000000001
 40
0.0
 40
0.0
 40
0.0
 40
0.0
 40
0.1666666666666667
 40
0.1666666666666667
 40
0.1666666666666667
 40
0.1666666666666667
 40
0.3333333333333333
 40
0.3333333333333333
 40
0.3333333333333333
 40
0.3333333333333333
 40
0.5
 40
0.5
 40
0.5
 40
0.5
 40
0.6666666666666666
 40
0.6666666666666666
 40
0.6666666666666666
 40
0.6666666666666666
 40
1.0
 40
1.0
 40
1.0
 40
1.0
 10
19.0645
 20
-26.38
 30
0.0
 10
19.0645
 20
-26.38
 30
0.0
 10
19.0612
 20
-25.8236
 30
0.0
 10
19.0612
 20
-25.8236
 30
0.0
 10
19.0612
 20
-25.8236
 30
0.0
 10
19.0612
 20
-25.8236
 30
0.0
 10
25.8457
 20
-25.8009
 30
0.0
 10
25.8457
 20
-25.8009
 30
0.0
 10
25.8457
 20
-25.8009
 30
0.0
 10
25.8457
 20
-25.8009
 30
0.0
 10
26.1341
 20
-25.8
 30
0.0
 10
26.1341
 20
-25.8
 30
0.0
 10
26.1341
 20
-25.8
 30
0.0
 10
26.1341
 20
-25.8
 30
0.0
 10
26.141
 20
-26.38
 30
0.0
 10
26.141
 20
-26.38
 30
0.0
 10
26.141
 20
-26.38
 30
0.0
 10
26.141
 20
-26.38
 30
0.0
 10
19.0645
 20
-26.38
 30
0.0
 10
19.0645
 20
-26.38
 30
0.0
  0
SPLINE
  5
8A
330
1F
100
AcDbEntity
  8
DATUMS
 62
   250
100
AcDbSpline
210
0.0
220
0.0
230
1.0
 70
    11
 71
     3
 72
   140
 73
   136
 74
     0
 42
0.0000000001
 43
0.0000000001
 40
0.0
 40
0.0
 40
0.0
 40
0.0
 40
0.0285714285714286
 40
0.0285714285714286
 40
0.0285714285714286
 40
0.0285714285714286
 40
0.0571428571428571
 40
0.0571428571428571
 40
0.0571428571428571
 40
0.0571428571428571
 40
0.0857142857142857
 40
0.0857142857142857
 40
0.0857142857142857
 40
0.0857142857142857
 40
0.1142857142857143
 40
0.1142857142857143
 40
0.1142857142857143
 40
0.1142857142857143
 40
0.1428571428571428
 40
0.1428571428571428
 40
0.1428571428571428
 40
0.1428571428571428
 40
0.1714285714285714
 40
0.1714285714285714
 40
0.1714285714285714
 40
0.1714285714285714
 40
0.2
 40
0.2
 40
0.2
 40
0.2
 40
0.2285714285714286
 40
0.2285714285714286
 40
0.2285714285714286
 40
0.2285714285714286
 40
0.2571428571428571
 40
0.2571428571428571
 40
0.2571428571428571
 40
0.2571428571428571
 40
0.2857142857142857
 40
0.2857142857142857
 40
0.2857142857142857
 40
0.2857142857142857
 40
0.3142857142857143
 40
0.3142857142857143
 40
0.3142857142857143
 40
0.3142857142857143
 40
0.3428571428571429
 40
0.3428571428571429
 40
0.3428571428571429
 40
0.3428571428571429
 40
0.3714285714285714
 40
0.3714285714285714
 40
0.3714285714285714
 40
0.3714285714285714
 40
0.4
 40
0.4
 40
0.4
 40
0.4
 40
0.4285714285714285
 40
0.4285714285714285
 40
0.4285714285714285
 40
0.4285714285714285
 40
0.4571428571428571
 40
0.4571428571428571
 40
0.4571428571428571
 40
0.4571428571428571
 40
0.4857142857142857
 40
0.4857142857142857
 40
0.4857142857142857
 40
0.4857142857142857
 40
0.5142857142857142
 40
0.5142857142857142
 40
0.5142857142857142
 40
0.5142857142857142
 40
0.5428571428571428
 40
0.5428571428571428
 40
0.5428571428571428
 40
0.5428571428571428
 40
0.5714285714285714
 40
0.5714285714285714
 40
0.5714285714285714
 40
0.5714285714285714
 40
0.6
 40
0.6
 40
0.6
 40
0.6
 40
0.6285714285714286
 40
0.6285714285714286
 40
0.6285714285714286
 40
0.6285714285714286
 40
0.6571428571428571
 40
0.6571428571428571
 40
0.6571428571428571
 40
0.6571428571428571
 40
0.6857142857142857
 40
0.6857142857142857
 40
0.6857142857142857
 40
0.6857142857142857
 40
0.7142857142857143
 40
0.7142857142857143
 40
0.7142857142857143
 40
0.7142857142857143
 40
0.7428571428571429
 40
0.7428571428571429
 40
0.7428571428571429
 40
0.7428571428571429
 40
0.7714285714285715
 40
0.7714285714285715
 40
0.7714285714285715
 40
0.7714285714285715
 40
0.8
 40
0.8
 40
0.8
 40
0.8
 40
0.8285714285714286
 40
0.8285714285714286
 40
0.8285714285714286
 40
0.8285714285714286
 40
0.8571428571428571
 40
0.8571428571428571
 40
0.8571428571428571
 40
0.8571428571428571
 40
0.8857142857142857
 40
0.8857142857142857
 40
0.8857142857142857
 40
0.8857142857142857
 40
0.9142857142857143
 40
0.9142857142857143
 40
0.9142857142857143
 40
0.9142857142857143
 40
0.9428571428571428
 40
0.9428571428571428
 40
0.9428571428571428
 40
0.9428571428571428
 40
1.0
 40
1.0
 40
1.0
 40
1.0
 10
18.8011
 20
-10.7585
 30
0.0
 10
18.8011
 20
-10.7585
 30
0.0
 10
18.8358
 20
-10.7283
 30
0.0
 10
18.8358
 20
-10.7283
 30
0.0
 10
18.8358
 20
-10.7283
 30
0.0
 10
18.8358
 20
-10.7283
 30
0.0
 10
18.9416
 20
-10.6357
 30
0.0
 10
18.9416
 20
-10.6357
 30
0.0
 10
18.9416
 20
-10.6357
 30
0.0
 10
18.9416
 20
-10.6357
 30
0.0
 10
19.1095
 20
-10.4903
 30
0.0
 10
19.1095
 20
-10.4903
 30
0.0
 10
19.1095
 20
-10.4903
 30
0.0
 10
19.1095
 20
-10.4903
 30
0.0
 10
19.3247
 20
-10.3068
 30
0.0
 10
19.3247
 20
-10.3068
 30
0.0
 10
19.3247
 20
-10.3068
 30
0.0
 10
19.3247
 20
-10.3068
 30
0.0
 10
19.5641
 20
-10.1069
 30
0.0
 10
19.5641
 20
-10.1069
 30
0.0
 10
19.5641
 20
-10.1069
 30
0.0
 10
19.5641
 20
-10.1069
 30
0.0
 10
19.8075
 20
-9.9081
 30
0.0
 10
19.8075
 20
-9.9081
 30
0.0
 10
19.8075
 20
-9.9081
 30
0.0
 10
19.8075
 20
-9.9081
 30
0.0
 10
20.0429
 20
-9.7219
 30
0.0
 10
20.0429
 20
-9.7219
 30
0.0
 10
20.0429
 20
-9.7219
 30
0.0
 10
20.0429
 20
-9.7219
 30
0.0
 10
20.2656
 20
-9.5519
 30
0.0
 10
20.2656
 20
-9.5519
 30
0.0
 10
20.2656
 20
-9.5519
 30
0.0
 10
20.2656
 20
-9.5519
 30
0.0
 10
20.4734
 20
-9.3995
 30
0.0
 10
20.4734
 20
-9.3995
 30
0.0
 10
20.4734
 20
-9.3995
 30
0.0
 10
20.4734
 20
-9.3995
 30
0.0
 10
20.667
 20
-9.264
 30
0.0
 10
20.667
 20
-9.264
 30
0.0
 10
20.667
 20
-9.264
 30
0.0
 10
20.667
 20
-9.264
 30
0.0
 10
20.8492
 20
-9.1428
 30
0.0
 10
20.8492
 20
-9.1428
 30
0.0
 10
20.8492
 20
-9.1428
 30
0.0
 10
20.8492
 20
-9.1428
 30
0.0
 10
21.022
 20
-9.0342
 30
0.0
 10
21.022
 20
-9.0342
 30
0.0
 10
21.022
 20
-9.0342
 30
0.0
 10
21.022
 20
-9.0342
 30
0.0
 10
21.1899
 20
-8.9361
 30
0.0
 10
21.1899
 20
-8.9361
 30
0.0
 10
21.1899
 20
-8.9361
 30
0.0
 10
21.1899
 20
-8.9361
 30
0.0
 10
21.3566
 20
-8.8459
 30
0.0
 10
21.3566
 20
-8.8459
 30
0.0
 10
21.3566
 20
-8.8459
 30
0.0
 10
21.3566
 20
-8.8459
 30
0.0
 10
21.5274
 20
-8.7624
 30
0.0
 10
21.5274
 20
-8.7624
 30
0.0
 10
21.5274
 20
-8.7624
 30
0.0
 10
21.5274
 20
-8.7624
 30
0.0
 10
21.7045
 20
-8.6862
 30
0.0
 10
21.7045
 20
-8.6862
 30
0.0
 10
21.7045
 20
-8.6862
 30
0.0
 10
21.7045
 20
-8.6862
 30
0.0
 10
21.8878
 20
-8.6197
 30
0.0
 10
21.8878
 20
-8.6197
 30
0.0
 10
21.8878
 20
-8.6197
 30
0.0
 10
21.8878
 20
-8.6197
 30
0.0
 10
22.0759
 20
-8.5659
 30
0.0
 10
22.0759
 20
-8.5659
 30
0.0
 10
22.0759
 20
-8.5659
 30
0.0
 10
22.0759
 20
-8.5659
 30
0.0
 10
23.2544
 20
-8.302
 30
0.0
 10
23.2544
 20
-8.302
 30
0.0
 10
23.2544
 20
-8.302
 30
0.0
 10
23.2544
 20
-8.302
 30
0.0
 10
24.7101
 20
-7.7939
 30
0.0
 10
24.7101
 20
-7.7939
 30
0.0
 10
24.7101
 20
-7.7939
 30
0.0
 10
24.7101
 20
-7.7939
 30
0.0
 10
25.5988
 20
-7.3583
 30
0.0
 10
25.5988
 20
-7.3583
 30
0.0
 10
25.5988
 20
-7.3583
 30
0.0
 10
25.5988
 20
-7.3583
 30
0.0
 10
26.2069
 20
-6.9475
 30
0.0
 10
26.2069
 20
-6.9475
 30
0.0
 10
26.2069
 20
-6.9475
 30
0.0
 10
26.2069
 20
-6.9475
 30
0.0
 10
26.4047
 20
-6.7241
 30
0.0
 10
26.4047
 20
-6.7241
 30
0.0
 10
26.4047
 20
-6.7241
 30
0.0
 10
26.4047
 20
-6.7241
 30
0.0
 10
26.457
 20
-6.6651
 30
0.0
 10
26.457
 20
-6.6651
 30
0.0
 10
26.457
 20
-6.6651
 30
0.0
 10
26.457
 20
-6.6651
 30
0.0
 10
26.3194
 20
-5.5054
 30
0.0
 10
26.3194
 20
-5.5054
 30
0.0
 10
26.3194
 20
-5.5054
 30
0.0
 10
26.3194
 20
-5.5054
 30
0.0
 10
25.8951
 20
-4.3937
 30
0.0
 10
25.8951
 20
-4.3937
 30
0.0
 10
25.8951
 20
-4.3937
 30
0.0
 10
25.8951
 20
-4.3937
 30
0.0
 10
25.2398
 20
-3.4943
 30
0.0
 10
25.2398
 20
-3.4943
 30
0.0
 10
25.2398
 20
-3.4943
 30
0.0
 10
25.2398
 20
-3.4943
 30
0.0
 10
24.5221
 20
-2.828
 30
0.0
 10
24.5221
 20
-2.828
 30
0.0
 10
24.5221
 20
-2.828
 30
0.0
 10
24.5221
 20
-2.828
 30
0.0
 10
23.5157
 20
-2.3089
 30
0.0
 10
23.5157
 20
-2.3089
 30
0.0
 10
23.5157
 20
-2.3089
 30
0.0
 10
23.5157
 20
-2.3089
 30
0.0
 10
22.859
 20
-2.158
 30
0.0
 10
22.859
 20
-2.158
 30
0.0
 10
22.859
 20
-2.158
 30
0.0
 10
22.859
 20
-2.158
 30
0.0
 10
16.7617
 20
-2.1462
 30
0.0
 10
16.7617
 20
-2.1462
 30
0.0
 10
16.7617
 20
-2.1462
 30
0.0
 10
16.7617
 20
-2.1462
 30
0.0
 10
16.7626
 20
-2.2892
 30
0.0
 10
16.7626
 20
-2.2892
 30
0.0
 10
16.7626
 20
-2.2892
 30
0.0
 10
16.7626
 20
-2.2892
 30
0.0
 10
16.8272
 20
-10.8217
 30
0.0
 10
16.8272
 20
-10.8217
 30
0.0
 10
16.8272
 20
-10.8217
 30
0.0
 10
16.8272
 20
-10.8217
 30
0.0
 10
18.8011
 20
-10.7585
 30
0.0
 10
18.8011
 20
-10.7585
 30
0.0
  0
SPLINE
  5
8B
330
1F
100
AcDbEntity
  8
DATUMS
 62
   250
100
AcDbSpline
210
0.0
220
0.0
230
1.0
 70
    11
 71
     3
 72
    44
 73
    40
 74
     0
 42
0.0000000001
 43
0.0000000001
 40
0.0
 40
0.0
 40
0.0
 40
0.0
 40
0.0909090909090909
 40
0.0909090909090909
 40
0.0909090909090909
 40
0.0909090909090909
 40
0.1818181818181818
 40
0.1818181818181818
 40
0.1818181818181818
 40
0.1818181818181818
 40
0.2727272727272727
 40
0.2727272727272727
 40
0.2727272727272727
 40
0.2727272727272727
 40
0.3636363636363636
 40
0.3636363636363636
 40
0.3636363636363636
 40
0.3636363636363636
 40
0.4545454545454545
 40
0.4545454545454545
 40
0.4545454545454545
 40
0.4545454545454545
 40
0.5454545454545454
 40
0.5454545454545454
 40
0.5454545454545454
 40
0.5454545454545454
 40
0.6363636363636364
 40
0.6363636363636364
 40
0.6363636363636364
 40
0.6363636363636364
 40
0.7272727272727273
 40
0.7272727272727273
 40
0.7272727272727273
 40
0.7272727272727273
 40
0.8181818181818182
 40
0.8181818181818182
 40
0.8181818181818182
 40
0.8181818181818182
 40
1.0
 40
1.0
 40
1.0
 40
1.0
 10
18.4432
 20
-14.8992
 30
0.0
 10
18.4432
 20
-14.8992
 30
0.0
 10
18.8349
 20
-14.8993
 30
0.0
 10
18.8349
 20
-14.8993
 30
0.0
 10
18.8349
 20
-14.8993
 30
0.0
 10
18.8349
 20
-14.8993
 30
0.0
 10
18.2935
 20
-12.3554
 30
0.0
 10
18.2935
 20
-12.3554
 30
0.0
 10
18.2935
 20
-12.3554
 30
0.0
 10
18.2935
 20
-12.3554
 30
0.0
 10
18.8349
 20
-14.8993
 30
0.0
 10
18.8349
 20
-14.8993
 30
0.0
 10
18.8349
 20
-14.8993
 30
0.0
 10
18.8349
 20
-14.8993
 30
0.0
 10
26.3708
 20
-14.8993
 30
0.0
 10
26.3708
 20
-14.8993
 30
0.0
 10
26.3708
 20
-14.8993
 30
0.0
 10
26.3708
 20
-14.8993
 30
0.0
 10
26.9122
 20
-12.3552
 30
0.0
 10
26.9122
 20
-12.3552
 30
0.0
 10
26.9122
 20
-12.3552
 30
0.0
 10
26.9122
 20
-12.3552
 30
0.0
 10
26.3708
 20
-14.8993
 30
0.0
 10
26.3708
 20
-14.8993
 30
0.0
 10
26.3708
 20
-14.8993
 30
0.0
 10
26.3708
 20
-14.8993
 30
0.0
 10
26.7626
 20
-14.8992
 30
0.0
 10
26.7626
 20
-14.8992
 30
0.0
 10
26.7626
 20
-14.8992
 30
0.0
 10
26.7626
 20
-14.8992
 30
0.0
 10
26.3708
 20
-14.8993
 30
0.0
 10
26.3708
 20
-14.8993
 30
0.0
 10
26.3708
 20
-14.8993
 30
0.0
 10
26.3708
 20
-14.8993
 30
0.0
 10
18.8349
 20
-14.8993
 30
0.0
 10
18.8349
 20
-14.8993
 30
0.0
 10
18.8349
 20
-14.8993
 30
0.0
 10
18.8349
 20
-14.8993
 30
0.0
 10
18.4432
 20
-14.8992
 30
0.0
 10
18.4432
 20
-14.8992
 30
0.0
  0
SPLINE
  5
8C
330
1F
100
AcDbEntity
  8
DATUMS
 62
   250
100
AcDbSpline
210
0.0
220
0.0
230
1.0
 70
    11
 71
     3
 72
    16
 73
    12
 74
     0
 42
0.0000000001
 43
0.0000000001
 40
0.0
 40
0.0
 40
0.0
 40
0.0
 40
0.25
 40
0.25
 40
0.25
 40
0.25
 40
0.5
 40
0.5
 40
0.5
 40
0.5
 40
1.0
 40
1.0
 40
1.0
 40
1.0
 10
16.8062
 20
-2.2892
 30
0.0
 10
16.8062
 20
-2.2892
 30
0.0
 10
16.7626
 20
-2.2892
 30
0.0
 10
16.7626
 20
-2.2892
 30
0.0
 10
16.7626
 20
-2.2892
 30
0.0
 10
16.7626
 20
-2.2892
 30
0.0
 10
16.0534
 20
-2.2893
 30
0.0
 10
16.0534
 20
-2.2893
 30
0.0
 10
16.0534
 20
-2.2893
 30
0.0
 10
16.0534
 20
-2.2893
 30
0.0
 10
16.8062
 20
-2.2892
 30
0.0
 10
16.8062
 20
-2.2892
 30
0.0
  0
SPLINE
  5
8D
330
1F
100
AcDbEntity
  8
DATUMS
 62
   250
100
AcDbSpline
210
0.0
220
0.0
230
1.0
 70
    11
 71
     3
 72
    28
 73
    24
 74
     0
 42
0.0000000001
 43
0.0000000001
 40
0.0
 40
0.0
 40
0.0
 40
0.0
 40
0.1428571428571428
 40
0.1428571428571428
 40
0.1428571428571428
 40
0.1428571428571428
 40
0.2857142857142857
 40
0.2857142857142857
 40
0.2857142857142857
 40
0.2857142857142857
 40
0.4285714285714285
 40
0.4285714285714285
 40
0.4285714285714285
 40
0.4285714285714285
 40
0.5714285714285714
 40
0.5714285714285714
 40
0.5714285714285714
 40
0.5714285714285714
 40
0.7142857142857143
 40
0.7142857142857143
 40
0.7142857142857143
 40
0.7142857142857143
 40
1.0
 40
1.0
 40
1.0
 40
1.0
 10
26.4048
 20
-12.2641
 30
0.0
 10
26.4048
 20
-12.2641
 30
0.0
 10
26.4047
 20
-6.7241
 30
0.0
 10
26.4047
 20
-6.7241
 30
0.0
 10
26.4047
 20
-6.7241
 30
0.0
 10
26.4047
 20
-6.7241
 30
0.0
 10
26.4047
 20
-6.4297
 30
0.0
 10
26.4047
 20
-6.4297
 30
0.0
 10
26.4047
 20
-6.4297
 30
0.0
 10
26.4047
 20
-6.4297
 30
0.0
 10
26.4047
 20
-6.7241
 30
0.0
 10
26.4047
 20
-6.7241
 30
0.0
 10
26.4047
 20
-6.7241
 30
0.0
 10
26.4047
 20
-6.7241
 30
0.0
 10
26.4048
 20
-12.2641
 30
0.0
 10
26.4048
 20
-12.2641
 30
0.0
 10
26.4048
 20
-12.2641
 30
0.0
 10
26.4048
 20
-12.2641
 30
0.0
 10
26.8386
 20
-12.2641
 30
0.0
 10
26.8386
 20
-12.2641
 30
0.0
 10
26.8386
 20
-12.2641
 30
0.0
 10
26.8386
 20
-12.2641
 30
0.0
 10
26.4048
 20
-12.2641
 30
0.0
 10
26.4048
 20
-12.2641
 30
0.0
  0
SPLINE
  5
8E
330
1F
100
AcDbEntity
  8
DATUMS
 62
   250
100
AcDbSpline
210
0.0
220
0.0
230
1.0
 70
    27
 71
     3
 72
    12
 73
     8
 74
     0
 42
0.0000000001
 43
0.0000000001
 40
0.0
 40
0.0
 40
0.0
 40
0.0
 40
0.3333333333333333
 40
0.3333333333333333
 40
0.3333333333333333
 40
0.3333333333333333
 40
1.0
 40
1.0
 40
1.0
 40
1.0
 10
18.8011
 20
-12.2642
 30
0.0
 10
18.8011
 20
-12.2642
 30
0.0
 10
18.8011
 20
-10.7585
 30
0.0
 10
18.8011
 20
-10.7585
 30
0.0
 10
18.8011
 20
-10.7585
 30
0.0
 10
18.8011
 20
-10.7585
 30
0.0
 10
18.8011
 20
-12.2642
 30
0.0
 10
18.8011
 20
-12.2642
 30
0.0
  0
SPLINE
  5
8F
330
1F
100
AcDbEntity
  8
DATUMS
 62
   250
100
AcDbSpline
210
0.0
220
0.0
230
1.0
 70
    27
 71
     3
 72
    12
 73
     8
 74
     0
 42
0.0000000001
 43
0.0000000001
 40
0.0
 40
0.0
 40
0.0
 40
0.0
 40
0.3333333333333333
 40
0.3333333333333333
 40
0.3333333333333333
 40
0.3333333333333333
 40
1.0
 40
1.0
 40
1.0
 40
1.0
 10
16.8061
 20
-10.5706
 30
0.0
 10
16.8061
 20
-10.5706
 30
0.0
 10
16.0533
 20
-10.5704
 30
0.0
 10
16.0533
 20
-10.5704
 30
0.0
 10
16.0533
 20
-10.5704
 30
0.0
 10
16.0533
 20
-10.5704
 30
0.0
 10
16.8061
 20
-10.5706
 30
0.0
 10
16.8061
 20
-10.5706
 30
0.0
  0
SPLINE
  5
90
330
1F
100
AcDbEntity
  8
DATUMS
 62
   250
100
AcDbSpline
210
0.0
220
0.0
230
1.0
 70
    11
 71
     3
 72
    68
 73
    64
 74
     0
 42
0.0000000001
 43
0.0000000001
 40
0.0
 40
0.0
 40
0.0
 40
0.0
 40
0.0588235294117647
 40
0.0588235294117647
 40
0.0588235294117647
 40
0.0588235294117647
 40
0.1176470588235294
 40
0.1176470588235294
 40
0.1176470588235294
 40
0.1176470588235294
 40
0.1764705882352941
 40
0.1764705882352941
 40
0.1764705882352941
 40
0.1764705882352941
 40
0.2352941176470588
 40
0.2352941176470588
 40
0.2352941176470588
 40
0.2352941176470588
 40
0.2941176470588235
 40
0.2941176470588235
 40
0.2941176470588235
 40
0.2941176470588235
 40
0.3529411764705883
 40
0.3529411764705883
 40
0.3529411764705883
 40
0.3529411764705883
 40
0.4117647058823529
 40
0.4117647058823529
 40
0.4117647058823529
 40
0.4117647058823529
 40
0.4705882352941176
 40
0.4705882352941176
 40
0.4705882352941176
 40
0.4705882352941176
 40
0.5294117647058824
 40
0.5294117647058824
 40
0.5294117647058824
 40
0.5294117647058824
 40
0.5882352941176471
 40
0.5882352941176471
 40
0.5882352941176471
 40
0.5882352941176471
 40
0.6470588235294118
 40
0.6470588235294118
 40
0.6470588235294118
 40
0.6470588235294118
 40
0.7058823529411765
 40
0.7058823529411765
 40
0.7058823529411765
 40
0.7058823529411765
 40
0.7647058823529411
 40
0.7647058823529411
 40
0.7647058823529411
 40
0.7647058823529411
 40
0.8235294117647058
 40
0.8235294117647058
 40
0.8235294117647058
 40
0.8235294117647058
 40
0.8823529411764706
 40
0.8823529411764706
 40
0.8823529411764706
 40
0.8823529411764706
 40
1.0
 40
1.0
 40
1.0
 40
1.0
 10
25.8448
 20
-25.8239
 30
0.0
 10
25.8448
 20
-25.8239
 30
0.0
 10
25.8457
 20
-25.8009
 30
0.0
 10
25.8457
 20
-25.8009
 30
0.0
 10
25.8457
 20
-25.8009
 30
0.0
 10
25.8457
 20
-25.8009
 30
0.0
 10
25.9529
 20
-22.8038
 30
0.0
 10
25.9529
 20
-22.8038
 30
0.0
 10
25.9529
 20
-22.8038
 30
0.0
 10
25.9529
 20
-22.8038
 30
0.0
 10
25.9003
 20
-22.8039
 30
0.0
 10
25.9003
 20
-22.8039
 30
0.0
 10
25.9003
 20
-22.8039
 30
0.0
 10
25.9003
 20
-22.8039
 30
0.0
 10
26.1787
 20
-20.169
 30
0.0
 10
26.1787
 20
-20.169
 30
0.0
 10
26.1787
 20
-20.169
 30
0.0
 10
26.1787
 20
-20.169
 30
0.0
 10
25.9942
 20
-20.169
 30
0.0
 10
25.9942
 20
-20.169
 30
0.0
 10
25.9942
 20
-20.169
 30
0.0
 10
25.9942
 20
-20.169
 30
0.0
 10
26.4609
 20
-17.5341
 30
0.0
 10
26.4609
 20
-17.5341
 30
0.0
 10
26.4609
 20
-17.5341
 30
0.0
 10
26.4609
 20
-17.5341
 30
0.0
 10
26.2729
 20
-17.5341
 30
0.0
 10
26.2729
 20
-17.5341
 30
0.0
 10
26.2729
 20
-17.5341
 30
0.0
 10
26.2729
 20
-17.5341
 30
0.0
 10
26.8361
 20
-14.9906
 30
0.0
 10
26.8361
 20
-14.9906
 30
0.0
 10
26.8361
 20
-14.9906
 30
0.0
 10
26.8361
 20
-14.9906
 30
0.0
 10
26.2729
 20
-17.5341
 30
0.0
 10
26.2729
 20
-17.5341
 30
0.0
 10
26.2729
 20
-17.5341
 30
0.0
 10
26.2729
 20
-17.5341
 30
0.0
 10
26.4609
 20
-17.5341
 30
0.0
 10
26.4609
 20
-17.5341
 30
0.0
 10
26.4609
 20
-17.5341
 30
0.0
 10
26.4609
 20
-17.5341
 30
0.0
 10
25.9942
 20
-20.169
 30
0.0
 10
25.9942
 20
-20.169
 30
0.0
 10
25.9942
 20
-20.169
 30
0.0
 10
25.9942
 20
-20.169
 30
0.0
 10
26.1787
 20
-20.169
 30
0.0
 10
26.1787
 20
-20.169
 30
0.0
 10
26.1787
 20
-20.169
 30
0.0
 10
26.1787
 20
-20.169
 30
0.0
 10
25.9003
 20
-22.8039
 30
0.0
 10
25.9003
 20
-22.8039
 30
0.0
 10
25.9003
 20
-22.8039
 30
0.0
 10
25.9003
 20
-22.8039
 30
0.0
 10
25.9529
 20
-22.8038
 30
0.0
 10
25.9529
 20
-22.8038
 30
0.0
 10
25.9529
 20
-22.8038
 30
0.0
 10
25.9529
 20
-22.8038
 30
0.0
 10
25.8457
 20
-25.8009
 30
0.0
 10
25.8457
 20
-25.8009
 30
0.0
 10
25.8457
 20
-25.8009
 30
0.0
 10
25.8457
 20
-25.8009
 30
0.0
 10
25.8448
 20
-25.8239
 30
0.0
 10
25.8448
 20
-25.8239
 30
0.0
  0
SPLINE
  5
91
330
1F
100
AcDbEntity
  8
DATUMS
 62
   250
100
AcDbSpline
210
0.0
220
0.0
230
1.0
 70
    27
 71
     3
 72
    12
 73
     8
 74
     0
 42
0.0000000001
 43
0.0000000001
 40
0.0
 40
0.0
 40
0.0
 40
0.0
 40
0.3333333333333333
 40
0.3333333333333333
 40
0.3333333333333333
 40
0.3333333333333333
 40
1.0
 40
1.0
 40
1.0
 40
1.0
 10
18.367
 20
-12.2644
 30
0.0
 10
18.367
 20
-12.2644
 30
0.0
 10
26.4048
 20
-12.2641
 30
0.0
 10
26.4048
 20
-12.2641
 30
0.0
 10
26.4048
 20
-12.2641
 30
0.0
 10
26.4048
 20
-12.2641
 30
0.0
 10
18.367
 20
-12.2644
 30
0.0
 10
18.367
 20
-12.2644
 30
0.0
  0
SPLINE
  5
92
330
1F
100
AcDbEntity
  8
DATUMS
 62
   250
100
AcDbSpline
210
0.0
220
0.0
230
1.0
 70
    11
 71
     3
 72
    20
 73
    16
 74
     0
 42
0.0000000001
 43
0.0000000001
 40
0.0
 40
0.0
 40
0.0
 40
0.0
 40
0.2
 40
0.2
 40
0.2
 40
0.2
 40
0.4
 40
0.4
 40
0.4
 40
0.4
 40
0.6
 40
0.6
 40
0.6
 40
0.6
 40
1.0
 40
1.0
 40
1.0
 40
1.0
 10
18.9327
 20
-17.5343
 30
0.0
 10
18.9327
 20
-17.5343
 30
0.0
 10
18.3695
 20
-14.9907
 30
0.0
 10
18.3695
 20
-14.9907
 30
0.0
 10
18.3695
 20
-14.9907
 30
0.0
 10
18.3695
 20
-14.9907
 30
0.0
 10
18.9327
 20
-17.5343
 30
0.0
 10
18.9327
 20
-17.5343
 30
0.0
 10
18.9327
 20
-17.5343
 30
0.0
 10
18.9327
 20
-17.5343
 30
0.0
 10
26.2729
 20
-17.5341
 30
0.0
 10
26.2729
 20
-17.5341
 30
0.0
 10
26.2729
 20
-17.5341
 30
0.0
 10
26.2729
 20
-17.5341
 30
0.0
 10
18.9327
 20
-17.5343
 30
0.0
 10
18.9327
 20
-17.5343
 30
0.0
  0
SPLINE
  5
93
330
1F
100
AcDbEntity
  8
DATUMS
 62
   250
100
AcDbSpline
210
0.0
220
0.0
230
1.0
 70
    11
 71
     3
 72
    20
 73
    16
 74
     0
 42
0.0000000001
 43
0.0000000001
 40
0.0
 40
0.0
 40
0.0
 40
0.0
 40
0.2
 40
0.2
 40
0.2
 40
0.2
 40
0.4
 40
0.4
 40
0.4
 40
0.4
 40
0.6
 40
0.6
 40
0.6
 40
0.6
 40
1.0
 40
1.0
 40
1.0
 40
1.0
 10
19.2114
 20
-20.1689
 30
0.0
 10
19.2114
 20
-20.1689
 30
0.0
 10
18.7444
 20
-17.5342
 30
0.0
 10
18.7444
 20
-17.5342
 30
0.0
 10
18.7444
 20
-17.5342
 30
0.0
 10
18.7444
 20
-17.5342
 30
0.0
 10
18.9327
 20
-17.5343
 30
0.0
 10
18.9327
 20
-17.5343
 30
0.0
 10
18.9327
 20
-17.5343
 30
0.0
 10
18.9327
 20
-17.5343
 30
0.0
 10
18.7444
 20
-17.5342
 30
0.0
 10
18.7444
 20
-17.5342
 30
0.0
 10
18.7444
 20
-17.5342
 30
0.0
 10
18.7444
 20
-17.5342
 30
0.0
 10
19.2114
 20
-20.1689
 30
0.0
 10
19.2114
 20
-20.1689
 30
0.0
  0
SPLINE
  5
94
330
1F
100
AcDbEntity
  8
DATUMS
 62
   250
100
AcDbSpline
210
0.0
220
0.0
230
1.0
 70
    11
 71
     3
 72
    20
 73
    16
 74
     0
 42
0.0000000001
 43
0.0000000001
 40
0.0
 40
0.0
 40
0.0
 40
0.0
 40
0.2
 40
0.2
 40
0.2
 40
0.2
 40
0.4
 40
0.4
 40
0.4
 40
0.4
 40
0.6
 40
0.6
 40
0.6
 40
0.6
 40
1.0
 40
1.0
 40
1.0
 40
1.0
 10
19.3055
 20
-22.8038
 30
0.0
 10
19.3055
 20
-22.8038
 30
0.0
 10
19.0268
 20
-20.1689
 30
0.0
 10
19.0268
 20
-20.1689
 30
0.0
 10
19.0268
 20
-20.1689
 30
0.0
 10
19.0268
 20
-20.1689
 30
0.0
 10
25.9942
 20
-20.169
 30
0.0
 10
25.9942
 20
-20.169
 30
0.0
 10
25.9942
 20
-20.169
 30
0.0
 10
25.9942
 20
-20.169
 30
0.0
 10
19.0268
 20
-20.1689
 30
0.0
 10
19.0268
 20
-20.1689
 30
0.0
 10
19.0268
 20
-20.1689
 30
0.0
 10
19.0268
 20
-20.1689
 30
0.0
 10
19.3055
 20
-22.8038
 30
0.0
 10
19.3055
 20
-22.8038
 30
0.0
  0
SPLINE
  5
95
330
1F
100
AcDbEntity
  8
DATUMS
 62
   250
100
AcDbSpline
210
0.0
220
0.0
230
1.0
 70
    11
 71
     3
 72
    20
 73
    16
 74
     0
 42
0.0000000001
 43
0.0000000001
 40
0.0
 40
0.0
 40
0.0
 40
0.0
 40
0.2
 40
0.2
 40
0.2
 40
0.2
 40
0.4
 40
0.4
 40
0.4
 40
0.4
 40
0.6
 40
0.6
 40
0.6
 40
0.6
 40
1.0
 40
1.0
 40
1.0
 40
1.0
 10
19.3577
 20
-25.746
 30
0.0
 10
19.3577
 20
-25.746
 30
0.0
 10
19.2526
 20
-22.8039
 30
0.0
 10
19.2526
 20
-22.8039
 30
0.0
 10
19.2526
 20
-22.8039
 30
0.0
 10
19.2526
 20
-22.8039
 30
0.0
 10
25.9003
 20
-22.8039
 30
0.0
 10
25.9003
 20
-22.8039
 30
0.0
 10
25.9003
 20
-22.8039
 30
0.0
 10
25.9003
 20
-22.8039
 30
0.0
 10
19.2526
 20
-22.8039
 30
0.0
 10
19.2526
 20
-22.8039
 30
0.0
 10
19.2526
 20
-22.8039
 30
0.0
 10
19.2526
 20
-22.8039
 30
0.0
 10
19.3577
 20
-25.746
 30
0.0
 10
19.3577
 20
-25.746
 30
0.0
  0
SPLINE
  5
96
330
1F
100
AcDbEntity
  8
DATUMS
 62
   250
100
AcDbSpline
210
0.0
220
0.0
230
1.0
 70
     8
 71
     3
 72
    48
 73
    44
 74
     0
 42
0.0000000001
 43
0.0000000001
 40
0.0
 40
0.0
 40
0.0
 40
0.0
 40
0.0833333333333333
 40
0.0833333333333333
 40
0.0833333333333333
 40
0.0833333333333333
 40
0.1666666666666667
 40
0.1666666666666667
 40
0.1666666666666667
 40
0.1666666666666667
 40
0.25
 40
0.25
 40
0.25
 40
0.25
 40
0.3333333333333333
 40
0.3333333333333333
 40
0.3333333333333333
 40
0.3333333333333333
 40
0.4166666666666667
 40
0.4166666666666667
 40
0.4166666666666667
 40
0.4166666666666667
 40
0.5
 40
0.5
 40
0.5
 40
0.5
 40
0.5833333333333334
 40
0.5833333333333334
 40
0.5833333333333334
 40
0.5833333333333334
 40
0.6666666666666666
 40
0.6666666666666666
 40
0.6666666666666666
 40
0.6666666666666666
 40
0.75
 40
0.75
 40
0.75
 40
0.75
 40
0.8333333333333334
 40
0.8333333333333334
 40
0.8333333333333334
 40
0.8333333333333334
 40
1.0
 40
1.0
 40
1.0
 40
1.0
 10
15.3005
 20
0.7221
 30
0.0
 10
15.7163
 20
0.722
 30
0.0
 10
16.0533
 20
0.385
 30
0.0
 10
16.0532
 20
-0.0308
 30
0.0
 10
16.0532
 20
-0.0308
 30
0.0
 10
16.0532
 20
-0.0308
 30
0.0
 10
16.0019
 20
-12.8968
 30
0.0
 10
16.0019
 20
-12.8968
 30
0.0
 10
16.0019
 20
-12.8968
 30
0.0
 10
16.0019
 20
-12.8968
 30
0.0
 10
15.9366
 20
-13.1405
 30
0.0
 10
15.9366
 20
-13.1405
 30
0.0
 10
15.9366
 20
-13.1405
 30
0.0
 10
15.9366
 20
-13.1405
 30
0.0
 10
15.7946
 20
-13.3161
 30
0.0
 10
15.7946
 20
-13.3161
 30
0.0
 10
15.7946
 20
-13.3161
 30
0.0
 10
15.7946
 20
-13.3161
 30
0.0
 10
15.5302
 20
-13.5065
 30
0.0
 10
15.5302
 20
-13.5065
 30
0.0
 10
15.5302
 20
-13.5065
 30
0.0
 10
15.5302
 20
-13.5065
 30
0.0
 10
15.3916
 20
-13.4932
 30
0.0
 10
15.3916
 20
-13.4932
 30
0.0
 10
15.3916
 20
-13.4932
 30
0.0
 10
15.3916
 20
-13.4932
 30
0.0
 10
15.453
 20
-13.7947
 30
0.0
 10
15.453
 20
-13.7947
 30
0.0
 10
15.453
 20
-13.7947
 30
0.0
 10
15.453
 20
-13.7947
 30
0.0
 10
9.7254
 20
-13.8513
 30
0.0
 10
9.7254
 20
-13.8513
 30
0.0
 10
9.7254
 20
-13.8513
 30
0.0
 10
9.7254
 20
-13.8513
 30
0.0
 10
9.6535
 20
0.9178
 30
0.0
 10
9.6535
 20
0.9178
 30
0.0
 10
9.6535
 20
0.9178
 30
0.0
 10
9.6535
 20
0.9178
 30
0.0
 10
15.4961
 20
0.8725
 30
0.0
 10
15.4961
 20
0.8725
 30
0.0
 10
15.4961
 20
0.8725
 30
0.0
 10
15.4961
 20
0.8725
 30
0.0
 10
15.4911
 20
0.5888
 30
0.0
 10
15.4911
 20
0.5888
 30
0.0
  0
SPLINE
  5
97
330
1F
100
AcDbEntity
  8
DATUMS
 62
   250
100
AcDbSpline
210
0.0
220
0.0
230
1.0
 70
     8
 71
     3
 72
   132
 73
   128
 74
     0
 42
0.0000000001
 43
0.0000000001
 40
0.0
 40
0.0
 40
0.0
 40
0.0
 40
0.0303030303030303
 40
0.0303030303030303
 40
0.0303030303030303
 40
0.0303030303030303
 40
0.0606060606060606
 40
0.0606060606060606
 40
0.0606060606060606
 40
0.0606060606060606
 40
0.0909090909090909
 40
0.0909090909090909
 40
0.0909090909090909
 40
0.0909090909090909
 40
0.1212121212121212
 40
0.1212121212121212
 40
0.1212121212121212
 40
0.1212121212121212
 40
0.1515151515151515
 40
0.1515151515151515
 40
0.1515151515151515
 40
0.1515151515151515
 40
0.1818181818181818
 40
0.1818181818181818
 40
0.1818181818181818
 40
0.1818181818181818
 40
0.2121212121212121
 40
0.2121212121212121
 40
0.2121212121212121
 40
0.2121212121212121
 40
0.2424242424242424
 40
0.2424242424242424
 40
0.2424242424242424
 40
0.2424242424242424
 40
0.2727272727272727
 40
0.2727272727272727
 40
0.2727272727272727
 40
0.2727272727272727
 40
0.303030303030303
 40
0.303030303030303
 40
0.303030303030303
 40
0.303030303030303
 40
0.3333333333333333
 40
0.3333333333333333
 40
0.3333333333333333
 40
0.3333333333333333
 40
0.3636363636363636
 40
0.3636363636363636
 40
0.3636363636363636
 40
0.3636363636363636
 40
0.3939393939393939
 40
0.3939393939393939
 40
0.3939393939393939
 40
0.3939393939393939
 40
0.4242424242424243
 40
0.4242424242424243
 40
0.4242424242424243
 40
0.4242424242424243
 40
0.4545454545454545
 40
0.4545454545454545
 40
0.4545454545454545
 40
0.4545454545454545
 40
0.4848484848484849
 40
0.4848484848484849
 40
0.4848484848484849
 40
0.4848484848484849
 40
0.5151515151515151
 40
0.5151515151515151
 40
0.5151515151515151
 40
0.5151515151515151
 40
0.5454545454545454
 40
0.5454545454545454
 40
0.5454545454545454
 40
0.5454545454545454
 40
0.5757575757575758
 40
0.5757575757575758
 40
0.5757575757575758
 40
0.5757575757575758
 40
0.6060606060606061
 40
0.6060606060606061
 40
0.6060606060606061
 40
0.6060606060606061
 40
0.6363636363636364
 40
0.6363636363636364
 40
0.6363636363636364
 40
0.6363636363636364
 40
0.6666666666666666
 40
0.6666666666666666
 40
0.6666666666666666
 40
0.6666666666666666
 40
0.696969696969697
 40
0.696969696969697
 40
0.696969696969697
 40
0.696969696969697
 40
0.7272727272727273
 40
0.7272727272727273
 40
0.7272727272727273
 40
0.7272727272727273
 40
0.7575757575757576
 40
0.7575757575757576
 40
0.7575757575757576
 40
0.7575757575757576
 40
0.7878787878787878
 40
0.7878787878787878
 40
0.7878787878787878
 40
0.7878787878787878
 40
0.8181818181818182
 40
0.8181818181818182
 40
0.8181818181818182
 40
0.8181818181818182
 40
0.8484848484848485
 40
0.8484848484848485
 40
0.8484848484848485
 40
0.8484848484848485
 40
0.8787878787878788
 40
0.8787878787878788
 40
0.8787878787878788
 40
0.8787878787878788
 40
0.9090909090909091
 40
0.9090909090909091
 40
0.9090909090909091
 40
0.9090909090909091
 40
0.9393939393939394
 40
0.9393939393939394
 40
0.9393939393939394
 40
0.9393939393939394
 40
1.0
 40
1.0
 40
1.0
 40
1.0
 10
10.7856
 20
0.9292
 30
0.0
 10
10.7856
 20
0.9292
 30
0.0
 10
10.7719
 20
-0.771
 30
0.0
 10
10.7719
 20
-0.771
 30
0.0
 10
10.7719
 20
-0.771
 30
0.0
 10
10.7719
 20
-0.771
 30
0.0
 10
14.5476
 20
-0.7345
 30
0.0
 10
14.5476
 20
-0.7345
 30
0.0
 10
14.5476
 20
-0.7345
 30
0.0
 10
14.5476
 20
-0.7345
 30
0.0
 10
14.7275
 20
-0.7484
 30
0.0
 10
14.7275
 20
-0.7484
 30
0.0
 10
14.7275
 20
-0.7484
 30
0.0
 10
14.7275
 20
-0.7484
 30
0.0
 10
14.897
 20
-0.7895
 30
0.0
 10
14.897
 20
-0.7895
 30
0.0
 10
14.897
 20
-0.7895
 30
0.0
 10
14.897
 20
-0.7895
 30
0.0
 10
15.0467
 20
-0.8562
 30
0.0
 10
15.0467
 20
-0.8562
 30
0.0
 10
15.0467
 20
-0.8562
 30
0.0
 10
15.0467
 20
-0.8562
 30
0.0
 10
15.1674
 20
-0.9461
 30
0.0
 10
15.1674
 20
-0.9461
 30
0.0
 10
15.1674
 20
-0.9461
 30
0.0
 10
15.1674
 20
-0.9461
 30
0.0
 10
15.2517
 20
-1.0546
 30
0.0
 10
15.2517
 20
-1.0546
 30
0.0
 10
15.2517
 20
-1.0546
 30
0.0
 10
15.2517
 20
-1.0546
 30
0.0
 10
15.295
 20
-1.1759
 30
0.0
 10
15.295
 20
-1.1759
 30
0.0
 10
15.295
 20
-1.1759
 30
0.0
 10
15.295
 20
-1.1759
 30
0.0
 10
15.3005
 20
-1.2396
 30
0.0
 10
15.3005
 20
-1.2396
 30
0.0
 10
15.3005
 20
-1.2396
 30
0.0
 10
15.3005
 20
-1.2396
 30
0.0
 10
15.2041
 20
-1.5381
 30
0.0
 10
15.2041
 20
-1.5381
 30
0.0
 10
15.2041
 20
-1.5381
 30
0.0
 10
15.2041
 20
-1.5381
 30
0.0
 10
14.9688
 20
-1.6744
 30
0.0
 10
14.9688
 20
-1.6744
 30
0.0
 10
14.9688
 20
-1.6744
 30
0.0
 10
14.9688
 20
-1.6744
 30
0.0
 10
14.6513
 20
-1.7885
 30
0.0
 10
14.6513
 20
-1.7885
 30
0.0
 10
14.6513
 20
-1.7885
 30
0.0
 10
14.6513
 20
-1.7885
 30
0.0
 10
10.7853
 20
-1.7926
 30
0.0
 10
10.7853
 20
-1.7926
 30
0.0
 10
10.7853
 20
-1.7926
 30
0.0
 10
10.7853
 20
-1.7926
 30
0.0
 10
10.7688
 20
-5.7277
 30
0.0
 10
10.7688
 20
-5.7277
 30
0.0
 10
10.7688
 20
-5.7277
 30
0.0
 10
10.7688
 20
-5.7277
 30
0.0
 10
14.7697
 20
-5.7151
 30
0.0
 10
14.7697
 20
-5.7151
 30
0.0
 10
14.7697
 20
-5.7151
 30
0.0
 10
14.7697
 20
-5.7151
 30
0.0
 10
15.1785
 20
-6.0018
 30
0.0
 10
15.1785
 20
-6.0018
 30
0.0
 10
15.1785
 20
-6.0018
 30
0.0
 10
15.1785
 20
-6.0018
 30
0.0
 10
15.2976
 20
-6.2993
 30
0.0
 10
15.2976
 20
-6.2993
 30
0.0
 10
15.2976
 20
-6.2993
 30
0.0
 10
15.2976
 20
-6.2993
 30
0.0
 10
15.2822
 20
-6.6049
 30
0.0
 10
15.2822
 20
-6.6049
 30
0.0
 10
15.2822
 20
-6.6049
 30
0.0
 10
15.2822
 20
-6.6049
 30
0.0
 10
15.1482
 20
-6.8569
 30
0.0
 10
15.1482
 20
-6.8569
 30
0.0
 10
15.1482
 20
-6.8569
 30
0.0
 10
15.1482
 20
-6.8569
 30
0.0
 10
15.0613
 20
-7.0992
 30
0.0
 10
15.0613
 20
-7.0992
 30
0.0
 10
15.0613
 20
-7.0992
 30
0.0
 10
15.0613
 20
-7.0992
 30
0.0
 10
14.8576
 20
-7.1995
 30
0.0
 10
14.8576
 20
-7.1995
 30
0.0
 10
14.8576
 20
-7.1995
 30
0.0
 10
14.8576
 20
-7.1995
 30
0.0
 10
10.7895
 20
-7.216
 30
0.0
 10
10.7895
 20
-7.216
 30
0.0
 10
10.7895
 20
-7.216
 30
0.0
 10
10.7895
 20
-7.216
 30
0.0
 10
10.7843
 20
-11.1098
 30
0.0
 10
10.7843
 20
-11.1098
 30
0.0
 10
10.7843
 20
-11.1098
 30
0.0
 10
10.7843
 20
-11.1098
 30
0.0
 10
14.667
 20
-11.0433
 30
0.0
 10
14.667
 20
-11.0433
 30
0.0
 10
14.667
 20
-11.0433
 30
0.0
 10
14.667
 20
-11.0433
 30
0.0
 10
14.9912
 20
-11.1524
 30
0.0
 10
14.9912
 20
-11.1524
 30
0.0
 10
14.9912
 20
-11.1524
 30
0.0
 10
14.9912
 20
-11.1524
 30
0.0
 10
15.237
 20
-11.3067
 30
0.0
 10
15.237
 20
-11.3067
 30
0.0
 10
15.237
 20
-11.3067
 30
0.0
 10
15.237
 20
-11.3067
 30
0.0
 10
15.3782
 20
-11.5217
 30
0.0
 10
15.3782
 20
-11.5217
 30
0.0
 10
15.3782
 20
-11.5217
 30
0.0
 10
15.3782
 20
-11.5217
 30
0.0
 10
15.3062
 20
-11.7903
 30
0.0
 10
15.3062
 20
-11.7903
 30
0.0
 10
15.3062
 20
-11.7903
 30
0.0
 10
15.3062
 20
-11.7903
 30
0.0
 10
15.1051
 20
-12.0462
 30
0.0
 10
15.1051
 20
-12.0462
 30
0.0
 10
15.1051
 20
-12.0462
 30
0.0
 10
15.1051
 20
-12.0462
 30
0.0
 10
14.529
 20
-12.1351
 30
0.0
 10
14.529
 20
-12.1351
 30
0.0
 10
14.529
 20
-12.1351
 30
0.0
 10
14.529
 20
-12.1351
 30
0.0
 10
10.7454
 20
-12.1617
 30
0.0
 10
10.7454
 20
-12.1617
 30
0.0
 10
10.7454
 20
-12.1617
 30
0.0
 10
10.7454
 20
-12.1617
 30
0.0
 10
10.7492
 20
-13.7457
 30
0.0
 10
10.7492
 20
-13.7457
 30
0.0
  0
SPLINE
  5
98
330
1F
100
AcDbEntity
  8
DATUMS
 62
   250
100
AcDbSpline
210
0.0
220
0.0
230
1.0
 70
    24
 71
     3
 72
     8
 73
     4
 74
     0
 42
0.0000000001
 43
0.0000000001
 40
0.0
 40
0.0
 40
0.0
 40
0.0
 40
1.0
 40
1.0
 40
1.0
 40
1.0
 10
-17.8347
 20
-17.8702
 30
0.0
 10
-17.8347
 20
-17.8702
 30
0.0
 10
-0.3938
 20
-17.4166
 30
0.0
 10
-0.3938
 20
-17.4166
 30
0.0
  0
SPLINE
  5
99
330
1F
100
AcDbEntity
  8
DATUMS
 62
   250
100
AcDbSpline
210
0.0
220
0.0
230
1.0
 70
    24
 71
     3
 72
     8
 73
     4
 74
     0
 42
0.0000000001
 43
0.0000000001
 40
0.0
 40
0.0
 40
0.0
 40
0.0
 40
1.0
 40
1.0
 40
1.0
 40
1.0
 10
-17.7548
 20
-17.0965
 30
0.0
 10
-17.7548
 20
-17.0965
 30
0.0
 10
-0.3139
 20
-16.6429
 30
0.0
 10
-0.3139
 20
-16.6429
 30
0.0
  0
SPLINE
  5
9A
330
1F
100
AcDbEntity
  8
DATUMS
 62
   250
100
AcDbSpline
210
0.0
220
0.0
230
1.0
 70
    24
 71
     3
 72
     8
 73
     4
 74
     0
 42
0.0000000001
 43
0.0000000001
 40
0.0
 40
0.0
 40
0.0
 40
0.0
 40
1.0
 40
1.0
 40
1.0
 40
1.0
 10
-17.7814
 20
-16.1893
 30
0.0
 10
-17.7814
 20
-16.1893
 30
0.0
 10
-0.3405
 20
-15.7357
 30
0.0
 10
-0.3405
 20
-15.7357
 30
0.0
  0
SPLINE
  5
9B
330
1F
100
AcDbEntity
  8
DATUMS
 62
   250
100
AcDbSpline
210
0.0
220
0.0
230
1.0
 70
    24
 71
     3
 72
     8
 73
     4
 74
     0
 42
0.0000000001
 43
0.0000000001
 40
0.0
 40
0.0
 40
0.0
 40
0.0
 40
1.0
 40
1.0
 40
1.0
 40
1.0
 10
-17.7548
 20
-15.3622
 30
0.0
 10
-17.7548
 20
-15.3622
 30
0.0
 10
-0.3139
 20
-14.9086
 30
0.0
 10
-0.3139
 20
-14.9086
 30
0.0
  0
SPLINE
  5
9C
330
1F
100
AcDbEntity
  8
DATUMS
 62
   250
100
AcDbSpline
210
0.0
220
0.0
230
1.0
 70
    24
 71
     3
 72
     8
 73
     4
 74
     0
 42
0.0000000001
 43
0.0000000001
 40
0.0
 40
0.0
 40
0.0
 40
0.0
 40
1.0
 40
1.0
 40
1.0
 40
1.0
 10
-17.8613
 20
-14.5351
 30
0.0
 10
-17.8613
 20
-14.5351
 30
0.0
 10
-0.4204
 20
-14.0815
 30
0.0
 10
-0.4204
 20
-14.0815
 30
0.0
  0
SPLINE
  5
9D
330
1F
100
AcDbEntity
  8
DATUMS
 62
   250
100
AcDbSpline
210
0.0
220
0.0
230
1.0
 70
    24
 71
     3
 72
     8
 73
     4
 74
     0
 42
0.0000000001
 43
0.0000000001
 40
0.0
 40
0.0
 40
0.0
 40
0.0
 40
1.0
 40
1.0
 40
1.0
 40
1.0
 10
-17.8879
 20
-13.788
 30
0.0
 10
-17.8879
 20
-13.788
 30
0.0
 10
-0.447
 20
-13.3344
 30
0.0
 10
-0.447
 20
-13.3344
 30
0.0
  0
SPLINE
  5
9E
330
1F
100
AcDbEntity
  8
DATUMS
 62
   250
100
AcDbSpline
210
0.0
220
0.0
230
1.0
 70
    24
 71
     3
 72
     8
 73
     4
 74
     0
 42
0.0000000001
 43
0.0000000001
 40
0.0
 40
0.0
 40
0.0
 40
0.0
 40
1.0
 40
1.0
 40
1.0
 40
1.0
 10
-17.808
 20
-13.2009
 30
0.0
 10
-17.808
 20
-13.2009
 30
0.0
 10
-0.3671
 20
-12.7473
 30
0.0
 10
-0.3671
 20
-12.7473
 30
0.0
  0
SPLINE
  5
9F
330
1F
100
AcDbEntity
  8
DATUMS
 62
   250
100
AcDbSpline
210
0.0
220
0.0
230
1.0
 70
    24
 71
     3
 72
     8
 73
     4
 74
     0
 42
0.0000000001
 43
0.0000000001
 40
0.0
 40
0.0
 40
0.0
 40
0.0
 40
1.0
 40
1.0
 40
1.0
 40
1.0
 10
-22.61
 20
1.1021
 30
0.0
 10
-22.61
 20
1.1021
 30
0.0
 10
-22.753
 20
3.1484
 30
0.0
 10
-22.753
 20
3.1484
 30
0.0
  0
SPLINE
  5
A0
330
1F
100
AcDbEntity
  8
DATUMS
 62
   250
100
AcDbSpline
210
0.0
220
0.0
230
1.0
 70
    24
 71
     3
 72
     8
 73
     4
 74
     0
 42
0.0000000001
 43
0.0000000001
 40
0.0
 40
0.0
 40
0.0
 40
0.0
 40
1.0
 40
1.0
 40
1.0
 40
1.0
 10
-22.0136
 20
4.2576
 30
0.0
 10
-22.0136
 20
4.2576
 30
0.0
 10
-22.0136
 20
3.1484
 30
0.0
 10
-22.0136
 20
3.1484
 30
0.0
  0
SPLINE
  5
A1
330
1F
100
AcDbEntity
  8
DATUMS
 62
   250
100
AcDbSpline
210
0.0
220
0.0
230
1.0
 70
    24
 71
     3
 72
     8
 73
     4
 74
     0
 42
0.0000000001
 43
0.0000000001
 40
0.0
 40
0.0
 40
0.0
 40
0.0
 40
1.0
 40
1.0
 40
1.0
 40
1.0
 10
-17.4526
 20
-11.6403
 30
0.0
 10
-17.4526
 20
-11.6403
 30
0.0
 10
-18.759
 20
0.9152
 30
0.0
 10
-18.759
 20
0.9152
 30
0.0
  0
SPLINE
  5
A2
330
1F
100
AcDbEntity
  8
DATUMS
 62
   250
100
AcDbSpline
210
0.0
220
0.0
230
1.0
 70
    24
 71
     3
 72
     8
 73
     4
 74
     0
 42
0.0000000001
 43
0.0000000001
 40
0.0
 40
0.0
 40
0.0
 40
0.0
 40
1.0
 40
1.0
 40
1.0
 40
1.0
 10
-17.8542
 20
-17.9256
 30
0.0
 10
-17.8542
 20
-17.9256
 30
0.0
 10
-17.8542
 20
-12.7495
 30
0.0
 10
-17.8542
 20
-12.7495
 30
0.0
  0
SPLINE
  5
A3
330
1F
100
AcDbEntity
  8
DATUMS
 62
   250
100
AcDbSpline
210
0.0
220
0.0
230
1.0
 70
    24
 71
     3
 72
     8
 73
     4
 74
     0
 42
0.0000000001
 43
0.0000000001
 40
0.0
 40
0.0
 40
0.0
 40
0.0
 40
1.0
 40
1.0
 40
1.0
 40
1.0
 10
-17.4526
 20
-12.7495
 30
0.0
 10
-17.4526
 20
-12.7495
 30
0.0
 10
-17.4526
 20
-11.6403
 30
0.0
 10
-17.4526
 20
-11.6403
 30
0.0
  0
SPLINE
  5
A4
330
1F
100
AcDbEntity
  8
DATUMS
 62
   250
100
AcDbSpline
210
0.0
220
0.0
230
1.0
 70
    24
 71
     3
 72
     8
 73
     4
 74
     0
 42
0.0000000001
 43
0.0000000001
 40
0.0
 40
0.0
 40
0.0
 40
0.0
 40
1.0
 40
1.0
 40
1.0
 40
1.0
 10
-17.2997
 20
-18.2953
 30
0.0
 10
-17.2997
 20
-18.2953
 30
0.0
 10
-17.2997
 20
-17.9256
 30
0.0
 10
-17.2997
 20
-17.9256
 30
0.0
  0
SPLINE
  5
A5
330
1F
100
AcDbEntity
  8
DATUMS
 62
   250
100
AcDbSpline
210
0.0
220
0.0
230
1.0
 70
    24
 71
     3
 72
     8
 73
     4
 74
     0
 42
0.0000000001
 43
0.0000000001
 40
0.0
 40
0.0
 40
0.0
 40
0.0
 40
1.0
 40
1.0
 40
1.0
 40
1.0
 10
-17.2997
 20
-18.2953
 30
0.0
 10
-17.2997
 20
-18.2953
 30
0.0
 10
-0.8471
 20
-18.2953
 30
0.0
 10
-0.8471
 20
-18.2953
 30
0.0
  0
SPLINE
  5
A6
330
1F
100
AcDbEntity
  8
DATUMS
 62
   250
100
AcDbSpline
210
0.0
220
0.0
230
1.0
 70
    24
 71
     3
 72
     8
 73
     4
 74
     0
 42
0.0000000001
 43
0.0000000001
 40
0.0
 40
0.0
 40
0.0
 40
0.0
 40
1.0
 40
1.0
 40
1.0
 40
1.0
 10
-17.8542
 20
-17.9256
 30
0.0
 10
-17.8542
 20
-17.9256
 30
0.0
 10
-0.2926
 20
-17.9256
 30
0.0
 10
-0.2926
 20
-17.9256
 30
0.0
  0
SPLINE
  5
A7
330
1F
100
AcDbEntity
  8
DATUMS
 62
   250
100
AcDbSpline
210
0.0
220
0.0
230
1.0
 70
    24
 71
     3
 72
     8
 73
     4
 74
     0
 42
0.0000000001
 43
0.0000000001
 40
0.0
 40
0.0
 40
0.0
 40
0.0
 40
1.0
 40
1.0
 40
1.0
 40
1.0
 10
-17.8542
 20
-12.7495
 30
0.0
 10
-17.8542
 20
-12.7495
 30
0.0
 10
-0.2926
 20
-12.7495
 30
0.0
 10
-0.2926
 20
-12.7495
 30
0.0
  0
SPLINE
  5
A8
330
1F
100
AcDbEntity
  8
DATUMS
 62
   250
100
AcDbSpline
210
0.0
220
0.0
230
1.0
 70
    24
 71
     3
 72
     8
 73
     4
 74
     0
 42
0.0000000001
 43
0.0000000001
 40
0.0
 40
0.0
 40
0.0
 40
0.0
 40
1.0
 40
1.0
 40
1.0
 40
1.0
 10
-17.4526
 20
-11.6403
 30
0.0
 10
-17.4526
 20
-11.6403
 30
0.0
 10
-0.6943
 20
-11.6403
 30
0.0
 10
-0.6943
 20
-11.6403
 30
0.0
  0
SPLINE
  5
A9
330
1F
100
AcDbEntity
  8
DATUMS
 62
   250
100
AcDbSpline
210
0.0
220
0.0
230
1.0
 70
    24
 71
     3
 72
     8
 73
     4
 74
     0
 42
0.0000000001
 43
0.0000000001
 40
0.0
 40
0.0
 40
0.0
 40
0.0
 40
1.0
 40
1.0
 40
1.0
 40
1.0
 10
-0.8471
 20
-18.2953
 30
0.0
 10
-0.8471
 20
-18.2953
 30
0.0
 10
-0.8471
 20
-17.9256
 30
0.0
 10
-0.8471
 20
-17.9256
 30
0.0
  0
SPLINE
  5
AA
330
1F
100
AcDbEntity
  8
DATUMS
 62
   250
100
AcDbSpline
210
0.0
220
0.0
230
1.0
 70
    24
 71
     3
 72
     8
 73
     4
 74
     0
 42
0.0000000001
 43
0.0000000001
 40
0.0
 40
0.0
 40
0.0
 40
0.0
 40
1.0
 40
1.0
 40
1.0
 40
1.0
 10
-0.6943
 20
-12.7495
 30
0.0
 10
-0.6943
 20
-12.7495
 30
0.0
 10
-0.6943
 20
-11.6403
 30
0.0
 10
-0.6943
 20
-11.6403
 30
0.0
  0
SPLINE
  5
AB
330
1F
100
AcDbEntity
  8
DATUMS
 62
   250
100
AcDbSpline
210
0.0
220
0.0
230
1.0
 70
    24
 71
     3
 72
     8
 73
     4
 74
     0
 42
0.0000000001
 43
0.0000000001
 40
0.0
 40
0.0
 40
0.0
 40
0.0
 40
1.0
 40
1.0
 40
1.0
 40
1.0
 10
-0.2925
 20
-17.9256
 30
0.0
 10
-0.2925
 20
-17.9256
 30
0.0
 10
-0.2925
 20
-12.7495
 30
0.0
 10
-0.2925
 20
-12.7495
 30
0.0
  0
SPLINE
  5
AC
330
1F
100
AcDbEntity
  8
DATUMS
 62
   250
100
AcDbSpline
210
0.0
220
0.0
230
1.0
 70
    24
 71
     3
 72
     8
 73
     4
 74
     0
 42
0.0000000001
 43
0.0000000001
 40
0.0
 40
0.0
 40
0.0
 40
0.0
 40
1.0
 40
1.0
 40
1.0
 40
1.0
 10
-0.6943
 20
-11.6403
 30
0.0
 10
-0.6943
 20
-11.6403
 30
0.0
 10
-0.6365
 20
-11.0858
 30
0.0
 10
-0.6365
 20
-11.0858
 30
0.0
  0
SPLINE
  5
AD
330
1F
100
AcDbEntity
  8
DATUMS
 62
   250
100
AcDbSpline
210
0.0
220
0.0
230
1.0
 70
    24
 71
     3
 72
     8
 73
     4
 74
     0
 42
0.0000000001
 43
0.0000000001
 40
0.0
 40
0.0
 40
0.0
 40
0.0
 40
1.0
 40
1.0
 40
1.0
 40
1.0
 10
0.3252
 20
-1.8428
 30
0.0
 10
0.3252
 20
-1.8428
 30
0.0
 10
0.6093
 20
0.8872
 30
0.0
 10
0.6093
 20
0.8872
 30
0.0
  0
SPLINE
  5
AE
330
1F
100
AcDbEntity
  8
DATUMS
 62
   250
100
AcDbSpline
210
0.0
220
0.0
230
1.0
 70
    24
 71
     3
 72
     8
 73
     4
 74
     0
 42
0.0000000001
 43
0.0000000001
 40
0.0
 40
0.0
 40
0.0
 40
0.0
 40
1.0
 40
1.0
 40
1.0
 40
1.0
 10
3.8668
 20
4.2576
 30
0.0
 10
3.8668
 20
4.2576
 30
0.0
 10
3.8668
 20
3.1484
 30
0.0
 10
3.8668
 20
3.1484
 30
0.0
  0
SPLINE
  5
AF
330
1F
100
AcDbEntity
  8
DATUMS
 62
   250
100
AcDbSpline
210
0.0
220
0.0
230
1.0
 70
    24
 71
     3
 72
     8
 73
     4
 74
     0
 42
0.0000000001
 43
0.0000000001
 40
0.0
 40
0.0
 40
0.0
 40
0.0
 40
1.0
 40
1.0
 40
1.0
 40
1.0
 10
4.4632
 20
1.1021
 30
0.0
 10
4.4632
 20
1.1021
 30
0.0
 10
4.6063
 20
3.1484
 30
0.0
 10
4.6063
 20
3.1484
 30
0.0
  0
SPLINE
  5
B0
330
1F
100
AcDbEntity
  8
DATUMS
 62
   250
100
AcDbSpline
210
0.0
220
0.0
230
1.0
 70
    24
 71
     3
 72
     8
 73
     4
 74
     0
 42
0.0000000001
 43
0.0000000001
 40
0.0
 40
0.0
 40
0.0
 40
0.0
 40
1.0
 40
1.0
 40
1.0
 40
1.0
 10
-22.753
 20
3.1484
 30
0.0
 10
-22.753
 20
3.1484
 30
0.0
 10
4.6062
 20
3.1484
 30
0.0
 10
4.6062
 20
3.1484
 30
0.0
  0
SPLINE
  5
B1
330
1F
100
AcDbEntity
  8
DATUMS
 62
   250
100
AcDbSpline
210
0.0
220
0.0
230
1.0
 70
    24
 71
     3
 72
     8
 73
     4
 74
     0
 42
0.0000000001
 43
0.0000000001
 40
0.0
 40
0.0
 40
0.0
 40
0.0
 40
1.0
 40
1.0
 40
1.0
 40
1.0
 10
3.8667
 20
4.2576
 30
0.0
 10
3.8667
 20
4.2576
 30
0.0
 10
-22.0135
 20
4.2576
 30
0.0
 10
-22.0135
 20
4.2576
 30
0.0
  0
SPLINE
  5
B2
330
1F
100
AcDbEntity
  8
DATUMS
 62
   250
100
AcDbSpline
210
0.0
220
0.0
230
1.0
 70
     8
 71
     3
 72
    16
 73
    12
 74
     0
 42
0.0000000001
 43
0.0000000001
 40
0.0
 40
0.0
 40
0.0
 40
0.0
 40
0.25
 40
0.25
 40
0.25
 40
0.25
 40
0.5
 40
0.5
 40
0.5
 40
0.5
 40
1.0
 40
1.0
 40
1.0
 40
1.0
 10
9.6305
 20
-0.4605
 30
0.0
 10
9.6305
 20
-0.4605
 30
0.0
 10
9.4126
 20
-0.4564
 30
0.0
 10
9.4126
 20
-0.4564
 30
0.0
 10
9.4126
 20
-0.4564
 30
0.0
 10
9.4126
 20
-0.4564
 30
0.0
 10
9.4126
 20
-12.4722
 30
0.0
 10
9.4126
 20
-12.4722
 30
0.0
 10
9.4126
 20
-12.4722
 30
0.0
 10
9.4126
 20
-12.4722
 30
0.0
 10
9.732
 20
-12.462
 30
0.0
 10
9.732
 20
-12.462
 30
0.0
  0
SPLINE
  5
B3
330
1F
100
AcDbEntity
  8
DATUMS
 62
   250
100
AcDbSpline
210
0.0
220
0.0
230
1.0
 70
     8
 71
     3
 72
    92
 73
    88
 74
     0
 42
0.0000000001
 43
0.0000000001
 40
0.0
 40
0.0
 40
0.0
 40
0.0
 40
0.0434782608695652
 40
0.0434782608695652
 40
0.0434782608695652
 40
0.0434782608695652
 40
0.0869565217391304
 40
0.0869565217391304
 40
0.0869565217391304
 40
0.0869565217391304
 40
0.1304347826086956
 40
0.1304347826086956
 40
0.1304347826086956
 40
0.1304347826086956
 40
0.1739130434782609
 40
0.1739130434782609
 40
0.1739130434782609
 40
0.1739130434782609
 40
0.2173913043478261
 40
0.2173913043478261
 40
0.2173913043478261
 40
0.2173913043478261
 40
0.2608695652173913
 40
0.2608695652173913
 40
0.2608695652173913
 40
0.2608695652173913
 40
0.3043478260869565
 40
0.3043478260869565
 40
0.3043478260869565
 40
0.3043478260869565
 40
0.3478260869565217
 40
0.3478260869565217
 40
0.3478260869565217
 40
0.3478260869565217
 40
0.391304347826087
 40
0.391304347826087
 40
0.391304347826087
 40
0.391304347826087
 40
0.4347826086956522
 40
0.4347826086956522
 40
0.4347826086956522
 40
0.4347826086956522
 40
0.4782608695652174
 40
0.4782608695652174
 40
0.4782608695652174
 40
0.4782608695652174
 40
0.5217391304347826
 40
0.5217391304347826
 40
0.5217391304347826
 40
0.5217391304347826
 40
0.5652173913043478
 40
0.5652173913043478
 40
0.5652173913043478
 40
0.5652173913043478
 40
0.6086956521739131
 40
0.6086956521739131
 40
0.6086956521739131
 40
0.6086956521739131
 40
0.6521739130434783
 40
0.6521739130434783
 40
0.6521739130434783
 40
0.6521739130434783
 40
0.6956521739130435
 40
0.6956521739130435
 40
0.6956521739130435
 40
0.6956521739130435
 40
0.7391304347826086
 40
0.7391304347826086
 40
0.7391304347826086
 40
0.7391304347826086
 40
0.782608695652174
 40
0.782608695652174
 40
0.782608695652174
 40
0.782608695652174
 40
0.8260869565217391
 40
0.8260869565217391
 40
0.8260869565217391
 40
0.8260869565217391
 40
0.8695652173913043
 40
0.8695652173913043
 40
0.8695652173913043
 40
0.8695652173913043
 40
0.9130434782608695
 40
0.9130434782608695
 40
0.9130434782608695
 40
0.9130434782608695
 40
1.0
 40
1.0
 40
1.0
 40
1.0
 10
0.3252
 20
-1.8428
 30
0.0
 10
0.3252
 20
-1.8428
 30
0.0
 10
0.2902
 20
-1.9019
 30
0.0
 10
0.2902
 20
-1.9019
 30
0.0
 10
0.2902
 20
-1.9019
 30
0.0
 10
0.2902
 20
-1.9019
 30
0.0
 10
0.1779
 20
-2.0938
 30
0.0
 10
0.1779
 20
-2.0938
 30
0.0
 10
0.1779
 20
-2.0938
 30
0.0
 10
0.1779
 20
-2.0938
 30
0.0
 10
-0.0041
 20
-2.4154
 30
0.0
 10
-0.0041
 20
-2.4154
 30
0.0
 10
-0.0041
 20
-2.4154
 30
0.0
 10
-0.0041
 20
-2.4154
 30
0.0
 10
-0.2356
 20
-2.8471
 30
0.0
 10
-0.2356
 20
-2.8471
 30
0.0
 10
-0.2356
 20
-2.8471
 30
0.0
 10
-0.2356
 20
-2.8471
 30
0.0
 10
-0.4842
 20
-3.3471
 30
0.0
 10
-0.4842
 20
-3.3471
 30
0.0
 10
-0.4842
 20
-3.3471
 30
0.0
 10
-0.4842
 20
-3.3471
 30
0.0
 10
-0.7315
 20
-3.8982
 30
0.0
 10
-0.7315
 20
-3.8982
 30
0.0
 10
-0.7315
 20
-3.8982
 30
0.0
 10
-0.7315
 20
-3.8982
 30
0.0
 10
-0.9752
 20
-4.5231
 30
0.0
 10
-0.9752
 20
-4.5231
 30
0.0
 10
-0.9752
 20
-4.5231
 30
0.0
 10
-0.9752
 20
-4.5231
 30
0.0
 10
-1.1943
 20
-5.2115
 30
0.0
 10
-1.1943
 20
-5.2115
 30
0.0
 10
-1.1943
 20
-5.2115
 30
0.0
 10
-1.1943
 20
-5.2115
 30
0.0
 10
-1.366
 20
-5.9451
 30
0.0
 10
-1.366
 20
-5.9451
 30
0.0
 10
-1.366
 20
-5.9451
 30
0.0
 10
-1.366
 20
-5.9451
 30
0.0
 10
-1.4699
 20
-6.6814
 30
0.0
 10
-1.4699
 20
-6.6814
 30
0.0
 10
-1.4699
 20
-6.6814
 30
0.0
 10
-1.4699
 20
-6.6814
 30
0.0
 10
-1.5026
 20
-7.3989
 30
0.0
 10
-1.5026
 20
-7.3989
 30
0.0
 10
-1.5026
 20
-7.3989
 30
0.0
 10
-1.5026
 20
-7.3989
 30
0.0
 10
-1.4691
 20
-8.0919
 30
0.0
 10
-1.4691
 20
-8.0919
 30
0.0
 10
-1.4691
 20
-8.0919
 30
0.0
 10
-1.4691
 20
-8.0919
 30
0.0
 10
-1.378
 20
-8.7544
 30
0.0
 10
-1.378
 20
-8.7544
 30
0.0
 10
-1.378
 20
-8.7544
 30
0.0
 10
-1.378
 20
-8.7544
 30
0.0
 10
-1.2493
 20
-9.3467
 30
0.0
 10
-1.2493
 20
-9.3467
 30
0.0
 10
-1.2493
 20
-9.3467
 30
0.0
 10
-1.2493
 20
-9.3467
 30
0.0
 10
-1.1126
 20
-9.8305
 30
0.0
 10
-1.1126
 20
-9.8305
 30
0.0
 10
-1.1126
 20
-9.8305
 30
0.0
 10
-1.1126
 20
-9.8305
 30
0.0
 10
-0.9915
 20
-10.1956
 30
0.0
 10
-0.9915
 20
-10.1956
 30
0.0
 10
-0.9915
 20
-10.1956
 30
0.0
 10
-0.9915
 20
-10.1956
 30
0.0
 10
-0.8902
 20
-10.4716
 30
0.0
 10
-0.8902
 20
-10.4716
 30
0.0
 10
-0.8902
 20
-10.4716
 30
0.0
 10
-0.8902
 20
-10.4716
 30
0.0
 10
-0.8059
 20
-10.6862
 30
0.0
 10
-0.8059
 20
-10.6862
 30
0.0
 10
-0.8059
 20
-10.6862
 30
0.0
 10
-0.8059
 20
-10.6862
 30
0.0
 10
-0.7357
 20
-10.8566
 30
0.0
 10
-0.7357
 20
-10.8566
 30
0.0
 10
-0.7357
 20
-10.8566
 30
0.0
 10
-0.7357
 20
-10.8566
 30
0.0
 10
-0.6815
 20
-10.9832
 30
0.0
 10
-0.6815
 20
-10.9832
 30
0.0
 10
-0.6815
 20
-10.9832
 30
0.0
 10
-0.6815
 20
-10.9832
 30
0.0
 10
-0.6477
 20
-11.0603
 30
0.0
 10
-0.6477
 20
-11.0603
 30
0.0
 10
-0.6477
 20
-11.0603
 30
0.0
 10
-0.6477
 20
-11.0603
 30
0.0
 10
-0.6365
 20
-11.0858
 30
0.0
 10
-0.6365
 20
-11.0858
 30
0.0
  0
SPLINE
  5
B4
330
1F
100
AcDbEntity
  8
DATUMS
 62
   250
100
AcDbSpline
210
0.0
220
0.0
230
1.0
 70
     8
 71
     3
 72
    36
 73
    32
 74
     0
 42
0.0000000001
 43
0.0000000001
 40
0.0
 40
0.0
 40
0.0
 40
0.0
 40
0.1111111111111111
 40
0.1111111111111111
 40
0.1111111111111111
 40
0.1111111111111111
 40
0.2222222222222222
 40
0.2222222222222222
 40
0.2222222222222222
 40
0.2222222222222222
 40
0.3333333333333333
 40
0.3333333333333333
 40
0.3333333333333333
 40
0.3333333333333333
 40
0.4444444444444444
 40
0.4444444444444444
 40
0.4444444444444444
 40
0.4444444444444444
 40
0.5555555555555556
 40
0.5555555555555556
 40
0.5555555555555556
 40
0.5555555555555556
 40
0.6666666666666666
 40
0.6666666666666666
 40
0.6666666666666666
 40
0.6666666666666666
 40
0.7777777777777778
 40
0.7777777777777778
 40
0.7777777777777778
 40
0.7777777777777778
 40
1.0
 40
1.0
 40
1.0
 40
1.0
 10
0.2501
 20
-1.8629
 30
0.0
 10
0.2501
 20
-1.8629
 30
0.0
 10
4.34
 20
-1.9381
 30
0.0
 10
4.34
 20
-1.9381
 30
0.0
 10
4.34
 20
-1.9381
 30
0.0
 10
4.34
 20
-1.9381
 30
0.0
 10
4.4215
 20
-1.8521
 30
0.0
 10
4.4215
 20
-1.8521
 30
0.0
 10
4.4215
 20
-1.8521
 30
0.0
 10
4.4215
 20
-1.8521
 30
0.0
 10
5.3906
 20
-0.8289
 30
0.0
 10
5.3906
 20
-0.8289
 30
0.0
 10
5.3906
 20
-0.8289
 30
0.0
 10
5.3906
 20
-0.8289
 30
0.0
 10
9.4126
 20
-0.8261
 30
0.0
 10
9.4126
 20
-0.8261
 30
0.0
 10
9.4126
 20
-0.8261
 30
0.0
 10
9.4126
 20
-0.8261
 30
0.0
 10
9.4126
 20
-12.1025
 30
0.0
 10
9.4126
 20
-12.1025
 30
0.0
 10
9.4126
 20
-12.1025
 30
0.0
 10
9.4126
 20
-12.1025
 30
0.0
 10
5.3953
 20
-12.0925
 30
0.0
 10
5.3953
 20
-12.0925
 30
0.0
 10
5.3953
 20
-12.0925
 30
0.0
 10
5.3953
 20
-12.0925
 30
0.0
 10
4.4569
 20
-11.0929
 30
0.0
 10
4.4569
 20
-11.0929
 30
0.0
 10
4.4569
 20
-11.0929
 30
0.0
 10
4.4569
 20
-11.0929
 30
0.0
 10
-0.5819
 20
-11.0725
 30
0.0
 10
-0.5819
 20
-11.0725
 30
0.0
  0
SPLINE
  5
B5
330
1F
100
AcDbEntity
  8
DATUMS
 62
   250
100
AcDbSpline
210
0.0
220
0.0
230
1.0
 70
    27
 71
     3
 72
    12
 73
     8
 74
     0
 42
0.0000000001
 43
0.0000000001
 40
0.0
 40
0.0
 40
0.0
 40
0.0
 40
0.3333333333333333
 40
0.3333333333333333
 40
0.3333333333333333
 40
0.3333333333333333
 40
1.0
 40
1.0
 40
1.0
 40
1.0
 10
5.3458
 20
-0.9184
 30
0.0
 10
5.3458
 20
-0.9184
 30
0.0
 10
5.3458
 20
-12.0099
 30
0.0
 10
5.3458
 20
-12.0099
 30
0.0
 10
5.3458
 20
-12.0099
 30
0.0
 10
5.3458
 20
-12.0099
 30
0.0
 10
5.3458
 20
-0.9184
 30
0.0
 10
5.3458
 20
-0.9184
 30
0.0
  0
SPLINE
  5
B6
330
1F
100
AcDbEntity
  8
DATUMS
 62
   250
100
AcDbSpline
210
0.0
220
0.0
230
1.0
 70
    27
 71
     3
 72
    20
 73
    16
 74
     0
 42
0.0000000001
 43
0.0000000001
 40
0.0
 40
0.0
 40
0.0
 40
0.0
 40
0.2
 40
0.2
 40
0.2
 40
0.2
 40
0.4
 40
0.4
 40
0.4
 40
0.4
 40
0.6
 40
0.6
 40
0.6
 40
0.6
 40
1.0
 40
1.0
 40
1.0
 40
1.0
 10
4.4215
 20
-1.8428
 30
0.0
 10
4.4215
 20
-1.8428
 30
0.0
 10
4.4215
 20
-1.8521
 30
0.0
 10
4.4215
 20
-1.8521
 30
0.0
 10
4.4215
 20
-1.8521
 30
0.0
 10
4.4215
 20
-1.8521
 30
0.0
 10
4.4215
 20
-11.0858
 30
0.0
 10
4.4215
 20
-11.0858
 30
0.0
 10
4.4215
 20
-11.0858
 30
0.0
 10
4.4215
 20
-11.0858
 30
0.0
 10
4.4215
 20
-1.8521
 30
0.0
 10
4.4215
 20
-1.8521
 30
0.0
 10
4.4215
 20
-1.8521
 30
0.0
 10
4.4215
 20
-1.8521
 30
0.0
 10
4.4215
 20
-1.8428
 30
0.0
 10
4.4215
 20
-1.8428
 30
0.0
  0
SPLINE
  5
B7
330
1F
100
AcDbEntity
  8
DATUMS
 62
   250
100
AcDbSpline
210
0.0
220
0.0
230
1.0
 70
    24
 71
     3
 72
     8
 73
     4
 74
     0
 42
0.0000000001
 43
0.0000000001
 40
0.0
 40
0.0
 40
0.0
 40
0.0
 40
1.0
 40
1.0
 40
1.0
 40
1.0
 10
-22.4255
 20
0.9301
 30
0.0
 10
-22.4255
 20
0.9301
 30
0.0
 10
4.2786
 20
0.9301
 30
0.0
 10
4.2786
 20
0.9301
 30
0.0
  0
SPLINE
  5
B8
330
1F
100
AcDbEntity
  8
DATUMS
 62
   250
100
AcDbSpline
210
0.0
220
0.0
230
1.0
 70
     8
 71
     3
 72
     8
 73
     4
 74
     0
 42
0.0000000001
 43
0.0000000001
 40
0.0
 40
0.0
 40
0.0
 40
0.0
 40
1.0
 40
1.0
 40
1.0
 40
1.0
 10
-22.61
 20
1.1021
 30
0.0
 10
-22.6032
 20
1.0052
 30
0.0
 10
-22.5226
 20
0.9301
 30
0.0
 10
-22.4255
 20
0.9301
 30
0.0
  0
SPLINE
  5
B9
330
1F
100
AcDbEntity
  8
DATUMS
 62
   250
100
AcDbSpline
210
0.0
220
0.0
230
1.0
 70
     8
 71
     3
 72
     8
 73
     4
 74
     0
 42
0.0000000001
 43
0.0000000001
 40
0.0
 40
0.0
 40
0.0
 40
0.0
 40
1.0
 40
1.0
 40
1.0
 40
1.0
 10
4.2788
 20
0.9301
 30
0.0
 10
4.3759
 20
0.9301
 30
0.0
 10
4.4564
 20
1.0052
 30
0.0
 10
4.4632
 20
1.1021
 30
0.0
  0
SPLINE
  5
BA
330
1F
100
AcDbEntity
  8
DATUMS
 62
   250
100
AcDbSpline
210
0.0
220
0.0
230
1.0
 70
     8
 71
     3
 72
    16
 73
    12
 74
     0
 42
0.0000000001
 43
0.0000000001
 40
0.0
 40
0.0
 40
0.0
 40
0.0
 40
0.25
 40
0.25
 40
0.25
 40
0.25
 40
0.5
 40
0.5
 40
0.5
 40
0.5
 40
1.0
 40
1.0
 40
1.0
 40
1.0
 10
-6.4174
 20
21.1524
 30
0.0
 10
-6.4174
 20
21.1524
 30
0.0
 10
-5.3109
 20
21.1524
 30
0.0
 10
-5.3109
 20
21.1524
 30
0.0
 10
-5.3109
 20
21.1524
 30
0.0
 10
-5.3109
 20
21.1524
 30
0.0
 10
-5.2981
 20
19.7343
 30
0.0
 10
-5.2981
 20
19.7343
 30
0.0
 10
-5.2981
 20
19.7343
 30
0.0
 10
-5.2981
 20
19.7343
 30
0.0
 10
-6.3793
 20
19.7109
 30
0.0
 10
-6.3793
 20
19.7109
 30
0.0
  0
SPLINE
  5
BB
330
1F
100
AcDbEntity
  8
DATUMS
 62
   250
100
AcDbSpline
210
0.0
220
0.0
230
1.0
 70
     8
 71
     3
 72
    24
 73
    20
 74
     0
 42
0.0000000001
 43
0.0000000001
 40
0.0
 40
0.0
 40
0.0
 40
0.0
 40
0.1666666666666667
 40
0.1666666666666667
 40
0.1666666666666667
 40
0.1666666666666667
 40
0.3333333333333333
 40
0.3333333333333333
 40
0.3333333333333333
 40
0.3333333333333333
 40
0.5
 40
0.5
 40
0.5
 40
0.5
 40
0.6666666666666666
 40
0.6666666666666666
 40
0.6666666666666666
 40
0.6666666666666666
 40
1.0
 40
1.0
 40
1.0
 40
1.0
 10
-11.7368
 20
20.9396
 30
0.0
 10
-11.7368
 20
20.9396
 30
0.0
 10
-12.5512
 20
20.7082
 30
0.0
 10
-12.5512
 20
20.7082
 30
0.0
 10
-12.5512
 20
20.7082
 30
0.0
 10
-12.632
 20
20.6865
 30
0.0
 10
-12.6879
 20
20.6137
 30
0.0
 10
-12.6879
 20
20.53
 30
0.0
 10
-12.6879
 20
20.53
 30
0.0
 10
-12.6879
 20
20.53
 30
0.0
 10
-12.6858
 20
20.2098
 30
0.0
 10
-12.6858
 20
20.2098
 30
0.0
 10
-12.6858
 20
20.2098
 30
0.0
 10
-12.6858
 20
20.2098
 30
0.0
 10
-12.5424
 20
20.1214
 30
0.0
 10
-12.5424
 20
20.1214
 30
0.0
 10
-12.5424
 20
20.1214
 30
0.0
 10
-12.5424
 20
20.1214
 30
0.0
 10
-11.7201
 20
19.856
 30
0.0
 10
-11.7201
 20
19.856
 30
0.0
  0
SPLINE
  5
BC
330
1F
100
AcDbEntity
  8
DATUMS
 62
   250
100
AcDbSpline
210
0.0
220
0.0
230
1.0
 70
     8
 71
     3
 72
    36
 73
    32
 74
     0
 42
0.0000000001
 43
0.0000000001
 40
0.0
 40
0.0
 40
0.0
 40
0.0
 40
0.1111111111111111
 40
0.1111111111111111
 40
0.1111111111111111
 40
0.1111111111111111
 40
0.2222222222222222
 40
0.2222222222222222
 40
0.2222222222222222
 40
0.2222222222222222
 40
0.3333333333333333
 40
0.3333333333333333
 40
0.3333333333333333
 40
0.3333333333333333
 40
0.4444444444444444
 40
0.4444444444444444
 40
0.4444444444444444
 40
0.4444444444444444
 40
0.5555555555555556
 40
0.5555555555555556
 40
0.5555555555555556
 40
0.5555555555555556
 40
0.6666666666666666
 40
0.6666666666666666
 40
0.6666666666666666
 40
0.6666666666666666
 40
0.7777777777777778
 40
0.7777777777777778
 40
0.7777777777777778
 40
0.7777777777777778
 40
1.0
 40
1.0
 40
1.0
 40
1.0
 10
-10.5359
 20
19.3867
 30
0.0
 10
-10.5359
 20
19.3867
 30
0.0
 10
-10.5359
 20
22.7115
 30
0.0
 10
-10.5359
 20
22.7115
 30
0.0
 10
-10.5359
 20
22.7115
 30
0.0
 10
-10.5359
 20
22.7115
 30
0.0
 10
-10.616
 20
22.9167
 30
0.0
 10
-10.616
 20
22.9167
 30
0.0
 10
-10.616
 20
22.9167
 30
0.0
 10
-11.4287
 20
23.5839
 30
0.0
 10
-11.7348
 20
24.6897
 30
0.0
 10
-11.3804
 20
25.68
 30
0.0
 10
-11.3804
 20
25.68
 30
0.0
 10
-11.0263
 20
26.6699
 30
0.0
 10
-10.0878
 20
27.3307
 30
0.0
 10
-9.0364
 20
27.3307
 30
0.0
 10
-9.0364
 20
27.3307
 30
0.0
 10
-7.9847
 20
27.3307
 30
0.0
 10
-7.0465
 20
26.6699
 30
0.0
 10
-6.6922
 20
25.68
 30
0.0
 10
-6.6922
 20
25.68
 30
0.0
 10
-6.3378
 20
24.6897
 30
0.0
 10
-6.6439
 20
23.5839
 30
0.0
 10
-7.4565
 20
22.9167
 30
0.0
 10
-7.4565
 20
22.9167
 30
0.0
 10
-7.4565
 20
22.9167
 30
0.0
 10
-7.5706
 20
22.5939
 30
0.0
 10
-7.5706
 20
22.5939
 30
0.0
 10
-7.5706
 20
22.5939
 30
0.0
 10
-7.5706
 20
22.5939
 30
0.0
 10
-7.5472
 20
19.3632
 30
0.0
 10
-7.5472
 20
19.3632
 30
0.0
  0
SPLINE
  5
BD
330
1F
100
AcDbEntity
  8
DATUMS
 62
   250
100
AcDbSpline
210
0.0
220
0.0
230
1.0
 70
     8
 71
     3
 72
    40
 73
    36
 74
     0
 42
0.0000000001
 43
0.0000000001
 40
0.0
 40
0.0
 40
0.0
 40
0.0
 40
0.1
 40
0.1
 40
0.1
 40
0.1
 40
0.2
 40
0.2
 40
0.2
 40
0.2
 40
0.3
 40
0.3
 40
0.3
 40
0.3
 40
0.4
 40
0.4
 40
0.4
 40
0.4
 40
0.5
 40
0.5
 40
0.5
 40
0.5
 40
0.6
 40
0.6
 40
0.6
 40
0.6
 40
0.7
 40
0.7
 40
0.7
 40
0.7
 40
0.8
 40
0.8
 40
0.8
 40
0.8
 40
1.0
 40
1.0
 40
1.0
 40
1.0
 10
-10.5294
 20
19.4156
 30
0.0
 10
-10.5294
 20
19.4156
 30
0.0
 10
-10.5617
 20
19.27
 30
0.0
 10
-10.5617
 20
19.27
 30
0.0
 10
-10.5617
 20
19.27
 30
0.0
 10
-10.5617
 20
19.27
 30
0.0
 10
-11.6654
 20
19.2687
 30
0.0
 10
-11.6654
 20
19.2687
 30
0.0
 10
-11.6654
 20
19.2687
 30
0.0
 10
-11.6654
 20
19.2687
 30
0.0
 10
-11.6552
 20
22.2436
 30
0.0
 10
-11.6552
 20
22.2436
 30
0.0
 10
-11.6552
 20
22.2436
 30
0.0
 10
-13.087
 20
23.6872
 30
0.0
 10
-13.0806
 20
26.0171
 30
0.0
 10
-11.6408
 20
27.4527
 30
0.0
 10
-11.6408
 20
27.4527
 30
0.0
 10
-10.2014
 20
28.8884
 30
0.0
 10
-7.8712
 20
28.8884
 30
0.0
 10
-6.4317
 20
27.4527
 30
0.0
 10
-6.4317
 20
27.4527
 30
0.0
 10
-4.992
 20
26.0171
 30
0.0
 10
-4.9858
 20
23.6872
 30
0.0
 10
-6.4174
 20
22.2436
 30
0.0
 10
-6.4174
 20
22.2436
 30
0.0
 10
-6.4174
 20
22.2436
 30
0.0
 10
-6.4648
 20
19.2924
 30
0.0
 10
-6.4648
 20
19.2924
 30
0.0
 10
-6.4648
 20
19.2924
 30
0.0
 10
-6.4648
 20
19.2924
 30
0.0
 10
-7.5116
 20
19.2862
 30
0.0
 10
-7.5116
 20
19.2862
 30
0.0
 10
-7.5116
 20
19.2862
 30
0.0
 10
-7.5116
 20
19.2862
 30
0.0
 10
-7.5923
 20
19.3994
 30
0.0
 10
-7.5923
 20
19.3994
 30
0.0
  0
SPLINE
  5
BE
330
1F
100
AcDbEntity
  8
DATUMS
 62
   250
100
AcDbSpline
210
0.0
220
0.0
230
1.0
 70
     8
 71
     3
 72
    88
 73
    84
 74
     0
 42
0.0000000001
 43
0.0000000001
 40
0.0
 40
0.0
 40
0.0
 40
0.0
 40
0.0454545454545455
 40
0.0454545454545455
 40
0.0454545454545455
 40
0.0454545454545455
 40
0.0909090909090909
 40
0.0909090909090909
 40
0.0909090909090909
 40
0.0909090909090909
 40
0.1363636363636364
 40
0.1363636363636364
 40
0.1363636363636364
 40
0.1363636363636364
 40
0.1818181818181818
 40
0.1818181818181818
 40
0.1818181818181818
 40
0.1818181818181818
 40
0.2272727272727273
 40
0.2272727272727273
 40
0.2272727272727273
 40
0.2272727272727273
 40
0.2727272727272727
 40
0.2727272727272727
 40
0.2727272727272727
 40
0.2727272727272727
 40
0.3181818181818182
 40
0.3181818181818182
 40
0.3181818181818182
 40
0.3181818181818182
 40
0.3636363636363636
 40
0.3636363636363636
 40
0.3636363636363636
 40
0.3636363636363636
 40
0.4090909090909091
 40
0.4090909090909091
 40
0.4090909090909091
 40
0.4090909090909091
 40
0.4545454545454545
 40
0.4545454545454545
 40
0.4545454545454545
 40
0.4545454545454545
 40
0.5
 40
0.5
 40
0.5
 40
0.5
 40
0.5454545454545454
 40
0.5454545454545454
 40
0.5454545454545454
 40
0.5454545454545454
 40
0.5909090909090909
 40
0.5909090909090909
 40
0.5909090909090909
 40
0.5909090909090909
 40
0.6363636363636364
 40
0.6363636363636364
 40
0.6363636363636364
 40
0.6363636363636364
 40
0.6818181818181818
 40
0.6818181818181818
 40
0.6818181818181818
 40
0.6818181818181818
 40
0.7272727272727273
 40
0.7272727272727273
 40
0.7272727272727273
 40
0.7272727272727273
 40
0.7727272727272727
 40
0.7727272727272727
 40
0.7727272727272727
 40
0.7727272727272727
 40
0.8181818181818182
 40
0.8181818181818182
 40
0.8181818181818182
 40
0.8181818181818182
 40
0.8636363636363636
 40
0.8636363636363636
 40
0.8636363636363636
 40
0.8636363636363636
 40
0.9090909090909091
 40
0.9090909090909091
 40
0.9090909090909091
 40
0.9090909090909091
 40
1.0
 40
1.0
 40
1.0
 40
1.0
 10
-10.5143
 20
18.8175
 30
0.0
 10
-10.5143
 20
18.8175
 30
0.0
 10
-10.5098
 20
20.9619
 30
0.0
 10
-10.5098
 20
20.9619
 30
0.0
 10
-10.5098
 20
20.9619
 30
0.0
 10
-10.5098
 20
20.9619
 30
0.0
 10
-10.5041
 20
21.0715
 30
0.0
 10
-10.5041
 20
21.0715
 30
0.0
 10
-10.5041
 20
21.0715
 30
0.0
 10
-10.5041
 20
21.0715
 30
0.0
 10
-10.4784
 20
21.2324
 30
0.0
 10
-10.4784
 20
21.2324
 30
0.0
 10
-10.4784
 20
21.2324
 30
0.0
 10
-10.4784
 20
21.2324
 30
0.0
 10
-10.4345
 20
21.39
 30
0.0
 10
-10.4345
 20
21.39
 30
0.0
 10
-10.4345
 20
21.39
 30
0.0
 10
-10.4345
 20
21.39
 30
0.0
 10
-10.373
 20
21.5421
 30
0.0
 10
-10.373
 20
21.5421
 30
0.0
 10
-10.373
 20
21.5421
 30
0.0
 10
-10.373
 20
21.5421
 30
0.0
 10
-10.2946
 20
21.6864
 30
0.0
 10
-10.2946
 20
21.6864
 30
0.0
 10
-10.2946
 20
21.6864
 30
0.0
 10
-10.2946
 20
21.6864
 30
0.0
 10
-10.2003
 20
21.8209
 30
0.0
 10
-10.2003
 20
21.8209
 30
0.0
 10
-10.2003
 20
21.8209
 30
0.0
 10
-10.2003
 20
21.8209
 30
0.0
 10
-10.0914
 20
21.9438
 30
0.0
 10
-10.0914
 20
21.9438
 30
0.0
 10
-10.0914
 20
21.9438
 30
0.0
 10
-10.0914
 20
21.9438
 30
0.0
 10
-9.9693
 20
22.0535
 30
0.0
 10
-9.9693
 20
22.0535
 30
0.0
 10
-9.9693
 20
22.0535
 30
0.0
 10
-9.9693
 20
22.0535
 30
0.0
 10
-9.8355
 20
22.1487
 30
0.0
 10
-9.8355
 20
22.1487
 30
0.0
 10
-9.8355
 20
22.1487
 30
0.0
 10
-9.8355
 20
22.1487
 30
0.0
 10
-9.6917
 20
22.2281
 30
0.0
 10
-9.6917
 20
22.2281
 30
0.0
 10
-9.6917
 20
22.2281
 30
0.0
 10
-9.6917
 20
22.2281
 30
0.0
 10
-9.5398
 20
22.2908
 30
0.0
 10
-9.5398
 20
22.2908
 30
0.0
 10
-9.5398
 20
22.2908
 30
0.0
 10
-9.5398
 20
22.2908
 30
0.0
 10
-9.3816
 20
22.3359
 30
0.0
 10
-9.3816
 20
22.3359
 30
0.0
 10
-9.3816
 20
22.3359
 30
0.0
 10
-9.3816
 20
22.3359
 30
0.0
 10
-9.2191
 20
22.3628
 30
0.0
 10
-9.2191
 20
22.3628
 30
0.0
 10
-9.2191
 20
22.3628
 30
0.0
 10
-9.2191
 20
22.3628
 30
0.0
 10
-9.0628
 20
22.3712
 30
0.0
 10
-9.0628
 20
22.3712
 30
0.0
 10
-9.0628
 20
22.3712
 30
0.0
 10
-9.0628
 20
22.3712
 30
0.0
 10
-8.7391
 20
22.3395
 30
0.0
 10
-8.7391
 20
22.3395
 30
0.0
 10
-8.7391
 20
22.3395
 30
0.0
 10
-8.7391
 20
22.3395
 30
0.0
 10
-8.2243
 20
22.1438
 30
0.0
 10
-8.2243
 20
22.1438
 30
0.0
 10
-8.2243
 20
22.1438
 30
0.0
 10
-8.2243
 20
22.1438
 30
0.0
 10
-7.8337
 20
21.7703
 30
0.0
 10
-7.8337
 20
21.7703
 30
0.0
 10
-7.8337
 20
21.7703
 30
0.0
 10
-7.8337
 20
21.7703
 30
0.0
 10
-7.6385
 20
21.3789
 30
0.0
 10
-7.6385
 20
21.3789
 30
0.0
 10
-7.6385
 20
21.3789
 30
0.0
 10
-7.6385
 20
21.3789
 30
0.0
 10
-7.5675
 20
21.0588
 30
0.0
 10
-7.5675
 20
21.0588
 30
0.0
 10
-7.5675
 20
21.0588
 30
0.0
 10
-7.5675
 20
21.0588
 30
0.0
 10
-7.5675
 20
18.8353
 30
0.0
 10
-7.5675
 20
18.8353
 30
0.0
  0
SPLINE
  5
BF
330
1F
100
AcDbEntity
  8
DATUMS
 62
   250
100
AcDbSpline
210
0.0
220
0.0
230
1.0
 70
    11
 71
     3
 72
    56
 73
    52
 74
     0
 42
0.0000000001
 43
0.0000000001
 40
0.0
 40
0.0
 40
0.0
 40
0.0
 40
0.0714285714285714
 40
0.0714285714285714
 40
0.0714285714285714
 40
0.0714285714285714
 40
0.1428571428571428
 40
0.1428571428571428
 40
0.1428571428571428
 40
0.1428571428571428
 40
0.2142857142857143
 40
0.2142857142857143
 40
0.2142857142857143
 40
0.2142857142857143
 40
0.2857142857142857
 40
0.2857142857142857
 40
0.2857142857142857
 40
0.2857142857142857
 40
0.3571428571428572
 40
0.3571428571428572
 40
0.3571428571428572
 40
0.3571428571428572
 40
0.4285714285714285
 40
0.4285714285714285
 40
0.4285714285714285
 40
0.4285714285714285
 40
0.5
 40
0.5
 40
0.5
 40
0.5
 40
0.5714285714285714
 40
0.5714285714285714
 40
0.5714285714285714
 40
0.5714285714285714
 40
0.6428571428571429
 40
0.6428571428571429
 40
0.6428571428571429
 40
0.6428571428571429
 40
0.7142857142857143
 40
0.7142857142857143
 40
0.7142857142857143
 40
0.7142857142857143
 40
0.7857142857142857
 40
0.7857142857142857
 40
0.7857142857142857
 40
0.7857142857142857
 40
0.8571428571428571
 40
0.8571428571428571
 40
0.8571428571428571
 40
0.8571428571428571
 40
1.0
 40
1.0
 40
1.0
 40
1.0
 10
-10.5135
 20
18.7955
 30
0.0
 10
-12.8438
 20
18.6856
 30
0.0
 10
-15.1544
 20
18.3149
 30
0.0
 10
-17.4022
 20
17.6906
 30
0.0
 10
-17.4022
 20
17.6906
 30
0.0
 10
-17.4022
 20
17.6906
 30
0.0
 10
-16.5794
 20
14.3056
 30
0.0
 10
-16.5794
 20
14.3056
 30
0.0
 10
-16.5794
 20
14.3056
 30
0.0
 10
-16.5794
 20
14.3056
 30
0.0
 10
-1.426
 20
14.4269
 30
0.0
 10
-1.426
 20
14.4269
 30
0.0
 10
-1.426
 20
14.4269
 30
0.0
 10
-1.426
 20
14.4269
 30
0.0
 10
-0.6756
 20
17.7015
 30
0.0
 10
-0.6756
 20
17.7015
 30
0.0
 10
-0.6756
 20
17.7015
 30
0.0
 10
-0.6756
 20
17.7015
 30
0.0
 10
-2.2248
 20
18.0896
 30
0.0
 10
-2.2248
 20
18.0896
 30
0.0
 10
-2.2248
 20
18.0896
 30
0.0
 10
-2.2248
 20
18.0896
 30
0.0
 10
-4.234
 20
18.4534
 30
0.0
 10
-4.234
 20
18.4534
 30
0.0
 10
-4.234
 20
18.4534
 30
0.0
 10
-4.234
 20
18.4534
 30
0.0
 10
-5.9042
 20
18.6717
 30
0.0
 10
-5.9042
 20
18.6717
 30
0.0
 10
-5.9042
 20
18.6717
 30
0.0
 10
-5.9042
 20
18.6717
 30
0.0
 10
-7.5019
 20
18.8172
 30
0.0
 10
-7.5019
 20
18.8172
 30
0.0
 10
-7.5019
 20
18.8172
 30
0.0
 10
-7.5019
 20
18.8172
 30
0.0
 10
-8.1554
 20
18.6717
 30
0.0
 10
-8.1554
 20
18.6717
 30
0.0
 10
-8.1554
 20
18.6717
 30
0.0
 10
-8.1554
 20
18.6717
 30
0.0
 10
-8.9059
 20
18.6475
 30
0.0
 10
-8.9059
 20
18.6475
 30
0.0
 10
-8.9059
 20
18.6475
 30
0.0
 10
-8.9059
 20
18.6475
 30
0.0
 10
-9.6563
 20
18.6232
 30
0.0
 10
-9.6563
 20
18.6232
 30
0.0
 10
-9.6563
 20
18.6232
 30
0.0
 10
-9.6563
 20
18.6232
 30
0.0
 10
-10.1646
 20
18.7202
 30
0.0
 10
-10.1646
 20
18.7202
 30
0.0
 10
-10.1646
 20
18.7202
 30
0.0
 10
-10.1646
 20
18.7202
 30
0.0
 10
-10.5135
 20
18.7955
 30
0.0
 10
-10.5135
 20
18.7955
 30
0.0
  0
SPLINE
  5
C0
330
1F
100
AcDbEntity
  8
DATUMS
 62
   250
100
AcDbSpline
210
0.0
220
0.0
230
1.0
 70
    11
 71
     3
 72
    20
 73
    16
 74
     0
 42
0.0000000001
 43
0.0000000001
 40
0.0
 40
0.0
 40
0.0
 40
0.0
 40
0.2
 40
0.2
 40
0.2
 40
0.2
 40
0.4
 40
0.4
 40
0.4
 40
0.4
 40
0.6
 40
0.6
 40
0.6
 40
0.6
 40
1.0
 40
1.0
 40
1.0
 40
1.0
 10
-21.9038
 20
8.9205
 30
0.0
 10
-21.9038
 20
8.9205
 30
0.0
 10
3.7907
 20
8.9205
 30
0.0
 10
3.7907
 20
8.9205
 30
0.0
 10
3.7907
 20
8.9205
 30
0.0
 10
3.7907
 20
8.9205
 30
0.0
 10
3.7907
 20
8.2125
 30
0.0
 10
3.7907
 20
8.2125
 30
0.0
 10
3.7907
 20
8.2125
 30
0.0
 10
3.7907
 20
8.2125
 30
0.0
 10
-21.9038
 20
8.2125
 30
0.0
 10
-21.9038
 20
8.2125
 30
0.0
 10
-21.9038
 20
8.2125
 30
0.0
 10
-21.9038
 20
8.2125
 30
0.0
 10
-21.9038
 20
8.9205
 30
0.0
 10
-21.9038
 20
8.9205
 30
0.0
  0
SPLINE
  5
C1
330
1F
100
AcDbEntity
  8
DATUMS
 62
   250
100
AcDbSpline
210
0.0
220
0.0
230
1.0
 70
     8
 71
     3
 72
    12
 73
     8
 74
     0
 42
0.0000000001
 43
0.0000000001
 40
0.0
 40
0.0
 40
0.0
 40
0.0
 40
0.3333333333333333
 40
0.3333333333333333
 40
0.3333333333333333
 40
0.3333333333333333
 40
1.0
 40
1.0
 40
1.0
 40
1.0
 10
0.3041
 20
11.8478
 30
0.0
 10
-0.1281
 20
11.8478
 30
0.0
 10
-0.5019
 20
11.5465
 30
0.0
 10
-0.5937
 20
11.1242
 30
0.0
 10
-0.5937
 20
11.1242
 30
0.0
 10
-0.5937
 20
11.1242
 30
0.0
 10
-1.0595
 20
8.8784
 30
0.0
 10
-1.0595
 20
8.8784
 30
0.0
  0
SPLINE
  5
C2
330
1F
100
AcDbEntity
  8
DATUMS
 62
   250
100
AcDbSpline
210
0.0
220
0.0
230
1.0
 70
     8
 71
     3
 72
    24
 73
    20
 74
     0
 42
0.0000000001
 43
0.0000000001
 40
0.0
 40
0.0
 40
0.0
 40
0.0
 40
0.1666666666666667
 40
0.1666666666666667
 40
0.1666666666666667
 40
0.1666666666666667
 40
0.3333333333333333
 40
0.3333333333333333
 40
0.3333333333333333
 40
0.3333333333333333
 40
0.5
 40
0.5
 40
0.5
 40
0.5
 40
0.6666666666666666
 40
0.6666666666666666
 40
0.6666666666666666
 40
0.6666666666666666
 40
1.0
 40
1.0
 40
1.0
 40
1.0
 10
-11.3228
 20
6.8867
 30
0.0
 10
-11.3228
 20
6.8867
 30
0.0
 10
-10.458
 20
6.0217
 30
0.0
 10
-10.458
 20
6.0217
 30
0.0
 10
-10.458
 20
6.0217
 30
0.0
 10
-10.458
 20
6.0217
 30
0.0
 10
-10.1443
 20
6.0216
 30
0.0
 10
-10.1443
 20
6.0216
 30
0.0
 10
-10.1443
 20
6.0216
 30
0.0
 10
-10.1443
 20
6.0216
 30
0.0
 10
-7.9391
 20
6.021
 30
0.0
 10
-7.9391
 20
6.021
 30
0.0
 10
-7.9391
 20
6.021
 30
0.0
 10
-7.9391
 20
6.021
 30
0.0
 10
-7.6224
 20
6.0209
 30
0.0
 10
-7.6224
 20
6.0209
 30
0.0
 10
-7.6224
 20
6.0209
 30
0.0
 10
-7.6224
 20
6.0209
 30
0.0
 10
-6.7391
 20
6.9042
 30
0.0
 10
-6.7391
 20
6.9042
 30
0.0
  0
SPLINE
  5
C3
330
1F
100
AcDbEntity
  8
DATUMS
 62
   250
100
AcDbSpline
210
0.0
220
0.0
230
1.0
 70
    11
 71
     3
 72
    20
 73
    16
 74
     0
 42
0.0000000001
 43
0.0000000001
 40
0.0
 40
0.0
 40
0.0
 40
0.0
 40
0.2
 40
0.2
 40
0.2
 40
0.2
 40
0.4
 40
0.4
 40
0.4
 40
0.4
 40
0.6
 40
0.6
 40
0.6
 40
0.6
 40
1.0
 40
1.0
 40
1.0
 40
1.0
 10
-21.9038
 20
12.018
 30
0.0
 10
-21.9038
 20
12.018
 30
0.0
 10
3.7907
 20
12.018
 30
0.0
 10
3.7907
 20
12.018
 30
0.0
 10
3.7907
 20
12.018
 30
0.0
 10
3.7907
 20
12.018
 30
0.0
 10
3.7907
 20
11.841
 30
0.0
 10
3.7907
 20
11.841
 30
0.0
 10
3.7907
 20
11.841
 30
0.0
 10
3.7907
 20
11.841
 30
0.0
 10
-21.9038
 20
11.841
 30
0.0
 10
-21.9038
 20
11.841
 30
0.0
 10
-21.9038
 20
11.841
 30
0.0
 10
-21.9038
 20
11.841
 30
0.0
 10
-21.9038
 20
12.018
 30
0.0
 10
-21.9038
 20
12.018
 30
0.0
  0
SPLINE
  5
C4
330
1F
100
AcDbEntity
  8
DATUMS
 62
   250
100
AcDbSpline
210
0.0
220
0.0
230
1.0
 70
     8
 71
     3
 72
    12
 73
     8
 74
     0
 42
0.0000000001
 43
0.0000000001
 40
0.0
 40
0.0
 40
0.0
 40
0.0
 40
0.3333333333333333
 40
0.3333333333333333
 40
0.3333333333333333
 40
0.3333333333333333
 40
1.0
 40
1.0
 40
1.0
 40
1.0
 10
-18.3876
 20
11.8478
 30
0.0
 10
-17.9555
 20
11.8478
 30
0.0
 10
-17.5817
 20
11.5465
 30
0.0
 10
-17.4899
 20
11.1242
 30
0.0
 10
-17.4899
 20
11.1242
 30
0.0
 10
-17.4899
 20
11.1242
 30
0.0
 10
-16.9868
 20
8.8917
 30
0.0
 10
-16.9868
 20
8.8917
 30
0.0
  0
SPLINE
  5
C5
330
1F
100
AcDbEntity
  8
DATUMS
 62
   250
100
AcDbSpline
210
0.0
220
0.0
230
1.0
 70
     8
 71
     3
 72
    36
 73
    32
 74
     0
 42
0.0000000001
 43
0.0000000001
 40
0.0
 40
0.0
 40
0.0
 40
0.0
 40
0.1111111111111111
 40
0.1111111111111111
 40
0.1111111111111111
 40
0.1111111111111111
 40
0.2222222222222222
 40
0.2222222222222222
 40
0.2222222222222222
 40
0.2222222222222222
 40
0.3333333333333333
 40
0.3333333333333333
 40
0.3333333333333333
 40
0.3333333333333333
 40
0.4444444444444444
 40
0.4444444444444444
 40
0.4444444444444444
 40
0.4444444444444444
 40
0.5555555555555556
 40
0.5555555555555556
 40
0.5555555555555556
 40
0.5555555555555556
 40
0.6666666666666666
 40
0.6666666666666666
 40
0.6666666666666666
 40
0.6666666666666666
 40
0.7777777777777778
 40
0.7777777777777778
 40
0.7777777777777778
 40
0.7777777777777778
 40
1.0
 40
1.0
 40
1.0
 40
1.0
 10
-16.8696
 20
8.2447
 30
0.0
 10
-16.8696
 20
8.2447
 30
0.0
 10
-16.6631
 20
7.3208
 30
0.0
 10
-16.6631
 20
7.3208
 30
0.0
 10
-16.6631
 20
7.3208
 30
0.0
 10
-16.6079
 20
7.0674
 30
0.0
 10
-16.3837
 20
6.8867
 30
0.0
 10
-16.1244
 20
6.8867
 30
0.0
 10
-16.1244
 20
6.8867
 30
0.0
 10
-16.1244
 20
6.8867
 30
0.0
 10
-2.474
 20
6.8939
 30
0.0
 10
-2.474
 20
6.8939
 30
0.0
 10
-2.474
 20
6.8939
 30
0.0
 10
-2.474
 20
6.8939
 30
0.0
 10
-1.8233
 20
6.9194
 30
0.0
 10
-1.8233
 20
6.9194
 30
0.0
 10
-1.8233
 20
6.9194
 30
0.0
 10
-1.8233
 20
6.9194
 30
0.0
 10
-1.6392
 20
7.0116
 30
0.0
 10
-1.6392
 20
7.0116
 30
0.0
 10
-1.6392
 20
7.0116
 30
0.0
 10
-1.6392
 20
7.0116
 30
0.0
 10
-1.5209
 20
7.1105
 30
0.0
 10
-1.5209
 20
7.1105
 30
0.0
 10
-1.5209
 20
7.1105
 30
0.0
 10
-1.5209
 20
7.1105
 30
0.0
 10
-1.4354
 20
7.262
 30
0.0
 10
-1.4354
 20
7.262
 30
0.0
 10
-1.4354
 20
7.262
 30
0.0
 10
-1.4354
 20
7.262
 30
0.0
 10
-1.225
 20
8.2305
 30
0.0
 10
-1.225
 20
8.2305
 30
0.0
  0
SPLINE
  5
C6
330
1F
100
AcDbEntity
  8
DATUMS
 62
   250
100
AcDbSpline
210
0.0
220
0.0
230
1.0
 70
    27
 71
     3
 72
    16
 73
    12
 74
     0
 42
0.0000000001
 43
0.0000000001
 40
0.0
 40
0.0
 40
0.0
 40
0.0
 40
0.25
 40
0.25
 40
0.25
 40
0.25
 40
0.5
 40
0.5
 40
0.5
 40
0.5
 40
1.0
 40
1.0
 40
1.0
 40
1.0
 10
-7.9391
 20
4.1306
 30
0.0
 10
-7.9391
 20
4.1306
 30
0.0
 10
-7.9391
 20
6.021
 30
0.0
 10
-7.9391
 20
6.021
 30
0.0
 10
-7.9391
 20
6.021
 30
0.0
 10
-7.9391
 20
6.021
 30
0.0
 10
-7.9391
 20
6.022
 30
0.0
 10
-7.9391
 20
6.022
 30
0.0
 10
-7.9391
 20
6.022
 30
0.0
 10
-7.9391
 20
6.022
 30
0.0
 10
-7.9391
 20
4.1306
 30
0.0
 10
-7.9391
 20
4.1306
 30
0.0
  0
SPLINE
  5
C7
330
1F
100
AcDbEntity
  8
DATUMS
 62
   250
100
AcDbSpline
210
0.0
220
0.0
230
1.0
 70
    27
 71
     3
 72
    20
 73
    16
 74
     0
 42
0.0000000001
 43
0.0000000001
 40
0.0
 40
0.0
 40
0.0
 40
0.0
 40
0.2
 40
0.2
 40
0.2
 40
0.2
 40
0.4
 40
0.4
 40
0.4
 40
0.4
 40
0.6
 40
0.6
 40
0.6
 40
0.6
 40
1.0
 40
1.0
 40
1.0
 40
1.0
 10
-10.1443
 20
4.1306
 30
0.0
 10
-10.1443
 20
4.1306
 30
0.0
 10
-10.1443
 20
6.0216
 30
0.0
 10
-10.1443
 20
6.0216
 30
0.0
 10
-10.1443
 20
6.0216
 30
0.0
 10
-10.1443
 20
6.0216
 30
0.0
 10
-10.1443
 20
6.022
 30
0.0
 10
-10.1443
 20
6.022
 30
0.0
 10
-10.1443
 20
6.022
 30
0.0
 10
-10.1443
 20
6.022
 30
0.0
 10
-10.1443
 20
6.0216
 30
0.0
 10
-10.1443
 20
6.0216
 30
0.0
 10
-10.1443
 20
6.0216
 30
0.0
 10
-10.1443
 20
6.0216
 30
0.0
 10
-10.1443
 20
4.1306
 30
0.0
 10
-10.1443
 20
4.1306
 30
0.0
  0
ENDSEC
  0
SECTION
  2
OBJECTS
  0
DICTIONARY
  5
C
330
0
100
AcDbDictionary
  3
ACAD_GROUP
350
D
  3
ACAD_LAYOUT
350
1A
  3
ACAD_MATERIAL
350
3B
  3
ACAD_MLEADERSTYLE
350
EA
  3
ACAD_MLINESTYLE
350
17
  3
ACAD_PLOTSETTINGS
350
19
  3
ACAD_VISUALSTYLE
350
2A
  3
ACDBHEADERROUNDTRIPXREC
350
C8
  3
ACDBVARIABLEDICTIONARY
350
E8
  0
DICTIONARY
  5
D
102
{ACAD_REACTORS
330
C
102
}
330
C
100
AcDbDictionary
  0
DICTIONARY
  5
1A
102
{ACAD_REACTORS
330
C
102
}
330
C
100
AcDbDictionary
  0
DICTIONARY
  5
3B
102
{ACAD_REACTORS
330
C
102
}
330
C
100
AcDbDictionary
  3
BYBLOCK
350
3D
  3
BYLAYER
350
3C
  3
GLOBAL
350
3E
  0
DICTIONARY
  5
EA
102
{ACAD_REACTORS
330
C
102
}
330
C
100
AcDbDictionary
  0
DICTIONARY
  5
17
102
{ACAD_REACTORS
330
C
102
}
330
C
100
AcDbDictionary
  3
STANDARD
350
18
  0
DICTIONARY
  5
19
102
{ACAD_REACTORS
330
C
102
}
330
C
100
AcDbDictionary
  0
DICTIONARY
  5
2A
102
{ACAD_REACTORS
330
C
102
}
330
C
100
AcDbDictionary
  3
2DWIREFRAME
350
2F
  3
3D_HIDDEN
350
31
  3
3DWIREFRAME
350
30
  3
BASIC
350
32
  3
BRIGHTEN
350
36
  3
COLORCHANGE
350
3A
  3
CONCEPTUAL
350
34
  3
DIM
350
35
  3
FACEPATTERN
350
39
  3
FLAT
350
2B
  3
FLATWITHEDGES
350
2C
  3
GOURAUD
350
2D
  3
GOURAUDWITHEDGES
350
2E
  3
LINEPATTERN
350
38
  3
REALISTIC
350
33
  3
THICKEN
350
37
  0
DICTIONARY
  5
C8
102
{ACAD_REACTORS
330
C
102
}
330
C
100
AcDbDictionary
  3
CEPSNTYPE
350
D1
  3
DIMSTYLEDATA
350
E7
  3
FINGERPRINTGUID
350
D2
  3
HYPERLINKBASE
350
CB
  3
INSUNITS
350
D0
  3
LAYOUTDICT
350
CD
  3
LWETCUNION
350
CF
  3
PLOTSETDICT
350
CE
  3
PSVPSCALE
350
D4
  3
PUCSBASE
350
D7
  3
PUCSORGBACK
350
DD
  3
PUCSORGBOTTOM
350
D9
  3
PUCSORGFRONT
350
DC
  3
PUCSORGLEFT
350
DA
  3
PUCSORGRIGHT
350
DB
  3
PUCSORGTOP
350
D8
  3
PUCSORTHOREF
350
D5
  3
PUCSORTHOVIEW
350
D6
  3
STYLESHEET
350
CC
  3
TSTACKALIGN
350
C9
  3
TSTACKSIZE
350
CA
  3
UCSBASE
350
E0
  3
UCSORGBACK
350
E6
  3
UCSORGBOTTOM
350
E2
  3
UCSORGFRONT
350
E5
  3
UCSORGLEFT
350
E3
  3
UCSORGRIGHT
350
E4
  3
UCSORGTOP
350
E1
  3
UCSORTHOREF
350
DE
  3
UCSORTHOVIEW
350
DF
  3
VERSIONGUID
350
D3
  0
DICTIONARY
  5
E8
102
{ACAD_REACTORS
330
C
102
}
330
C
100
AcDbDictionary
  3
DIMASSOC
350
EB
  3
HIDETEXT
350
EC
  0
MATERIAL
  5
3D
102
{ACAD_REACTORS
330
3B
102
}
102
{ACAD_XDICTIONARY
360
EF
102
}
330
3B
100
AcDbMaterial
  1
ByBlock
  0
MATERIAL
  5
3C
102
{ACAD_REACTORS
330
3B
102
}
102
{ACAD_XDICTIONARY
360
ED
102
}
330
3B
100
AcDbMaterial
  1
ByLayer
  0
MATERIAL
  5
3E
102
{ACAD_REACTORS
330
3B
102
}
102
{ACAD_XDICTIONARY
360
F1
102
}
330
3B
100
AcDbMaterial
  1
Global
  0
MLINESTYLE
  5
18
102
{ACAD_REACTORS
330
17
102
}
330
17
100
AcDbMlineStyle
  2
Standard
 70
     0
  3

 62
   256
 51
90.0
 52
90.0
 71
     2
 49
0.5
 62
   256
  6
BYLAYER
 49
-0.5
 62
   256
  6
BYLAYER
  0
ACAD_PROXY_OBJECT
  5
2F
102
{ACAD_REACTORS
330
2A
102
}
330
2A
100
AcDbProxyObject
 90
      499
 91
      501
 93
      436
310
42CC9915DA5C99599C985B595049028333333333333E3BF0000000000000FB0107901411070040501600405405064090741402480A0340
1001
ACAD
1000
AcDbSavedByObjectVersion
1070
     0
  0
ACAD_PROXY_OBJECT
  5
31
102
{ACAD_REACTORS
330
2A
102
}
330
2A
100
AcDbProxyObject
 90
      499
 91
      501
 93
      500
310
424CD108121A5919195B90640502408333333333333E3BF0000000000000FB01079024090700405020000000000001110200405405064090740C02480A0340
1001
ACAD
1000
AcDbSavedByObjectVersion
1070
     0
  0
ACAD_PROXY_OBJECT
  5
30
102
{ACAD_REACTORS
330
2A
102
}
330
2A
100
AcDbProxyObject
 90
      499
 91
      501
 93
      436
310
42CCD915DA5C99599C985B595059028333333333333E3BF0000000000000FB0107901411070040501600405405064090741402480A0340
1001
ACAD
1000
AcDbSavedByObjectVersion
1070
     0
  0
ACAD_PROXY_OBJECT
  5
32
102
{ACAD_REACTORS
330
2A
102
}
330
2A
100
AcDbProxyObject
 90
      499
 91
      501
 93
      388
310
4150985CDA58D07406404333333333333E3BF0000000000000FB0107A41107004050150841D405064090741402480A0350
1001
ACAD
1000
AcDbSavedByObjectVersion
1070
     0
  0
ACAD_PROXY_OBJECT
  5
36
102
{ACAD_REACTORS
330
2A
102
}
330
2A
100
AcDbProxyObject
 90
      499
 91
      501
 93
      428
310
42109C9A59DA1D195B90C409028333333333333E3BF0000000000000FB010790141107004050150841D405064090741402480A029950
1001
ACAD
1000
AcDbSavedByObjectVersion
1070
     0
  0
ACAD_PROXY_OBJECT
  5
3A
102
{ACAD_REACTORS
330
2A
102
}
330
2A
100
AcDbProxyObject
 90
      499
 91
      501
 93
      452
310
42D0DBDB1BDC90DA185B99D95104090240C333333333333E3BF0000000000000FB0108901411070040501508421405064090741402480A0350
1001
ACAD
1000
AcDbSavedByObjectVersion
1070
     0
  0
ACAD_PROXY_OBJECT
  5
34
102
{ACAD_REACTORS
330
2A
102
}
330
2A
100
AcDbProxyObject
 90
      499
 91
      501
 93
      500
310
4290DBDB98D95C1D1D585B10940D028333333333333E3BF0000000000000FB0107902409070040501000000000000111010841D405064090740C02480A0340
1001
ACAD
1000
AcDbSavedByObjectVersion
1070
     0
  0
ACAD_PROXY_OBJECT
  5
35
102
{ACAD_REACTORS
330
2A
102
}
330
2A
100
AcDbProxyObject
 90
      499
 91
      501
 93
      412
310
40D11A5B50B409028333333333333E3BF0000000000000FB010790141107004050150841D405064090741402480A02677FFFFFD0
1001
ACAD
1000
AcDbSavedByObjectVersion
1070
     0
  0
ACAD_PROXY_OBJECT
  5
39
102
{ACAD_REACTORS
330
2A
102
}
330
2A
100
AcDbProxyObject
 90
      499
 91
      501
 93
      444
310
42D19858D95C185D1D195C9B90F409028333333333333E3BF0000000000000FB010790141107004050150841D405064090741402480A0350
1001
ACAD
1000
AcDbSavedByObjectVersion
1070
     0
  0
ACAD_PROXY_OBJECT
  5
2B
102
{ACAD_REACTORS
330
2A
102
}
330
2A
100
AcDbProxyObject
 90
      499
 91
      501
 93
      388
310
41119B185D240901404333333333333E3BF0000000000000F9010740A41107004050150841D405064090741402480A1B50
1001
ACAD
1000
AcDbSavedByObjectVersion
1070
     0
  0
ACAD_PROXY_OBJECT
  5
2C
102
{ACAD_REACTORS
330
2A
102
}
330
2A
100
AcDbProxyObject
 90
      499
 91
      501
 93
      476
310
43519B185D15DA5D1A115919D95CD0140901404333333333333E3BF0000000000000F9010740901411070040501600405405064090741402480A1B50
1001
ACAD
1000
AcDbSavedByObjectVersion
1070
     0
  0
ACAD_PROXY_OBJECT
  5
2D
102
{ACAD_REACTORS
330
2A
102
}
330
2A
100
AcDbProxyObject
 90
      499
 91
      501
 93
      412
310
41D1DBDD5C985D5910240902404333333333333E3BF0000000000000F9010740A411070040501641D405064090741402480A1B50
1001
ACAD
1000
AcDbSavedByObjectVersion
1070
     0
  0
ACAD_PROXY_OBJECT
  5
2E
102
{ACAD_REACTORS
330
2A
102
}
330
2A
100
AcDbProxyObject
 90
      499
 91
      501
 93
      500
310
4411DBDD5C985D5915DA5D1A115919D95CD0340902404333333333333E3BF0000000000000F9010740901411070040501600405405064090741402480A1B50
1001
ACAD
1000
AcDbSavedByObjectVersion
1070
     0
  0
ACAD_PROXY_OBJECT
  5
38
102
{ACAD_REACTORS
330
2A
102
}
330
2A
100
AcDbProxyObject
 90
      499
 91
      501
 93
      444
310
42D31A5B995C185D1D195C9B90E409028333333333333E3BF0000000000000FB010790141107004050750841D405064090741402483A0350
1001
ACAD
1000
AcDbSavedByObjectVersion
1070
     0
  0
ACAD_PROXY_OBJECT
  5
33
102
{ACAD_REACTORS
330
2A
102
}
330
2A
100
AcDbProxyObject
 90
      499
 91
      501
 93
      420
310
425499585B1A5CDD1A58D08409028333333333333E3BF0000000000000FB01079019070040501508421405064090741402480A1B40
1001
ACAD
1000
AcDbSavedByObjectVersion
1070
     0
  0
ACAD_PROXY_OBJECT
  5
37
102
{ACAD_REACTORS
330
2A
102
}
330
2A
100
AcDbProxyObject
 90
      499
 91
      501
 93
      412
310
41D51A1A58DAD95B90D409028333333333333E3BF0000000000000FB010790141107004050150C41D405064090741402480A0350
1001
ACAD
1000
AcDbSavedByObjectVersion
1070
     0
  0
XRECORD
  5
D1
102
{ACAD_REACTORS
330
C8
102
}
330
C8
100
AcDbXrecord
 90
        0
  0
XRECORD
  5
E7
102
{ACAD_REACTORS
330
C8
102
}
330
C8
100
AcDbXrecord
1000
DSTYLE
1002
{
1070
   340
340
11
1002
}
  0
XRECORD
  5
D2
102
{ACAD_REACTORS
330
C8
102
}
330
C8
100
AcDbXrecord
  1
{3921E276-4FAF-4019-BE48-1788D648FABE}
  0
XRECORD
  5
CB
102
{ACAD_REACTORS
330
C8
102
}
330
C8
100
AcDbXrecord
  1

  0
XRECORD
  5
D0
102
{ACAD_REACTORS
330
C8
102
}
330
C8
100
AcDbXrecord
 90
        4
  0
XRECORD
  5
CD
102
{ACAD_REACTORS
330
C8
102
}
330
C8
100
AcDbXrecord
340
1A
  0
XRECORD
  5
CF
102
{ACAD_REACTORS
330
C8
102
}
330
C8
100
AcDbXrecord
 90
    10781
  0
XRECORD
  5
CE
102
{ACAD_REACTORS
330
C8
102
}
330
C8
100
AcDbXrecord
340
19
  0
XRECORD
  5
D4
102
{ACAD_REACTORS
330
C8
102
}
330
C8
100
AcDbXrecord
 40
0.0
  0
XRECORD
  5
D7
102
{ACAD_REACTORS
330
C8
102
}
330
C8
100
AcDbXrecord
340
0
  0
XRECORD
  5
DD
102
{ACAD_REACTORS
330
C8
102
}
330
C8
100
AcDbXrecord
 10
0.0
 20
0.0
 30
0.0
  0
XRECORD
  5
D9
102
{ACAD_REACTORS
330
C8
102
}
330
C8
100
AcDbXrecord
 10
0.0
 20
0.0
 30
0.0
  0
XRECORD
  5
DC
102
{ACAD_REACTORS
330
C8
102
}
330
C8
100
AcDbXrecord
 10
0.0
 20
0.0
 30
0.0
  0
XRECORD
  5
DA
102
{ACAD_REACTORS
330
C8
102
}
330
C8
100
AcDbXrecord
 10
0.0
 20
0.0
 30
0.0
  0
XRECORD
  5
DB
102
{ACAD_REACTORS
330
C8
102
}
330
C8
100
AcDbXrecord
 10
0.0
 20
0.0
 30
0.0
  0
XRECORD
  5
D8
102
{ACAD_REACTORS
330
C8
102
}
330
C8
100
AcDbXrecord
 10
0.0
 20
0.0
 30
0.0
  0
XRECORD
  5
D5
102
{ACAD_REACTORS
330
C8
102
}
330
C8
100
AcDbXrecord
340
0
  0
XRECORD
  5
D6
102
{ACAD_REACTORS
330
C8
102
}
330
C8
100
AcDbXrecord
 70
     0
  0
XRECORD
  5
CC
102
{ACAD_REACTORS
330
C8
102
}
330
C8
100
AcDbXrecord
  1

  0
XRECORD
  5
C9
102
{ACAD_REACTORS
330
C8
102
}
330
C8
100
AcDbXrecord
 90
        1
  0
XRECORD
  5
CA
102
{ACAD_REACTORS
330
C8
102
}
330
C8
100
AcDbXrecord
 90
       70
  0
XRECORD
  5
E0
102
{ACAD_REACTORS
330
C8
102
}
330
C8
100
AcDbXrecord
340
0
  0
XRECORD
  5
E6
102
{ACAD_REACTORS
330
C8
102
}
330
C8
100
AcDbXrecord
 10
0.0
 20
0.0
 30
0.0
  0
XRECORD
  5
E2
102
{ACAD_REACTORS
330
C8
102
}
330
C8
100
AcDbXrecord
 10
0.0
 20
0.0
 30
0.0
  0
XRECORD
  5
E5
102
{ACAD_REACTORS
330
C8
102
}
330
C8
100
AcDbXrecord
 10
0.0
 20
0.0
 30
0.0
  0
XRECORD
  5
E3
102
{ACAD_REACTORS
330
C8
102
}
330
C8
100
AcDbXrecord
 10
0.0
 20
0.0
 30
0.0
  0
XRECORD
  5
E4
102
{ACAD_REACTORS
330
C8
102
}
330
C8
100
AcDbXrecord
 10
0.0
 20
0.0
 30
0.0
  0
XRECORD
  5
E1
102
{ACAD_REACTORS
330
C8
102
}
330
C8
100
AcDbXrecord
 10
0.0
 20
0.0
 30
0.0
  0
XRECORD
  5
DE
102
{ACAD_REACTORS
330
C8
102
}
330
C8
100
AcDbXrecord
340
0
  0
XRECORD
  5
DF
102
{ACAD_REACTORS
330
C8
102
}
330
C8
100
AcDbXrecord
 70
     0
  0
XRECORD
  5
D3
102
{ACAD_REACTORS
330
C8
102
}
330
C8
100
AcDbXrecord
  1
{FAEB1C32-E019-11D5-929B-00C0DF256EC4}
  0
DICTIONARYVAR
  5
EB
102
{ACAD_REACTORS
330
E8
102
}
330
E8
100
DictionaryVariables
280
     0
  1
2
  0
DICTIONARYVAR
  5
EC
102
{ACAD_REACTORS
330
E8
102
}
330
E8
100
DictionaryVariables
280
     0
  1
1
  0
DICTIONARY
  5
EF
330
3D
100
AcDbDictionary
280
     1
  3
ACAD_XREC_ROUNDTRIP
360
F0
  0
DICTIONARY
  5
ED
330
3C
100
AcDbDictionary
280
     1
  3
ACAD_XREC_ROUNDTRIP
360
EE
  0
DICTIONARY
  5
F1
330
3E
100
AcDbDictionary
280
     1
  3
ACAD_XREC_ROUNDTRIP
360
F2
  0
XRECORD
  5
F0
102
{ACAD_REACTORS
330
EF
102
}
330
EF
100
AcDbXrecord
102
MATERIAL
148
0.0
149
0.0
149
0.0
 93
        0
 94
      127
282
     0
 72
     1
 77
     1
171
     1
175
     1
179
     1
273
     0
  0
XRECORD
  5
EE
102
{ACAD_REACTORS
330
ED
102
}
330
ED
100
AcDbXrecord
102
MATERIAL
148
0.0
149
0.0
149
0.0
 93
        0
 94
      127
282
     0
 72
     1
 77
     1
171
     1
175
     1
179
     1
273
     0
  0
XRECORD
  5
F2
102
{ACAD_REACTORS
330
F1
102
}
330
F1
100
AcDbXrecord
102
MATERIAL
148
0.0
149
0.0
149
0.0
 93
        0
 94
      127
282
     0
 72
     1
 77
     1
171
     1
175
     1
179
     1
273
     0
  0
ENDSEC
  0
EOF
